  0
SECTION
  2
HEADER
  9
$ACADVER
  1
AC1015
  9
$ACADMAINTVER
 70
     6
  9
$DWGCODEPAGE
  3
ANSI_932
  9
$INSBASE
 10
1030.2521918264
 20
605.6716453048575
 30
0.0
  9
$EXTMIN
 10
131.1400466183272
 20
15.98008432018958
 30
0.0
  9
$EXTMAX
 10
1060.953701254852
 20
882.2302476736218
 30
0.0
  9
$LIMMIN
 10
0.0
 20
0.0
  9
$LIMMAX
 10
816.5000000000001
 20
565.0
  9
$ORTHOMODE
 70
     1
  9
$REGENMODE
 70
     1
  9
$FILLMODE
 70
     1
  9
$QTEXTMODE
 70
     0
  9
$MIRRTEXT
 70
     1
  9
$LTSCALE
 40
5.0
  9
$ATTMODE
 70
     1
  9
$TEXTSIZE
 40
9.0
  9
$TRACEWID
 40
0.05
  9
$TEXTSTYLE
  7
KANJI
  9
$CLAYER
  8
2
  9
$CELTYPE
  6
BYLAYER
  9
$CECOLOR
 62
   256
  9
$CELTSCALE
 40
1.0
  9
$DISPSILH
 70
     0
  9
$DIMSCALE
 40
3.0
  9
$DIMASZ
 40
2.0
  9
$DIMEXO
 40
0.5
  9
$DIMDLI
 40
0.0
  9
$DIMRND
 40
0.0
  9
$DIMDLE
 40
0.0
  9
$DIMEXE
 40
1.0
  9
$DIMTP
 40
0.0
  9
$DIMTM
 40
0.0
  9
$DIMTXT
 40
3.0
  9
$DIMCEN
 40
0.09
  9
$DIMTSZ
 40
0.0
  9
$DIMTOL
 70
     0
  9
$DIMLIM
 70
     0
  9
$DIMTIH
 70
     0
  9
$DIMTOH
 70
     0
  9
$DIMSE1
 70
     0
  9
$DIMSE2
 70
     0
  9
$DIMTAD
 70
     0
  9
$DIMZIN
 70
     8
  9
$DIMBLK
  1

  9
$DIMASO
 70
     0
  9
$DIMSHO
 70
     0
  9
$DIMPOST
  1

  9
$DIMAPOST
  1

  9
$DIMALT
 70
     0
  9
$DIMALTD
 70
     2
  9
$DIMALTF
 40
25.4
  9
$DIMLFAC
 40
1.0
  9
$DIMTOFL
 70
     1
  9
$DIMTVP
 40
1.0
  9
$DIMTIX
 70
     1
  9
$DIMSOXD
 70
     1
  9
$DIMSAH
 70
     0
  9
$DIMBLK1
  1

  9
$DIMBLK2
  1

  9
$DIMSTYLE
  2
STANDARD
  9
$DIMCLRD
 70
   256
  9
$DIMCLRE
 70
   256
  9
$DIMCLRT
 70
   256
  9
$DIMTFAC
 40
1.0
  9
$DIMGAP
 40
0.09
  9
$DIMJUST
 70
     0
  9
$DIMSD1
 70
     0
  9
$DIMSD2
 70
     0
  9
$DIMTOLJ
 70
     1
  9
$DIMTZIN
 70
     0
  9
$DIMALTZ
 70
     0
  9
$DIMALTTZ
 70
     0
  9
$DIMUPT
 70
     0
  9
$DIMDEC
 70
     1
  9
$DIMTDEC
 70
     4
  9
$DIMALTU
 70
     2
  9
$DIMALTTD
 70
     2
  9
$DIMTXSTY
  7
STANDARD
  9
$DIMAUNIT
 70
     0
  9
$DIMADEC
 70
     0
  9
$DIMALTRND
 40
0.0
  9
$DIMAZIN
 70
     0
  9
$DIMDSEP
 70
    46
  9
$DIMATFIT
 70
     3
  9
$DIMFRAC
 70
     0
  9
$DIMLDRBLK
  1

  9
$DIMLUNIT
 70
     2
  9
$DIMLWD
 70
    -2
  9
$DIMLWE
 70
    -2
  9
$DIMTMOVE
 70
     0
  9
$LUNITS
 70
     2
  9
$LUPREC
 70
     3
  9
$SKETCHINC
 40
0.1
  9
$FILLETRAD
 40
1.0
  9
$AUNITS
 70
     0
  9
$AUPREC
 70
     3
  9
$MENU
  1
C:\R13\WIN\SUPPORT\ACADFULL
  9
$ELEVATION
 40
0.0
  9
$PELEVATION
 40
0.0
  9
$THICKNESS
 40
0.0
  9
$LIMCHECK
 70
     0
  9
$CHAMFERA
 40
0.0
  9
$CHAMFERB
 40
0.0
  9
$CHAMFERC
 40
0.0
  9
$CHAMFERD
 40
0.0
  9
$SKPOLY
 70
     0
  9
$TDCREATE
 40
2457438.787551667
  9
$TDUCREATE
 40
2457438.412551667
  9
$TDUPDATE
 40
2457871.815759143
  9
$TDUUPDATE
 40
2457871.440759143
  9
$TDINDWG
 40
0.0296469097
  9
$TDUSRTIMER
 40
0.0296465278
  9
$USRTIMER
 70
     1
  9
$ANGBASE
 50
0.0
  9
$ANGDIR
 70
     0
  9
$PDMODE
 70
     0
  9
$PDSIZE
 40
0.0
  9
$PLINEWID
 40
0.0
  9
$SPLFRAME
 70
     0
  9
$SPLINETYPE
 70
     6
  9
$SPLINESEGS
 70
     8
  9
$HANDSEED
  5
531
  9
$SURFTAB1
 70
     6
  9
$SURFTAB2
 70
     6
  9
$SURFTYPE
 70
     6
  9
$SURFU
 70
     6
  9
$SURFV
 70
     6
  9
$UCSBASE
  2

  9
$UCSNAME
  2

  9
$UCSORG
 10
0.0
 20
0.0
 30
0.0
  9
$UCSXDIR
 10
1.0
 20
0.0
 30
0.0
  9
$UCSYDIR
 10
0.0
 20
1.0
 30
0.0
  9
$UCSORTHOREF
  2

  9
$UCSORTHOVIEW
 70
     0
  9
$UCSORGTOP
 10
0.0
 20
0.0
 30
0.0
  9
$UCSORGBOTTOM
 10
0.0
 20
0.0
 30
0.0
  9
$UCSORGLEFT
 10
0.0
 20
0.0
 30
0.0
  9
$UCSORGRIGHT
 10
0.0
 20
0.0
 30
0.0
  9
$UCSORGFRONT
 10
0.0
 20
0.0
 30
0.0
  9
$UCSORGBACK
 10
0.0
 20
0.0
 30
0.0
  9
$PUCSBASE
  2

  9
$PUCSNAME
  2

  9
$PUCSORG
 10
0.0
 20
0.0
 30
0.0
  9
$PUCSXDIR
 10
1.0
 20
0.0
 30
0.0
  9
$PUCSYDIR
 10
0.0
 20
1.0
 30
0.0
  9
$PUCSORTHOREF
  2

  9
$PUCSORTHOVIEW
 70
     0
  9
$PUCSORGTOP
 10
0.0
 20
0.0
 30
0.0
  9
$PUCSORGBOTTOM
 10
0.0
 20
0.0
 30
0.0
  9
$PUCSORGLEFT
 10
0.0
 20
0.0
 30
0.0
  9
$PUCSORGRIGHT
 10
0.0
 20
0.0
 30
0.0
  9
$PUCSORGFRONT
 10
0.0
 20
0.0
 30
0.0
  9
$PUCSORGBACK
 10
0.0
 20
0.0
 30
0.0
  9
$USERI1
 70
     0
  9
$USERI2
 70
     0
  9
$USERI3
 70
     0
  9
$USERI4
 70
     0
  9
$USERI5
 70
     0
  9
$USERR1
 40
0.0
  9
$USERR2
 40
0.0
  9
$USERR3
 40
0.0
  9
$USERR4
 40
2448925.372986111
  9
$USERR5
 40
0.04166667
  9
$WORLDVIEW
 70
     1
  9
$SHADEDGE
 70
     3
  9
$SHADEDIF
 70
    70
  9
$TILEMODE
 70
     1
  9
$MAXACTVP
 70
    16
  9
$PINSBASE
 10
0.0
 20
0.0
 30
0.0
  9
$PLIMCHECK
 70
     0
  9
$PEXTMIN
 10
1.000000000000000E+20
 20
1.000000000000000E+20
 30
1.000000000000000E+20
  9
$PEXTMAX
 10
-1.000000000000000E+20
 20
-1.000000000000000E+20
 30
-1.000000000000000E+20
  9
$PLIMMIN
 10
0.0
 20
0.0
  9
$PLIMMAX
 10
12.0
 20
9.0
  9
$UNITMODE
 70
     0
  9
$VISRETAIN
 70
     0
  9
$PLINEGEN
 70
     0
  9
$PSLTSCALE
 70
     0
  9
$TREEDEPTH
 70
  3020
  9
$CMLSTYLE
  2
STANDARD
  9
$CMLJUST
 70
     0
  9
$CMLSCALE
 40
1.0
  9
$PROXYGRAPHICS
 70
     1
  9
$MEASUREMENT
 70
     0
  9
$CELWEIGHT
370
    -1
  9
$ENDCAPS
280
     0
  9
$JOINSTYLE
280
     0
  9
$LWDISPLAY
290
     0
  9
$INSUNITS
 70
     0
  9
$HYPERLINKBASE
  1

  9
$STYLESHEET
  1

  9
$XEDIT
290
     1
  9
$CEPSNTYPE
380
     0
  9
$PSTYLEMODE
290
     1
  9
$FINGERPRINTGUID
  2
{3E3101BC-A858-4BAD-BC4E-AE39A5EB20E1}
  9
$VERSIONGUID
  2
{3AB7E9C5-E4C0-453A-8230-B3D4A8039594}
  9
$EXTNAMES
290
     1
  9
$PSVPSCALE
 40
0.0
  9
$OLESTARTUP
290
     0
  0
ENDSEC
  0
SECTION
  2
CLASSES
  0
CLASS
  1
ACDBDICTIONARYWDFLT
  2
AcDbDictionaryWithDefault
  3
ObjectDBX Classes
 90
        0
280
     0
281
     0
  0
CLASS
  1
MATERIAL
  2
AcDbMaterial
  3
ObjectDBX Classes
 90
     1153
280
     0
281
     0
  0
CLASS
  1
SORTENTSTABLE
  2
AcDbSortentsTable
  3
ObjectDBX Classes
 90
        0
280
     0
281
     0
  0
CLASS
  1
SCALE
  2
AcDbScale
  3
ObjectDBX Classes
 90
     1153
280
     0
281
     0
  0
CLASS
  1
DICTIONARYVAR
  2
AcDbDictionaryVar
  3
ObjectDBX Classes
 90
        0
280
     0
281
     0
  0
CLASS
  1
VISUALSTYLE
  2
AcDbVisualStyle
  3
ObjectDBX Classes
 90
     4095
280
     0
281
     0
  0
CLASS
  1
MLEADERSTYLE
  2
AcDbMLeaderStyle
  3
ACDB_MLEADERSTYLE_CLASS
 90
     4095
280
     0
281
     0
  0
CLASS
  1
TABLESTYLE
  2
AcDbTableStyle
  3
ObjectDBX Classes
 90
     4095
280
     0
281
     0
  0
CLASS
  1
ACDBPLACEHOLDER
  2
AcDbPlaceHolder
  3
ObjectDBX Classes
 90
        0
280
     0
281
     0
  0
CLASS
  1
LAYOUT
  2
AcDbLayout
  3
ObjectDBX Classes
 90
        0
280
     0
281
     0
  0
ENDSEC
  0
SECTION
  2
TABLES
  0
TABLE
  2
VPORT
  5
29
102
{ACAD_XDICTIONARY
360
4F6
102
}
330
0
100
AcDbSymbolTable
 70
     1
  0
VPORT
  5
2E
330
29
100
AcDbSymbolTableRecord
100
AcDbViewportTableRecord
  2
*ACTIVE
 70
     0
 10
0.0
 20
0.0
 11
1.0
 21
1.0
 12
1003.665475583891
 22
424.4467494182348
 13
0.0
 23
0.0
 14
1.0
 24
1.0
 15
50.0
 25
50.0
 16
0.0
 26
0.0
 36
1.0
 17
0.0
 27
0.0
 37
0.0
 40
973.2102738900103
 41
2.177611940298507
 42
50.0
 43
0.0
 44
0.0
 50
0.0
 51
0.0
 71
     0
 72
  5000
 73
     1
 74
     0
 75
     0
 76
     0
 77
     0
 78
     0
281
     0
 65
     1
110
0.0
120
0.0
130
0.0
111
1.0
121
0.0
131
0.0
112
0.0
122
1.0
132
0.0
 79
     0
146
0.0
1001
ACAD_NAV_VCDISPLAY
1070
     3
  0
ENDTAB
  0
TABLE
  2
LTYPE
  5
D
330
0
100
AcDbSymbolTable
 70
     2
  0
LTYPE
  5
E
330
D
100
AcDbSymbolTableRecord
100
AcDbLinetypeTableRecord
  2
BYBLOCK
 70
     0
  3

 72
    65
 73
     0
 40
0.0
  0
LTYPE
  5
F
330
D
100
AcDbSymbolTableRecord
100
AcDbLinetypeTableRecord
  2
BYLAYER
 70
     0
  3

 72
    65
 73
     0
 40
0.0
  0
LTYPE
  5
C
330
D
100
AcDbSymbolTableRecord
100
AcDbLinetypeTableRecord
  2
CONTINUOUS
 70
     0
  3
Solid line
 72
    65
 73
     0
 40
0.0
  0
LTYPE
  5
59
330
D
100
AcDbSymbolTableRecord
100
AcDbLinetypeTableRecord
  2
CENTER
 70
     0
  3
____ _ ____ _ ____ _ ____ _ ____ _ ____ _ ____
 72
    65
 73
     4
 40
2.0
 49
1.25
 74
     0
 49
-0.25
 74
     0
 49
0.25
 74
     0
 49
-0.25
 74
     0
  0
ENDTAB
  0
TABLE
  2
LAYER
  5
2
330
0
100
AcDbSymbolTable
 70
     8
  0
LAYER
  5
1D
102
{ACAD_XDICTIONARY
360
1E
102
}
330
2
100
AcDbSymbolTableRecord
100
AcDbLayerTableRecord
  2
0
 70
     0
 62
     7
  6
CONTINUOUS
370
    -3
390
5
  0
LAYER
  5
D7
102
{ACAD_XDICTIONARY
360
D8
102
}
330
2
100
AcDbSymbolTableRecord
100
AcDbLayerTableRecord
  2
1
 70
     0
 62
     9
  6
CONTINUOUS
370
    -3
390
5
  0
LAYER
  5
1
102
{ACAD_XDICTIONARY
360
3
102
}
330
2
100
AcDbSymbolTableRecord
100
AcDbLayerTableRecord
  2
2
 70
     0
 62
     4
  6
CONTINUOUS
370
    -3
390
5
  0
LAYER
  5
6A
102
{ACAD_XDICTIONARY
360
6B
102
}
330
2
100
AcDbSymbolTableRecord
100
AcDbLayerTableRecord
  2
4
 70
     0
 62
     3
  6
CONTINUOUS
370
    -3
390
5
  0
LAYER
  5
56
102
{ACAD_XDICTIONARY
360
57
102
}
330
2
100
AcDbSymbolTableRecord
100
AcDbLayerTableRecord
  2
L-CENTER
 70
     0
 62
     1
  6
CENTER
370
    -3
390
5
  0
LAYER
  5
5C
102
{ACAD_XDICTIONARY
360
5D
102
}
330
2
100
AcDbSymbolTableRecord
100
AcDbLayerTableRecord
  2
3
 70
     0
 62
     2
  6
CONTINUOUS
370
    -3
390
5
  0
LAYER
  5
D0
330
2
100
AcDbSymbolTableRecord
100
AcDbLayerTableRecord
  2
5
 70
     0
 62
     6
  6
CONTINUOUS
370
    -3
390
5
  0
LAYER
  5
493
330
2
100
AcDbSymbolTableRecord
100
AcDbLayerTableRecord
  2
Defpoints
 70
     0
 62
     7
  6
CONTINUOUS
290
     0
370
    -3
390
5
  0
ENDTAB
  0
TABLE
  2
STYLE
  5
11
330
0
100
AcDbSymbolTable
 70
     2
  0
STYLE
  5
15
330
11
100
AcDbSymbolTableRecord
100
AcDbTextStyleTableRecord
  2
STANDARD
 70
     0
 40
0.0
 41
1.0
 50
0.0
 71
     0
 42
5.4
  3
TXT
  4

  0
STYLE
  5
10
330
11
100
AcDbSymbolTableRecord
100
AcDbTextStyleTableRecord
  2
KANJI
 70
     0
 40
0.0
 41
1.0
 50
0.0
 71
     0
 42
9.0
  3
TXT
  4
BIGFONT
  0
ENDTAB
  0
TABLE
  2
VIEW
  5
27
330
0
100
AcDbSymbolTable
 70
     0
  0
ENDTAB
  0
TABLE
  2
UCS
  5
28
330
0
100
AcDbSymbolTable
 70
     0
  0
ENDTAB
  0
TABLE
  2
APPID
  5
B
330
0
100
AcDbSymbolTable
 70
     4
  0
APPID
  5
A
330
B
100
AcDbSymbolTableRecord
100
AcDbRegAppTableRecord
  2
ACAD
 70
     0
  0
APPID
  5
2F
330
B
100
AcDbSymbolTableRecord
100
AcDbRegAppTableRecord
  2
ACAD_NAV_VCDISPLAY
 70
     0
  0
APPID
  5
471
330
B
100
AcDbSymbolTableRecord
100
AcDbRegAppTableRecord
  2
ACAD_PSEXT
 70
     0
  0
APPID
  5
4EC
330
B
100
AcDbSymbolTableRecord
100
AcDbRegAppTableRecord
  2
ACAD_MLEADERVER
 70
     0
  0
ENDTAB
  0
TABLE
  2
DIMSTYLE
  5
14
330
0
100
AcDbSymbolTable
 70
     1
100
AcDbDimStyleTable
  0
DIMSTYLE
105
13
330
14
100
AcDbSymbolTableRecord
100
AcDbDimStyleTableRecord
  2
STANDARD
 70
     0
178
     0
340
15
  0
ENDTAB
  0
TABLE
  2
BLOCK_RECORD
  5
18
330
0
100
AcDbSymbolTable
 70
     0
  0
BLOCK_RECORD
  5
19
102
{ACAD_XDICTIONARY
360
1A
102
}
330
18
100
AcDbSymbolTableRecord
100
AcDbBlockTableRecord
  2
*MODEL_SPACE
340
21
  0
BLOCK_RECORD
  5
23
330
18
100
AcDbSymbolTableRecord
100
AcDbBlockTableRecord
  2
*PAPER_SPACE
340
26
  0
ENDTAB
  0
ENDSEC
  0
SECTION
  2
BLOCKS
  0
BLOCK
  5
1C
330
19
100
AcDbEntity
  8
0
100
AcDbBlockBegin
  2
*MODEL_SPACE
 70
     0
 10
0.0
 20
0.0
 30
0.0
  3
*MODEL_SPACE
  1

  0
ENDBLK
  5
20
330
19
100
AcDbEntity
  8
0
100
AcDbBlockEnd
  0
BLOCK
  5
24
330
23
100
AcDbEntity
 67
     1
  8
0
100
AcDbBlockBegin
  2
*PAPER_SPACE
 70
     0
 10
0.0
 20
0.0
 30
0.0
  3
*PAPER_SPACE
  1

  0
ENDBLK
  5
25
330
23
100
AcDbEntity
 67
     1
  8
0
100
AcDbBlockEnd
  0
ENDSEC
  0
SECTION
  2
ENTITIES
  0
CIRCLE
  5
69
330
19
100
AcDbEntity
  8
4
100
AcDbCircle
 10
345.9127434895506
 20
61.79957664395465
 30
0.0
 40
5.5
  0
CIRCLE
  5
6D
330
19
100
AcDbEntity
  8
2
100
AcDbCircle
 10
345.9127434895506
 20
61.79957664395465
 30
0.0
 40
6.577999999999975
  0
LINE
  5
6E
330
19
100
AcDbEntity
  8
2
 48
3.0
100
AcDbLine
 10
345.9127434895508
 20
65.26367825909233
 30
0.0
 11
342.9127434895506
 21
63.53162745152332
 31
0.0
  0
LINE
  5
6F
330
19
100
AcDbEntity
  8
2
 48
3.0
100
AcDbLine
 10
348.9127434895507
 20
60.0675258363857
 30
0.0
 11
345.9127434895507
 21
58.3354750288168
 31
0.0
  0
LINE
  5
1A5
330
19
100
AcDbEntity
  8
4
100
AcDbLine
 10
350.9127434895506
 20
876.8912837371354
 30
0.0
 11
364.9127434895506
 21
876.8912837371354
 31
0.0
  0
LINE
  5
1A6
330
19
100
AcDbEntity
  8
4
100
AcDbLine
 10
363.9127434895506
 20
877.8912837371354
 30
0.0
 11
364.9127434895506
 21
876.8912837371354
 31
0.0
  0
LINE
  5
1A7
330
19
100
AcDbEntity
  8
4
100
AcDbLine
 10
326.9127434895506
 20
876.8912837371354
 30
0.0
 11
340.9127434895506
 21
876.8912837371354
 31
0.0
  0
LINE
  5
1A8
330
19
100
AcDbEntity
  8
4
100
AcDbLine
 10
326.9127434895506
 20
876.8912837371354
 30
0.0
 11
327.9127434895506
 21
877.8912837371354
 31
0.0
  0
LINE
  5
1A9
330
19
100
AcDbEntity
  8
4
100
AcDbLine
 10
327.9127434895506
 20
877.8912837371354
 30
0.0
 11
363.9127434895506
 21
877.8912837371354
 31
0.0
  0
LINE
  5
1AA
330
19
100
AcDbEntity
  8
4
100
AcDbLine
 10
468.9127434895506
 20
787.8912837371354
 30
0.0
 11
468.9127434895508
 21
775.1912837371356
 31
0.0
  0
ARC
  5
1AB
330
19
100
AcDbEntity
  8
4
100
AcDbCircle
 10
472.9127434895506
 20
764.1912837371356
 30
0.0
 40
1.0
100
AcDbArc
 50
0.0
 51
90.0
  0
LINE
  5
1AC
330
19
100
AcDbEntity
  8
4
100
AcDbLine
 10
472.4127434895515
 20
775.1912837371356
 30
0.0
 11
459.4127434895515
 21
775.1912837371356
 31
0.0
  0
LINE
  5
1AD
330
19
100
AcDbEntity
  8
4
100
AcDbLine
 10
473.1627434895515
 20
767.1912837371356
 30
0.0
 11
458.6627434895515
 21
767.1912837371356
 31
0.0
  0
LINE
  5
1AE
330
19
100
AcDbEntity
  8
4
100
AcDbLine
 10
459.4127434895515
 20
767.1912837371356
 30
0.0
 11
459.4127434895515
 21
775.1912837371356
 31
0.0
  0
LINE
  5
1AF
330
19
100
AcDbEntity
  8
4
100
AcDbLine
 10
458.6627434895515
 20
765.1912837371356
 30
0.0
 11
458.6627434895515
 21
767.1912837371356
 31
0.0
  0
LINE
  5
1B0
330
19
100
AcDbEntity
  8
4
100
AcDbLine
 10
472.4127434895515
 20
767.1912837371356
 30
0.0
 11
472.4127434895515
 21
775.1912837371356
 31
0.0
  0
LINE
  5
1B1
330
19
100
AcDbEntity
  8
4
100
AcDbLine
 10
473.1627434895515
 20
765.1912837371356
 30
0.0
 11
473.1627434895515
 21
767.1912837371356
 31
0.0
  0
ARC
  5
1B2
330
19
100
AcDbEntity
  8
4
100
AcDbCircle
 10
463.9127434895506
 20
787.8912837371354
 30
0.0
 40
5.0
100
AcDbArc
 50
0.0
 51
90.0
  0
LINE
  5
1B3
330
19
100
AcDbEntity
  8
4
100
AcDbLine
 10
345.9127434895506
 20
807.8912837371354
 30
0.0
 11
345.9127434895506
 21
807.8912837371354
 31
0.0
  0
ARC
  5
1B4
330
19
100
AcDbEntity
  8
4
100
AcDbCircle
 10
345.9127434895507
 20
812.8912837371354
 30
0.0
 40
5.0
100
AcDbArc
 50
270.0
 51
0.0
  0
ARC
  5
1B5
330
19
100
AcDbEntity
  8
4
100
AcDbCircle
 10
365.9127434895507
 20
803.8912837371354
 30
0.0
 40
1.0
100
AcDbArc
 50
180.0
 51
270.0
  0
ARC
  5
1B6
330
19
100
AcDbEntity
  8
4
100
AcDbCircle
 10
325.9127434895507
 20
803.8912837371354
 30
0.0
 40
1.0
100
AcDbArc
 50
270.0
 51
0.0
  0
LINE
  5
1B7
330
19
100
AcDbEntity
  8
4
100
AcDbLine
 10
325.9127434895506
 20
802.8912837371354
 30
0.0
 11
365.9127434895506
 21
802.8912837371354
 31
0.0
  0
ARC
  5
1B8
330
19
100
AcDbEntity
  8
4
100
AcDbCircle
 10
345.9127434895507
 20
812.8912837371354
 30
0.0
 40
5.0
100
AcDbArc
 50
180.0
 51
270.0
  0
LINE
  5
1B9
330
19
100
AcDbEntity
  8
4
100
AcDbLine
 10
394.9127434895506
 20
787.8912837371354
 30
0.0
 11
394.9127434895507
 21
772.1289886551685
 31
0.0
  0
LINE
  5
1BA
330
19
100
AcDbEntity
  8
4
100
AcDbLine
 10
388.1137114697892
 20
783.0544011429274
 30
0.0
 11
390.5752730564593
 21
774.0286753251366
 31
0.0
  0
LINE
  5
1BB
330
19
100
AcDbEntity
  8
4
100
AcDbLine
 10
372.9127434895506
 20
772.7912837371355
 30
0.0
 11
369.1503672519269
 21
765.1912837371356
 31
0.0
  0
LINE
  5
1BC
330
19
100
AcDbEntity
  8
4
100
AcDbLine
 10
376.9127434895505
 20
784.7912837371355
 30
0.0
 11
376.9127434895504
 21
783.7912837371355
 31
0.0
  0
ARC
  5
1BD
330
19
100
AcDbEntity
  8
4
100
AcDbCircle
 10
387.1489476485515
 20
782.7912837371355
 30
0.0
 40
1.0
100
AcDbArc
 50
15.25511870304778
 51
90.0
  0
LINE
  5
1BE
330
19
100
AcDbEntity
  8
4
100
AcDbLine
 10
399.4127434895515
 20
771.383906687955
 30
0.0
 11
392.1781010615514
 21
772.5817737129191
 31
0.0
  0
LINE
  5
1BF
330
19
100
AcDbEntity
  8
4
100
AcDbLine
 10
412.4127434895515
 20
775.1912837371356
 30
0.0
 11
399.4127434895515
 21
775.1912837371356
 31
0.0
  0
LINE
  5
1C0
330
19
100
AcDbEntity
  8
4
100
AcDbLine
 10
413.1627434895515
 20
767.1912837371356
 30
0.0
 11
398.6627434895515
 21
767.1912837371356
 31
0.0
  0
LINE
  5
1C1
330
19
100
AcDbEntity
  8
4
100
AcDbLine
 10
399.4127434895515
 20
767.1912837371356
 30
0.0
 11
399.4127434895515
 21
775.1912837371356
 31
0.0
  0
LINE
  5
1C2
330
19
100
AcDbEntity
  8
4
100
AcDbLine
 10
398.6627434895515
 20
765.1912837371356
 30
0.0
 11
398.6627434895515
 21
767.1912837371356
 31
0.0
  0
LINE
  5
1C3
330
19
100
AcDbEntity
  8
4
100
AcDbLine
 10
412.4127434895515
 20
767.1912837371356
 30
0.0
 11
412.4127434895515
 21
775.1912837371356
 31
0.0
  0
LINE
  5
1C4
330
19
100
AcDbEntity
  8
4
100
AcDbLine
 10
413.1627434895515
 20
765.1912837371356
 30
0.0
 11
413.1627434895515
 21
767.1912837371356
 31
0.0
  0
ARC
  5
1C5
330
19
100
AcDbEntity
  8
4
100
AcDbCircle
 10
392.5048006989348
 20
774.5549101367205
 30
0.0
 40
2.0
100
AcDbArc
 50
195.2551187030482
 51
260.5986145193453
  0
LINE
  5
1C6
330
19
100
AcDbEntity
  8
4
100
AcDbLine
 10
296.9127434895511
 20
787.8912837371354
 30
0.0
 11
296.9127434895511
 21
772.1289886551681
 31
0.0
  0
LINE
  5
1C7
330
19
100
AcDbEntity
  8
4
100
AcDbLine
 10
318.9127434895506
 20
772.7912837371355
 30
0.0
 11
322.6751197271743
 21
765.1912837371356
 31
0.0
  0
LINE
  5
1C8
330
19
100
AcDbEntity
  8
4
100
AcDbLine
 10
303.711775509312
 20
783.0544011429274
 30
0.0
 11
301.2502139226418
 21
774.0286753251366
 31
0.0
  0
ARC
  5
1C9
330
19
100
AcDbEntity
  8
4
100
AcDbCircle
 10
299.3206862801665
 20
774.5549101367205
 30
0.0
 40
2.0
100
AcDbArc
 50
279.4013854806547
 51
344.7448812969518
  0
ARC
  5
1CA
330
19
100
AcDbEntity
  8
4
100
AcDbCircle
 10
304.6765393305498
 20
782.7912837371355
 30
0.0
 40
1.0
100
AcDbArc
 50
90.0
 51
164.7448812969522
  0
LINE
  5
1CB
330
19
100
AcDbEntity
  8
4
100
AcDbLine
 10
314.9127434895505
 20
784.7912837371355
 30
0.0
 11
314.9127434895505
 21
783.7912837371355
 31
0.0
  0
LINE
  5
1CC
330
19
100
AcDbEntity
  8
4
100
AcDbLine
 10
292.4127434895497
 20
771.3839066879545
 30
0.0
 11
299.6473859175501
 21
772.5817737129191
 31
0.0
  0
LINE
  5
1CD
330
19
100
AcDbEntity
  8
4
100
AcDbLine
 10
292.4127434895497
 20
775.1912837371356
 30
0.0
 11
279.4127434895497
 21
775.1912837371356
 31
0.0
  0
LINE
  5
1CE
330
19
100
AcDbEntity
  8
4
100
AcDbLine
 10
293.1627434895497
 20
767.1912837371356
 30
0.0
 11
278.6627434895497
 21
767.1912837371356
 31
0.0
  0
LINE
  5
1CF
330
19
100
AcDbEntity
  8
4
100
AcDbLine
 10
279.4127434895497
 20
767.1912837371356
 30
0.0
 11
279.4127434895497
 21
775.1912837371356
 31
0.0
  0
LINE
  5
1D0
330
19
100
AcDbEntity
  8
4
100
AcDbLine
 10
278.6627434895497
 20
765.1912837371356
 30
0.0
 11
278.6627434895497
 21
767.1912837371356
 31
0.0
  0
LINE
  5
1D1
330
19
100
AcDbEntity
  8
4
100
AcDbLine
 10
292.4127434895497
 20
767.1912837371356
 30
0.0
 11
292.4127434895497
 21
775.1912837371356
 31
0.0
  0
LINE
  5
1D2
330
19
100
AcDbEntity
  8
4
100
AcDbLine
 10
293.1627434895497
 20
765.1912837371356
 30
0.0
 11
293.1627434895497
 21
767.1912837371356
 31
0.0
  0
LINE
  5
1D3
330
19
100
AcDbEntity
  8
4
100
AcDbLine
 10
387.1489476485515
 20
772.7912837371355
 30
0.0
 11
304.6765393305498
 21
772.7912837371355
 31
0.0
  0
LINE
  5
1D4
330
19
100
AcDbEntity
  8
4
100
AcDbLine
 10
376.9127434895504
 20
784.7912837371355
 30
0.0
 11
314.9127434895505
 21
784.7912837371355
 31
0.0
  0
LINE
  5
1D5
330
19
100
AcDbEntity
  8
4
100
AcDbLine
 10
387.1489476485515
 20
783.7912837371355
 30
0.0
 11
304.6765393305498
 21
783.7912837371355
 31
0.0
  0
ARC
  5
1D6
330
19
100
AcDbEntity
  8
4
100
AcDbCircle
 10
291.9127434895511
 20
787.8912837371354
 30
0.0
 40
5.0
100
AcDbArc
 50
0.0
 51
90.0
  0
ARC
  5
1D7
330
19
100
AcDbEntity
  8
4
100
AcDbCircle
 10
399.9127434895506
 20
787.8912837371354
 30
0.0
 40
5.0
100
AcDbArc
 50
90.0
 51
180.0
  0
LINE
  5
1D8
330
19
100
AcDbEntity
  8
4
100
AcDbLine
 10
325.9127434895507
 20
784.7912837371355
 30
0.0
 11
325.9127434895506
 21
802.8912837371354
 31
0.0
  0
LINE
  5
1D9
330
19
100
AcDbEntity
  8
4
100
AcDbLine
 10
365.9127434895507
 20
784.7912837371355
 30
0.0
 11
365.9127434895506
 21
802.8912837371354
 31
0.0
  0
LINE
  5
1DA
330
19
100
AcDbEntity
  8
4
100
AcDbLine
 10
463.9127434895506
 20
792.8912837371354
 30
0.0
 11
399.9127434895506
 21
792.8912837371354
 31
0.0
  0
ARC
  5
1DB
330
19
100
AcDbEntity
  8
4
100
AcDbCircle
 10
430.9127434895506
 20
762.8912837371354
 30
0.0
 40
9.0
100
AcDbArc
 50
14.80650691189571
 51
149.5459547618771
  0
LINE
  5
1DC
330
19
100
AcDbEntity
  8
L-CENTER
 48
3.0
100
AcDbLine
 10
446.0327434895505
 20
762.8912837371354
 30
0.0
 11
415.7927434895507
 21
762.8912837371354
 31
0.0
  0
LINE
  5
1DD
330
19
100
AcDbEntity
  8
4
100
AcDbLine
 10
436.813733588559
 20
765.1912837371356
 30
0.0
 11
412.4127434895515
 21
769.2314476715619
 31
0.0
  0
LINE
  5
1DE
330
19
100
AcDbEntity
  8
4
100
AcDbLine
 10
350.9127434895506
 20
812.8912837371354
 30
0.0
 11
350.9127434895506
 21
877.8912837371354
 31
0.0
  0
LINE
  5
1DF
330
19
100
AcDbEntity
  8
4
100
AcDbLine
 10
340.9127434895506
 20
812.8912837371354
 30
0.0
 11
340.9127434895506
 21
877.8912837371354
 31
0.0
  0
LINE
  5
1E0
330
19
100
AcDbEntity
  8
4
100
AcDbLine
 10
326.9127434895506
 20
803.8912837371354
 30
0.0
 11
326.9127434895506
 21
876.8912837371354
 31
0.0
  0
LINE
  5
1E1
330
19
100
AcDbEntity
  8
4
100
AcDbLine
 10
364.9127434895506
 20
803.8912837371354
 30
0.0
 11
364.9127434895506
 21
876.8912837371354
 31
0.0
  0
LINE
  5
1E2
330
19
100
AcDbEntity
  8
4
100
AcDbLine
 10
473.9127434895508
 20
753.8912837371358
 30
0.0
 11
473.9127434895508
 21
747.8912837371354
 31
0.0
  0
LINE
  5
1E3
330
19
100
AcDbEntity
  8
4
100
AcDbLine
 10
554.9127434895506
 20
711.3912837371354
 30
0.0
 11
555.9127434895506
 21
710.3912837371354
 31
0.0
  0
LINE
  5
1E4
330
19
100
AcDbEntity
  8
4
100
AcDbLine
 10
554.9127434895506
 20
711.3912837371354
 30
0.0
 11
554.9127434895506
 21
701.3912837371354
 31
0.0
  0
LINE
  5
1E5
330
19
100
AcDbEntity
  8
4
100
AcDbLine
 10
475.9127434895506
 20
715.3912837371354
 30
0.0
 11
495.9127434895506
 21
715.3912837371354
 31
0.0
  0
ARC
  5
1E6
330
19
100
AcDbEntity
  8
4
100
AcDbCircle
 10
496.9127434895506
 20
712.3912837371354
 30
0.0
 40
1.0
100
AcDbArc
 50
180.0
 51
270.0
  0
LINE
  5
1E7
330
19
100
AcDbEntity
  8
4
100
AcDbLine
 10
504.4127434895506
 20
701.3912837371354
 30
0.0
 11
555.9127434895506
 21
701.3912837371354
 31
0.0
  0
LINE
  5
1E8
330
19
100
AcDbEntity
  8
4
100
AcDbLine
 10
496.9127434895506
 20
711.3912837371354
 30
0.0
 11
554.9127434895506
 21
711.3912837371354
 31
0.0
  0
LINE
  5
1E9
330
19
100
AcDbEntity
  8
4
100
AcDbLine
 10
554.9127434895506
 20
684.3912837371354
 30
0.0
 11
555.9127434895506
 21
685.3912837371354
 31
0.0
  0
LINE
  5
1EA
330
19
100
AcDbEntity
  8
4
100
AcDbLine
 10
554.9127434895506
 20
694.3912837371354
 30
0.0
 11
554.9127434895506
 21
684.3912837371358
 31
0.0
  0
LINE
  5
1EB
330
19
100
AcDbEntity
  8
4
100
AcDbLine
 10
475.9127434895506
 20
680.3912837371354
 30
0.0
 11
495.9127434895506
 21
680.3912837371354
 31
0.0
  0
ARC
  5
1EC
330
19
100
AcDbEntity
  8
4
100
AcDbCircle
 10
496.9127434895506
 20
683.3912837371354
 30
0.0
 40
1.0
100
AcDbArc
 50
90.0
 51
180.0
  0
LINE
  5
1ED
330
19
100
AcDbEntity
  8
4
100
AcDbLine
 10
496.9127434895506
 20
684.3912837371354
 30
0.0
 11
554.9127434895506
 21
684.3912837371354
 31
0.0
  0
LINE
  5
1EE
330
19
100
AcDbEntity
  8
4
100
AcDbLine
 10
504.4127434895506
 20
694.3912837371354
 30
0.0
 11
555.9127434895506
 21
694.3912837371354
 31
0.0
  0
LINE
  5
1EF
330
19
100
AcDbEntity
  8
4
100
AcDbLine
 10
473.9127434895508
 20
647.8912837371356
 30
0.0
 11
473.9127434895507
 21
638.8912837371355
 31
0.0
  0
LINE
  5
1F0
330
19
100
AcDbEntity
  8
4
100
AcDbLine
 10
475.9127434895506
 20
747.8912837371354
 30
0.0
 11
475.9127434895506
 21
647.8912837371356
 31
0.0
  0
LINE
  5
1F1
330
19
100
AcDbEntity
  8
4
100
AcDbLine
 10
495.9127434895506
 20
715.3912837371354
 30
0.0
 11
495.9127434895506
 21
680.3912837371354
 31
0.0
  0
LINE
  5
1F2
330
19
100
AcDbEntity
  8
4
100
AcDbLine
 10
555.9127434895506
 20
710.3912837371354
 30
0.0
 11
555.9127434895506
 21
685.3912837371354
 31
0.0
  0
ARC
  5
1F3
330
19
100
AcDbEntity
  8
4
100
AcDbCircle
 10
504.4127434895506
 20
697.8912837371354
 30
0.0
 40
3.5
100
AcDbArc
 50
90.0
 51
270.0
  0
CIRCLE
  5
1F4
330
19
100
AcDbEntity
  8
4
100
AcDbCircle
 10
345.9127434895506
 20
697.8912837371354
 30
0.0
 40
19.0
  0
CIRCLE
  5
1F5
330
19
100
AcDbEntity
  8
4
100
AcDbCircle
 10
345.9127434895506
 20
697.8912837371354
 30
0.0
 40
12.5
  0
LWPOLYLINE
  5
1F6
330
19
100
AcDbEntity
  8
4
100
AcDbPolyline
 90
        6
 70
     1
 43
0.0
 10
358.4127434895506
 20
697.8912837371354
 10
352.1627434895506
 20
708.7166012844409
 10
339.6627434895506
 20
708.7166012844409
 10
333.4127434895506
 20
697.8912837371354
 10
339.6627434895506
 20
687.0659661898299
 10
352.1627434895506
 20
687.0659661898299
  0
LINE
  5
1F7
330
19
100
AcDbEntity
  8
L-CENTER
 48
3.0
100
AcDbLine
 10
430.9127434895506
 20
778.0112837371353
 30
0.0
 11
430.9127434895506
 21
747.7712837371355
 31
0.0
  0
LINE
  5
1F8
330
19
100
AcDbEntity
  8
4
100
AcDbLine
 10
473.9127434895506
 20
764.1912837371356
 30
0.0
 11
473.9127434895506
 21
753.8912837371358
 31
0.0
  0
LINE
  5
1F9
330
19
100
AcDbEntity
  8
L-CENTER
 48
3.0
100
AcDbLine
 10
405.9127434895516
 20
741.9616021062438
 30
0.0
 11
405.9127434895516
 21
777.1622929357409
 31
0.0
  0
LINE
  5
1FA
330
19
100
AcDbEntity
  8
L-CENTER
 48
3.0
100
AcDbLine
 10
465.9127434895515
 20
741.9616021062438
 30
0.0
 11
465.9127434895515
 21
777.1622929357409
 31
0.0
  0
LINE
  5
1FB
330
19
100
AcDbEntity
  8
L-CENTER
 48
3.0
100
AcDbLine
 10
285.9127434895497
 20
741.9616021062438
 30
0.0
 11
285.9127434895497
 21
777.1622929357409
 31
0.0
  0
ARC
  5
206
330
19
100
AcDbEntity
  8
4
100
AcDbCircle
 10
463.9127434895506
 20
607.8912837371355
 30
0.0
 40
5.0
100
AcDbArc
 50
270.0
 51
0.0
  0
LINE
  5
207
330
19
100
AcDbEntity
  8
4
100
AcDbLine
 10
394.9127434895506
 20
623.7662837371354
 30
0.0
 11
394.9127434895506
 21
607.8912837371355
 31
0.0
  0
LINE
  5
208
330
19
100
AcDbEntity
  8
4
100
AcDbLine
 10
389.1137114697892
 20
612.6281663313434
 30
0.0
 11
391.9127434895506
 21
622.8912837371355
 31
0.0
  0
ARC
  5
209
330
19
100
AcDbEntity
  8
4
100
AcDbCircle
 10
388.1489476485515
 20
612.8912837371355
 30
0.0
 40
1.0
100
AcDbArc
 50
270.0
 51
344.7448812969451
  0
LINE
  5
20A
330
19
100
AcDbEntity
  8
4
100
AcDbLine
 10
387.9127434895506
 20
633.3912837371355
 30
0.0
 11
387.9127434895506
 21
622.8912837371355
 31
0.0
  0
LINE
  5
20B
330
19
100
AcDbEntity
  8
4
100
AcDbLine
 10
296.9127434895506
 20
623.7662837371355
 30
0.0
 11
296.9127434895506
 21
607.8912837371357
 31
0.0
  0
LINE
  5
20C
330
19
100
AcDbEntity
  8
4
100
AcDbLine
 10
302.711775509312
 20
612.6281663313433
 30
0.0
 11
299.9127434895506
 21
622.8912837371355
 31
0.0
  0
ARC
  5
20D
330
19
100
AcDbEntity
  8
4
100
AcDbCircle
 10
303.6765393305502
 20
612.8912837371355
 30
0.0
 40
1.0
100
AcDbArc
 50
195.2551187030612
 51
270.0
  0
LINE
  5
20E
330
19
100
AcDbEntity
  8
4
100
AcDbLine
 10
303.9127434895507
 20
633.3912837371355
 30
0.0
 11
303.9127434895507
 21
622.8912837371356
 31
0.0
  0
LINE
  5
20F
330
19
100
AcDbEntity
  8
4
100
AcDbLine
 10
391.9127434895506
 20
622.8912837371355
 30
0.0
 11
299.9127434895506
 21
622.8912837371355
 31
0.0
  0
LINE
  5
210
330
19
100
AcDbEntity
  8
4
100
AcDbLine
 10
388.1489476485515
 20
611.8912837371355
 30
0.0
 11
303.6765393305502
 21
611.8912837371355
 31
0.0
  0
LINE
  5
211
330
19
100
AcDbEntity
  8
4
100
AcDbLine
 10
387.9127434895506
 20
633.3912837371355
 30
0.0
 11
303.9127434895507
 21
633.3912837371355
 31
0.0
  0
ARC
  5
212
330
19
100
AcDbEntity
  8
4
100
AcDbCircle
 10
291.9127434895506
 20
607.8912837371357
 30
0.0
 40
5.0
100
AcDbArc
 50
270.0
 51
0.0
  0
ARC
  5
213
330
19
100
AcDbEntity
  8
4
100
AcDbCircle
 10
399.9127434895506
 20
607.8912837371355
 30
0.0
 40
5.0
100
AcDbArc
 50
180.0
 51
270.0
  0
LINE
  5
214
330
19
100
AcDbEntity
  8
4
100
AcDbLine
 10
463.9127434895506
 20
602.8912837371355
 30
0.0
 11
399.9127434895506
 21
602.8912837371355
 31
0.0
  0
LINE
  5
215
330
19
100
AcDbEntity
  8
L-CENTER
 48
3.0
100
AcDbLine
 10
446.0327434895505
 20
632.8912837371355
 30
0.0
 11
415.7927434895507
 21
632.8912837371355
 31
0.0
  0
LINE
  5
227
330
19
100
AcDbEntity
  8
L-CENTER
 48
3.0
100
AcDbLine
 10
430.9127434895506
 20
648.0112837371355
 30
0.0
 11
430.9127434895506
 21
617.7712837371355
 31
0.0
  0
ARC
  5
228
330
19
100
AcDbEntity
  8
4
100
AcDbCircle
 10
430.9127434895506
 20
632.8912837371355
 30
0.0
 40
9.0
100
AcDbArc
 50
187.8264006103755
 51
24.69400880624756
  0
LINE
  5
229
330
19
100
AcDbEntity
  8
4
100
AcDbLine
 10
468.9127434895506
 20
638.8912837371356
 30
0.0
 11
468.9127434895506
 21
607.8912837371355
 31
0.0
  0
LINE
  5
22A
330
19
100
AcDbEntity
  8
4
100
AcDbLine
 10
391.9127434895506
 20
622.8912837371355
 30
0.0
 11
446.769886346694
 21
638.8912837371355
 31
0.0
  0
LINE
  5
22B
330
19
100
AcDbEntity
  8
4
100
AcDbLine
 10
322.0717434895506
 20
633.3912837371355
 30
0.0
 11
323.9127434895506
 21
638.8912837371355
 31
0.0
  0
LINE
  5
22C
330
19
100
AcDbEntity
  8
4
100
AcDbLine
 10
369.7537434895506
 20
633.3912837371355
 30
0.0
 11
367.9127434895506
 21
638.8912837371355
 31
0.0
  0
LINE
  5
22D
330
19
100
AcDbEntity
  8
4
100
AcDbLine
 10
222.9127434895506
 20
787.8912837371354
 30
0.0
 11
222.9127434895506
 21
775.1912837371356
 31
0.0
  0
ARC
  5
22E
330
19
100
AcDbEntity
  8
4
100
AcDbCircle
 10
255.9127434895506
 20
766.3540787222951
 30
0.0
 40
1.0
100
AcDbArc
 50
279.4013854806595
 51
0.0
  0
ARC
  5
22F
330
19
100
AcDbEntity
  8
4
100
AcDbCircle
 10
257.9127434895506
 20
769.2912837371355
 30
0.0
 40
1.0
100
AcDbArc
 50
90.0
 51
180.0
  0
LINE
  5
230
330
19
100
AcDbEntity
  8
4
100
AcDbLine
 10
256.9127434895506
 20
769.2912837371355
 30
0.0
 11
256.9127434895506
 21
766.3540787222951
 31
0.0
  0
LINE
  5
231
330
19
100
AcDbEntity
  8
4
100
AcDbLine
 10
232.4127434895497
 20
775.1912837371356
 30
0.0
 11
219.4127434895497
 21
775.1912837371356
 31
0.0
  0
LINE
  5
232
330
19
100
AcDbEntity
  8
4
100
AcDbLine
 10
233.1627434895497
 20
767.1912837371356
 30
0.0
 11
218.6627434895497
 21
767.1912837371356
 31
0.0
  0
LINE
  5
233
330
19
100
AcDbEntity
  8
4
100
AcDbLine
 10
219.4127434895497
 20
767.1912837371356
 30
0.0
 11
219.4127434895497
 21
775.1912837371356
 31
0.0
  0
LINE
  5
234
330
19
100
AcDbEntity
  8
4
100
AcDbLine
 10
218.6627434895497
 20
765.1912837371356
 30
0.0
 11
218.6627434895497
 21
767.1912837371356
 31
0.0
  0
LINE
  5
235
330
19
100
AcDbEntity
  8
4
100
AcDbLine
 10
232.4127434895497
 20
767.1912837371356
 30
0.0
 11
232.4127434895497
 21
775.1912837371356
 31
0.0
  0
LINE
  5
236
330
19
100
AcDbEntity
  8
4
100
AcDbLine
 10
233.1627434895497
 20
765.1912837371356
 30
0.0
 11
233.1627434895497
 21
767.1912837371356
 31
0.0
  0
ARC
  5
237
330
19
100
AcDbEntity
  8
4
100
AcDbCircle
 10
218.9127434895506
 20
764.1912837371356
 30
0.0
 40
1.0
100
AcDbArc
 50
90.0
 51
180.0
  0
ARC
  5
238
330
19
100
AcDbEntity
  8
4
100
AcDbCircle
 10
227.9127434895506
 20
787.8912837371354
 30
0.0
 40
5.0
100
AcDbArc
 50
90.0
 51
180.0
  0
LINE
  5
239
330
19
100
AcDbEntity
  8
4
100
AcDbLine
 10
217.9127434895506
 20
753.8912837371354
 30
0.0
 11
217.9127434895506
 21
747.8912837371354
 31
0.0
  0
LINE
  5
23A
330
19
100
AcDbEntity
  8
4
100
AcDbLine
 10
217.9127434895506
 20
647.8912837371355
 30
0.0
 11
217.9127434895506
 21
638.8912837371355
 31
0.0
  0
LINE
  5
23B
330
19
100
AcDbEntity
  8
4
100
AcDbLine
 10
215.9127434895506
 20
747.8912837371354
 30
0.0
 11
215.9127434895506
 21
647.8912837371355
 31
0.0
  0
LINE
  5
23C
330
19
100
AcDbEntity
  8
L-CENTER
 48
3.0
100
AcDbLine
 10
260.9127434895506
 20
778.0112837371357
 30
0.0
 11
260.9127434895506
 21
747.7712837371355
 31
0.0
  0
LINE
  5
23D
330
19
100
AcDbEntity
  8
4
100
AcDbLine
 10
217.9127434895506
 20
764.1912837371356
 30
0.0
 11
217.9127434895506
 21
753.8912837371354
 31
0.0
  0
LINE
  5
23E
330
19
100
AcDbEntity
  8
L-CENTER
 48
3.0
100
AcDbLine
 10
225.9127434895497
 20
741.9616021062438
 30
0.0
 11
225.9127434895497
 21
777.1622929357409
 31
0.0
  0
ARC
  5
23F
330
19
100
AcDbEntity
  8
4
100
AcDbCircle
 10
227.9127434895506
 20
607.8912837371356
 30
0.0
 40
5.0
100
AcDbArc
 50
180.0
 51
270.0
  0
LINE
  5
243
330
19
100
AcDbEntity
  8
L-CENTER
 48
3.0
100
AcDbLine
 10
260.9127434895506
 20
648.0112837371356
 30
0.0
 11
260.9127434895506
 21
617.7712837371356
 31
0.0
  0
LINE
  5
244
330
19
100
AcDbEntity
  8
4
100
AcDbLine
 10
222.9127434895506
 20
638.8912837371354
 30
0.0
 11
222.9127434895506
 21
607.8912837371356
 31
0.0
  0
ARC
  5
247
330
19
100
AcDbEntity
  8
4
100
AcDbCircle
 10
260.9127434895506
 20
632.8912837371356
 30
0.0
 40
9.0
100
AcDbArc
 50
155.3059911937525
 51
352.1735993896245
  0
LINE
  5
248
330
19
100
AcDbEntity
  8
L-CENTER
 48
3.0
100
AcDbLine
 10
276.0327434895505
 20
632.8912837371356
 30
0.0
 11
245.7927434895507
 21
632.8912837371356
 31
0.0
  0
LINE
  5
249
330
19
100
AcDbEntity
  8
4
100
AcDbLine
 10
291.9127434895506
 20
602.8912837371357
 30
0.0
 11
227.9127434895506
 21
602.8912837371356
 31
0.0
  0
LINE
  5
24A
330
19
100
AcDbEntity
  8
4
100
AcDbLine
 10
217.9127434895506
 20
753.8912837371354
 30
0.0
 11
473.9127434895508
 21
753.8912837371358
 31
0.0
  0
LINE
  5
24B
330
19
100
AcDbEntity
  8
L-CENTER
 48
3.0
100
AcDbLine
 10
560.6854403607736
 20
697.8912837371354
 30
0.0
 11
131.1400466183277
 21
697.8912837371354
 31
0.0
  0
LINE
  5
24C
330
19
100
AcDbEntity
  8
L-CENTER
 48
3.0
100
AcDbLine
 10
276.032743489551
 20
762.8912837371354
 30
0.0
 11
245.7927434895507
 21
762.8912837371354
 31
0.0
  0
LINE
  5
24D
330
19
100
AcDbEntity
  8
4
100
AcDbLine
 10
291.9127434895511
 20
792.8912837371354
 30
0.0
 11
227.9127434895506
 21
792.8912837371354
 31
0.0
  0
ARC
  5
24E
330
19
100
AcDbEntity
  8
4
100
AcDbCircle
 10
260.9127434895506
 20
762.8912837371354
 30
0.0
 40
9.0
100
AcDbArc
 50
55.30786941466145
 51
165.1934930881043
  0
LINE
  5
24F
330
19
100
AcDbEntity
  8
4
100
AcDbLine
 10
475.9127434895506
 20
747.8912837371354
 30
0.0
 11
215.9127434895506
 21
747.8912837371354
 31
0.0
  0
LINE
  5
250
330
19
100
AcDbEntity
  8
4
100
AcDbLine
 10
475.9127434895506
 20
647.8912837371355
 30
0.0
 11
215.9127434895506
 21
647.8912837371355
 31
0.0
  0
LINE
  5
251
330
19
100
AcDbEntity
  8
4
100
AcDbLine
 10
473.9127434895507
 20
638.8912837371355
 30
0.0
 11
217.9127434895507
 21
638.8912837371356
 31
0.0
  0
LINE
  5
252
330
19
100
AcDbEntity
  8
4
100
AcDbLine
 10
299.9127434895506
 20
622.8912837371355
 30
0.0
 11
245.0556006324073
 21
638.8912837371355
 31
0.0
  0
LINE
  5
253
330
19
100
AcDbEntity
  8
2
100
AcDbLine
 10
473.9127434895506
 20
754.1912837371356
 30
0.0
 11
217.9127434895506
 21
754.1912837371356
 31
0.0
  0
LINE
  5
254
330
19
100
AcDbEntity
  8
4
100
AcDbLine
 10
472.9127434895506
 20
765.1912837371356
 30
0.0
 11
218.9127434895506
 21
765.1912837371356
 31
0.0
  0
LINE
  5
255
330
19
100
AcDbEntity
  8
4
100
AcDbLine
 10
255.0117533905429
 20
765.1912837371356
 30
0.0
 11
279.4127434895497
 21
769.2314476715615
 31
0.0
  0
LINE
  5
256
330
19
100
AcDbEntity
  8
4
100
AcDbLine
 10
279.4127434895497
 20
770.2912837371355
 30
0.0
 11
257.9127434895506
 21
770.2912837371355
 31
0.0
  0
LINE
  5
257
330
19
100
AcDbEntity
  8
L-CENTER
 48
3.0
100
AcDbLine
 10
345.9127434895506
 20
882.2302476736218
 30
0.0
 11
345.9127434895506
 21
513.5523198006493
 31
0.0
  0
LINE
  5
258
330
19
100
AcDbEntity
  8
4
100
AcDbLine
 10
894.6756123984896
 20
375.7995766439547
 30
0.0
 11
894.6756123984896
 21
376.7995766439547
 31
0.0
  0
ARC
  5
259
330
19
100
AcDbEntity
  8
4
100
AcDbCircle
 10
895.6756123984896
 20
375.7995766439547
 30
0.0
 40
1.0
100
AcDbArc
 50
180.0
 51
270.0
  0
LINE
  5
25A
330
19
100
AcDbEntity
  8
4
100
AcDbLine
 10
888.1756123984896
 20
380.2995766439545
 30
0.0
 11
888.1756123984896
 21
378.2995766439545
 31
0.0
  0
LINE
  5
25B
330
19
100
AcDbEntity
  8
4
100
AcDbLine
 10
887.6756123984901
 20
378.2995766439545
 30
0.0
 11
887.6756123984901
 21
376.7995766439547
 31
0.0
  0
LINE
  5
25C
330
19
100
AcDbEntity
  8
4
100
AcDbLine
 10
886.6756123984896
 20
380.2995766439545
 30
0.0
 11
886.6756123984896
 21
384.2995766439547
 31
0.0
  0
ARC
  5
25D
330
19
100
AcDbEntity
  8
4
100
AcDbCircle
 10
941.9756123984894
 20
371.7995766439547
 30
0.0
 40
1.0
100
AcDbArc
 50
0.0
 51
90.0
  0
LINE
  5
25E
330
19
100
AcDbEntity
  8
4
100
AcDbLine
 10
941.9756123984894
 20
372.7995766439547
 30
0.0
 11
925.6756123984892
 21
372.7995766439547
 31
0.0
  0
LINE
  5
260
330
19
100
AcDbEntity
  8
4
100
AcDbLine
 10
952.9756123984894
 20
342.2226250980902
 30
0.0
 11
952.9756123984894
 21
355.2226250980902
 31
0.0
  0
LINE
  5
261
330
19
100
AcDbEntity
  8
4
100
AcDbLine
 10
944.9756123984894
 20
341.4726250980902
 30
0.0
 11
944.9756123984894
 21
355.9726250980902
 31
0.0
  0
LINE
  5
262
330
19
100
AcDbEntity
  8
2
100
AcDbLine
 10
942.9756123984894
 20
345.894197973344
 30
0.0
 11
944.9756123984894
 21
347.894197973344
 31
0.0
  0
LINE
  5
263
330
19
100
AcDbEntity
  8
4
100
AcDbLine
 10
942.9756123984894
 20
341.4726250980902
 30
0.0
 11
944.9756123984894
 21
341.4726250980902
 31
0.0
  0
LINE
  5
264
330
19
100
AcDbEntity
  8
2
100
AcDbLine
 10
942.9756123984894
 20
348.7226250980902
 30
0.0
 11
944.9756123984894
 21
350.7226250980902
 31
0.0
  0
LINE
  5
265
330
19
100
AcDbEntity
  8
4
100
AcDbLine
 10
942.9756123984894
 20
355.9726250980902
 30
0.0
 11
944.9756123984894
 21
355.9726250980902
 31
0.0
  0
LINE
  5
266
330
19
100
AcDbEntity
  8
L-CENTER
 48
3.0
100
AcDbLine
 10
919.7459307675977
 20
348.7226250980902
 30
0.0
 11
954.9466215970947
 21
348.7226250980902
 31
0.0
  0
LINE
  5
267
330
19
100
AcDbEntity
  8
4
100
AcDbLine
 10
944.9756123984894
 20
342.2226250980902
 30
0.0
 11
952.9756123984894
 21
342.2226250980902
 31
0.0
  0
LINE
  5
268
330
19
100
AcDbEntity
  8
4
100
AcDbLine
 10
944.9756123984894
 20
355.2226250980902
 30
0.0
 11
952.9756123984894
 21
355.2226250980902
 31
0.0
  0
LINE
  5
26F
330
19
100
AcDbEntity
  8
4
100
AcDbLine
 10
1054.67561239849
 20
263.7995766439547
 30
0.0
 11
1055.67561239849
 21
262.7995766439547
 31
0.0
  0
LINE
  5
270
330
19
100
AcDbEntity
  8
4
100
AcDbLine
 10
962.5756123984897
 20
264.7995766439547
 30
0.0
 11
980.6756123984901
 21
264.7995766439547
 31
0.0
  0
LINE
  5
271
330
19
100
AcDbEntity
  8
4
100
AcDbLine
 10
961.5756123984897
 20
275.7995766439547
 30
0.0
 11
962.5756123984897
 21
275.7995766439547
 31
0.0
  0
ARC
  5
272
330
19
100
AcDbEntity
  8
4
100
AcDbCircle
 10
960.5756123984897
 20
286.0357808029555
 30
0.0
 40
1.0
100
AcDbArc
 50
0.0
 51
74.74488129694508
  0
ARC
  5
273
330
19
100
AcDbEntity
  8
4
100
AcDbCircle
 10
952.3392387980748
 20
291.3916338533388
 30
0.0
 40
2.0
100
AcDbArc
 50
189.4013854806563
 51
254.744881296942
  0
LINE
  5
274
330
19
100
AcDbEntity
  8
4
100
AcDbLine
 10
960.8387298042817
 20
287.0005446241933
 30
0.0
 11
950.2206781669761
 21
289.896376888913
 31
0.0
  0
ARC
  5
275
330
19
100
AcDbEntity
  8
4
100
AcDbCircle
 10
950.74691297856
 20
291.8259045313885
 30
0.0
 40
2.0
100
AcDbArc
 50
189.4013854806563
 51
254.744881296942
  0
LINE
  5
276
330
19
100
AcDbEntity
  8
4
100
AcDbLine
 10
985.6756123984892
 20
263.7995766439547
 30
0.0
 11
985.6756123984892
 21
267.2995766439547
 31
0.0
  0
LINE
  5
277
330
19
100
AcDbEntity
  8
4
100
AcDbLine
 10
952.9756123984894
 20
238.2995766439547
 30
0.0
 11
952.9756123984894
 21
251.2995766439547
 31
0.0
  0
LINE
  5
278
330
19
100
AcDbEntity
  8
4
100
AcDbLine
 10
944.9756123984894
 20
237.5495766439547
 30
0.0
 11
944.9756123984894
 21
252.0495766439547
 31
0.0
  0
LINE
  5
279
330
19
100
AcDbEntity
  8
2
100
AcDbLine
 10
942.9756123984894
 20
241.9711495192084
 30
0.0
 11
944.9756123984894
 21
243.9711495192084
 31
0.0
  0
LINE
  5
27A
330
19
100
AcDbEntity
  8
4
100
AcDbLine
 10
942.9756123984894
 20
237.5495766439547
 30
0.0
 11
944.9756123984894
 21
237.5495766439547
 31
0.0
  0
LINE
  5
27B
330
19
100
AcDbEntity
  8
2
100
AcDbLine
 10
942.9756123984894
 20
244.7995766439547
 30
0.0
 11
944.9756123984894
 21
246.7995766439547
 31
0.0
  0
LINE
  5
27C
330
19
100
AcDbEntity
  8
4
100
AcDbLine
 10
942.9756123984894
 20
252.0495766439547
 30
0.0
 11
944.9756123984894
 21
252.0495766439547
 31
0.0
  0
LINE
  5
27D
330
19
100
AcDbEntity
  8
4
100
AcDbLine
 10
944.9756123984894
 20
238.2995766439547
 30
0.0
 11
952.9756123984894
 21
238.2995766439547
 31
0.0
  0
LINE
  5
27E
330
19
100
AcDbEntity
  8
4
100
AcDbLine
 10
944.9756123984894
 20
251.2995766439547
 30
0.0
 11
952.9756123984894
 21
251.2995766439547
 31
0.0
  0
LINE
  5
27F
330
19
100
AcDbEntity
  8
4
100
AcDbLine
 10
948.983286578974
 20
251.2995766439547
 30
0.0
 11
948.9832865789745
 21
289.5841972434198
 31
0.0
  0
LINE
  5
280
330
19
100
AcDbEntity
  8
4
100
AcDbLine
 10
985.6756123984892
 20
267.2995766439547
 30
0.0
 11
1055.67561239849
 21
267.2995766439547
 31
0.0
  0
LINE
  5
281
330
19
100
AcDbEntity
  8
4
100
AcDbLine
 10
980.6756123984901
 20
263.7995766439547
 30
0.0
 11
1054.67561239849
 21
263.7995766439547
 31
0.0
  0
LINE
  5
282
330
19
100
AcDbEntity
  8
4
100
AcDbLine
 10
1055.67561239849
 20
226.7995766439547
 30
0.0
 11
1054.67561239849
 21
225.7995766439547
 31
0.0
  0
LINE
  5
283
330
19
100
AcDbEntity
  8
4
100
AcDbLine
 10
962.5756123984897
 20
224.7995766439547
 30
0.0
 11
980.6756123984901
 21
224.7995766439547
 31
0.0
  0
ARC
  5
284
330
19
100
AcDbEntity
  8
4
100
AcDbCircle
 10
960.5756123984897
 20
203.5633724849538
 30
0.0
 40
1.0
100
AcDbArc
 50
285.2551187030549
 51
0.0
  0
LINE
  5
285
330
19
100
AcDbEntity
  8
4
100
AcDbLine
 10
961.5756123984897
 20
213.7995766439547
 30
0.0
 11
962.5756123984893
 21
213.7995766439547
 31
0.0
  0
ARC
  5
286
330
19
100
AcDbEntity
  8
4
100
AcDbCircle
 10
952.3392387980748
 20
198.2075194345703
 30
0.0
 40
2.0
100
AcDbArc
 50
105.2551187030583
 51
170.5986145193453
  0
LINE
  5
287
330
19
100
AcDbEntity
  8
4
100
AcDbLine
 10
951.8130039864905
 20
200.137047077046
 30
0.0
 11
950.2206781669756
 21
199.7027763989963
 31
0.0
  0
ARC
  5
288
330
19
100
AcDbEntity
  8
4
100
AcDbCircle
 10
950.74691297856
 20
197.7732487565208
 30
0.0
 40
2.0
100
AcDbArc
 50
105.2551187030583
 51
170.5986145193453
  0
LINE
  5
289
330
19
100
AcDbEntity
  8
4
100
AcDbLine
 10
960.8387298042817
 20
202.598608663716
 30
0.0
 11
950.2206781669761
 21
199.7027763989963
 31
0.0
  0
LINE
  5
28A
330
19
100
AcDbEntity
  8
4
100
AcDbLine
 10
980.6756123984901
 20
225.7995766439547
 30
0.0
 11
1054.67561239849
 21
225.7995766439547
 31
0.0
  0
LINE
  5
28B
330
19
100
AcDbEntity
  8
4
100
AcDbLine
 10
961.5756123984897
 20
203.5633724849538
 30
0.0
 11
961.5756123984897
 21
286.0357808029555
 31
0.0
  0
LINE
  5
28C
330
19
100
AcDbEntity
  8
4
100
AcDbLine
 10
962.5756123984893
 20
213.7995766439547
 30
0.0
 11
962.5756123984897
 21
275.7995766439547
 31
0.0
  0
LINE
  5
28D
330
19
100
AcDbEntity
  8
4
100
AcDbLine
 10
980.6756123984892
 20
224.7995766439547
 30
0.0
 11
980.6756123984892
 21
264.7995766439547
 31
0.0
  0
LINE
  5
28E
330
19
100
AcDbEntity
  8
4
100
AcDbLine
 10
1055.67561239849
 20
226.7995766439547
 30
0.0
 11
1055.67561239849
 21
267.2995766439547
 31
0.0
  0
LINE
  5
28F
330
19
100
AcDbEntity
  8
4
100
AcDbLine
 10
948.9832865789745
 20
199.3653059659052
 30
0.0
 11
948.9832865789745
 21
238.2995766439547
 31
0.0
  0
LINE
  5
290
330
19
100
AcDbEntity
  8
4
100
AcDbLine
 10
1054.67561239849
 20
263.7995766439547
 30
0.0
 11
1054.67561239849
 21
225.7995766439547
 31
0.0
  0
LINE
  5
291
330
19
100
AcDbEntity
  8
4
100
AcDbLine
 10
942.9756123984898
 20
326.5178200952305
 30
0.0
 11
948.7737765547581
 21
291.4992048940048
 31
0.0
  0
LINE
  5
292
330
19
100
AcDbEntity
  8
4
100
AcDbLine
 10
942.9756123984894
 20
335.7005667429635
 30
0.0
 11
950.3661023742729
 21
291.0649342159554
 31
0.0
  0
LINE
  5
295
330
19
100
AcDbEntity
  8
4
100
AcDbLine
 10
817.6756123984896
 20
372.7995766439549
 30
0.0
 11
824.6756123984896
 21
372.7995766439549
 31
0.0
  0
ARC
  5
296
330
19
100
AcDbEntity
  8
4
100
AcDbCircle
 10
817.6756123984896
 20
371.7995766439549
 30
0.0
 40
1.0
100
AcDbArc
 50
90.0
 51
180.0
  0
ARC
  5
297
330
19
100
AcDbEntity
  8
4
100
AcDbCircle
 10
824.6756123984896
 20
373.7995766439549
 30
0.0
 40
1.0
100
AcDbArc
 50
270.0
 51
0.0
  0
LINE
  5
298
330
19
100
AcDbEntity
  8
4
100
AcDbLine
 10
863.1756123984899
 20
380.2995766439545
 30
0.0
 11
863.1756123984899
 21
378.2995766439545
 31
0.0
  0
LINE
  5
299
330
19
100
AcDbEntity
  8
4
100
AcDbLine
 10
863.6756123984896
 20
378.2995766439545
 30
0.0
 11
863.6756123984896
 21
376.7995766439547
 31
0.0
  0
LINE
  5
29A
330
19
100
AcDbEntity
  8
4
100
AcDbLine
 10
864.6756123984899
 20
380.2995766439545
 30
0.0
 11
864.6756123984896
 21
384.2995766439547
 31
0.0
  0
LINE
  5
29B
330
19
100
AcDbEntity
  8
4
100
AcDbLine
 10
856.6756123984896
 20
375.7995766439547
 30
0.0
 11
856.6756123984896
 21
376.7995766439547
 31
0.0
  0
ARC
  5
29C
330
19
100
AcDbEntity
  8
4
100
AcDbCircle
 10
855.6756123984896
 20
375.7995766439547
 30
0.0
 40
1.0
100
AcDbArc
 50
270.0
 51
0.0
  0
LINE
  5
2A1
330
19
100
AcDbEntity
  8
4
100
AcDbLine
 10
816.6756123984896
 20
351.0138623582407
 30
0.0
 11
809.6131123984896
 21
326.7995766439547
 31
0.0
  0
LINE
  5
2A2
330
19
100
AcDbEntity
  8
4
100
AcDbLine
 10
809.6756123984896
 20
326.7995766439547
 30
0.0
 11
802.6756123984896
 21
326.7995766439549
 31
0.0
  0
ARC
  5
2A3
330
19
100
AcDbEntity
  8
4
100
AcDbCircle
 10
809.6756123984896
 20
328.7995766439547
 30
0.0
 40
2.0
100
AcDbArc
 50
270.0
 51
343.7397952916892
  0
ARC
  5
2A4
330
19
100
AcDbEntity
  8
4
100
AcDbCircle
 10
802.6756123984896
 20
324.7995766439549
 30
0.0
 40
2.0
100
AcDbArc
 50
90.0
 51
180.0
  0
LINE
  5
2A6
330
19
100
AcDbEntity
  8
4
100
AcDbLine
 10
351.9127434895506
 20
384.2995766439547
 30
0.0
 11
351.9127434895508
 21
380.2995766439545
 31
0.0
  0
LINE
  5
2A7
330
19
100
AcDbEntity
  8
4
100
AcDbLine
 10
364.9127434895506
 20
376.7995766439547
 30
0.0
 11
364.9127434895506
 21
375.335289448363
 31
0.0
  0
ARC
  5
2A8
330
19
100
AcDbEntity
  8
4
100
AcDbCircle
 10
365.9127434895506
 20
375.335289448363
 30
0.0
 40
1.0
100
AcDbArc
 50
180.0
 51
267.3403080275167
  0
LINE
  5
2A9
330
19
100
AcDbEntity
  8
4
100
AcDbLine
 10
358.4127434895508
 20
384.2995766439547
 30
0.0
 11
358.4127434895506
 21
378.2995766439545
 31
0.0
  0
LINE
  5
2AA
330
19
100
AcDbEntity
  8
4
100
AcDbLine
 10
357.9127434895508
 20
378.2995766439545
 30
0.0
 11
357.9127434895508
 21
376.7995766439547
 31
0.0
  0
LINE
  5
2AB
330
19
100
AcDbEntity
  8
4
100
AcDbLine
 10
326.9127434895506
 20
376.7995766439547
 30
0.0
 11
326.9127434895506
 21
375.335289448363
 31
0.0
  0
ARC
  5
2AC
330
19
100
AcDbEntity
  8
4
100
AcDbCircle
 10
325.9127434895506
 20
375.335289448363
 30
0.0
 40
1.0
100
AcDbArc
 50
272.6596919724732
 51
0.0
  0
LINE
  5
2AD
330
19
100
AcDbEntity
  8
4
100
AcDbLine
 10
333.4127434895506
 20
384.2995766439547
 30
0.0
 11
333.4127434895508
 21
378.2995766439545
 31
0.0
  0
LINE
  5
2AE
330
19
100
AcDbEntity
  8
4
100
AcDbLine
 10
339.9127434895506
 20
384.2995766439547
 30
0.0
 11
339.9127434895508
 21
380.2995766439545
 31
0.0
  0
LINE
  5
2AF
330
19
100
AcDbEntity
  8
4
100
AcDbLine
 10
333.9127434895506
 20
378.2995766439545
 30
0.0
 11
333.9127434895506
 21
376.7995766439547
 31
0.0
  0
LINE
  5
2B0
330
19
100
AcDbEntity
  8
4
100
AcDbLine
 10
364.9127434895506
 20
376.7995766439547
 30
0.0
 11
326.9127434895506
 21
376.7995766439547
 31
0.0
  0
LINE
  5
2B1
330
19
100
AcDbEntity
  8
4
100
AcDbLine
 10
358.4127434895506
 20
378.2995766439545
 30
0.0
 11
333.4127434895508
 21
378.2995766439545
 31
0.0
  0
LINE
  5
2B2
330
19
100
AcDbEntity
  8
4
100
AcDbLine
 10
358.4127434895508
 20
384.2995766439547
 30
0.0
 11
333.4127434895506
 21
384.2995766439547
 31
0.0
  0
LINE
  5
2B3
330
19
100
AcDbEntity
  8
4
100
AcDbLine
 10
358.4127434895506
 20
380.2995766439545
 30
0.0
 11
333.4127434895508
 21
380.2995766439545
 31
0.0
  0
LINE
  5
2B4
330
19
100
AcDbEntity
  8
4
100
AcDbLine
 10
368.2616540196136
 20
344.3806112959157
 30
0.0
 11
369.520771477409
 21
329.5458602540959
 31
0.0
  0
ARC
  5
2B5
330
19
100
AcDbEntity
  8
4
100
AcDbCircle
 10
372.5100235566954
 20
329.7995766439544
 30
0.0
 40
3.0
100
AcDbArc
 50
184.8514211278585
 51
270.0
  0
ARC
  5
2B6
330
19
100
AcDbEntity
  8
4
100
AcDbCircle
 10
371.2509060989
 20
344.6343276857745
 30
0.0
 40
3.0
100
AcDbArc
 50
75.75896836461767
 51
184.8514211278585
  0
LINE
  5
2B7
330
19
100
AcDbEntity
  8
4
100
AcDbLine
 10
323.5638329594876
 20
344.3806112959157
 30
0.0
 11
322.304715501692
 21
329.5458602540959
 31
0.0
  0
ARC
  5
2B8
330
19
100
AcDbEntity
  8
4
100
AcDbCircle
 10
319.3154634224059
 20
329.7995766439544
 30
0.0
 40
3.0
100
AcDbArc
 50
270.0
 51
355.1485788721415
  0
ARC
  5
2B9
330
19
100
AcDbEntity
  8
4
100
AcDbCircle
 10
320.5745808802012
 20
344.6343276857745
 30
0.0
 40
3.0
100
AcDbArc
 50
355.1485788721415
 51
104.2410316353823
  0
LINE
  5
2BA
330
19
100
AcDbEntity
  8
4
100
AcDbLine
 10
305.9127434895506
 20
326.7995766439544
 30
0.0
 11
385.9127434895506
 21
326.7995766439544
 31
0.0
  0
ARC
  5
2BB
330
19
100
AcDbEntity
  8
4
100
AcDbCircle
 10
380.4127434895508
 20
311.7995766439544
 30
0.0
 40
3.0
100
AcDbArc
 50
90.0
 51
255.5224878140737
  0
ARC
  5
2BC
330
19
100
AcDbEntity
  8
4
100
AcDbCircle
 10
376.9127434895506
 20
301.7995766439544
 30
0.0
 40
5.0
100
AcDbArc
 50
270.0
 51
0.0
  0
LINE
  5
2BD
330
19
100
AcDbEntity
  8
4
100
AcDbLine
 10
380.9127434895506
 20
320.7995766439544
 30
0.0
 11
364.9127434895506
 21
320.7995766439544
 31
0.0
  0
LINE
  5
2BE
330
19
100
AcDbEntity
  8
4
100
AcDbLine
 10
363.9127434895506
 20
319.7995766439544
 30
0.0
 11
363.9127434895506
 21
312.7079035571464
 31
0.0
  0
ARC
  5
2BF
330
19
100
AcDbEntity
  8
4
100
AcDbCircle
 10
354.4127434895506
 20
306.7995766439544
 30
0.0
 40
1.0
100
AcDbArc
 50
180.0
 51
270.0
  0
ARC
  5
2C0
330
19
100
AcDbEntity
  8
4
100
AcDbCircle
 10
354.4127434895506
 20
310.7995766439544
 30
0.0
 40
1.0
100
AcDbArc
 50
90.0
 51
180.0
  0
ARC
  5
2C1
330
19
100
AcDbEntity
  8
4
100
AcDbCircle
 10
347.631967083146
 20
297.7995766439542
 30
0.0
 40
1.0
100
AcDbArc
 50
270.0
 51
14.03624346792646
  0
LINE
  5
2C2
330
19
100
AcDbEntity
  8
4
100
AcDbLine
 10
359.4127434895506
 20
310.7995766439544
 30
0.0
 11
359.4127434895506
 21
306.7995766439544
 31
0.0
  0
ARC
  5
2C3
330
19
100
AcDbEntity
  8
4
100
AcDbCircle
 10
358.4127434895506
 20
306.7995766439544
 30
0.0
 40
1.0
100
AcDbArc
 50
270.0
 51
0.0
  0
ARC
  5
2C4
330
19
100
AcDbEntity
  8
4
100
AcDbCircle
 10
358.4127434895506
 20
310.7995766439544
 30
0.0
 40
1.0
100
AcDbArc
 50
0.0
 51
90.0
  0
ARC
  5
2C5
330
19
100
AcDbEntity
  8
4
100
AcDbCircle
 10
364.9127434895506
 20
297.7995766439544
 30
0.0
 40
1.0
100
AcDbArc
 50
180.0
 51
270.0
  0
LINE
  5
2C6
330
19
100
AcDbEntity
  8
4
100
AcDbLine
 10
363.9127434895506
 20
301.8912497307624
 30
0.0
 11
363.9127434895506
 21
297.7995766439544
 31
0.0
  0
ARC
  5
2C7
330
19
100
AcDbEntity
  8
4
100
AcDbCircle
 10
364.9127434895506
 20
312.7079035571464
 30
0.0
 40
1.0
100
AcDbArc
 50
180.0
 51
259.5243183036026
  0
ARC
  5
2C8
330
19
100
AcDbEntity
  8
4
100
AcDbCircle
 10
364.9127434895506
 20
301.8912497307624
 30
0.0
 40
1.0
100
AcDbArc
 50
100.4756816963974
 51
180.0
  0
LINE
  5
2C9
330
19
100
AcDbEntity
  8
4
100
AcDbLine
 10
353.4127434895506
 20
310.7995766439544
 30
0.0
 11
353.4127434895506
 21
306.7995766439544
 31
0.0
  0
LINE
  5
2CA
330
19
100
AcDbEntity
  8
4
100
AcDbLine
 10
358.4127434895506
 20
311.7995766439544
 30
0.0
 11
354.4127434895506
 21
311.7995766439544
 31
0.0
  0
LINE
  5
2CB
330
19
100
AcDbEntity
  8
4
100
AcDbLine
 10
358.4127434895506
 20
305.7995766439544
 30
0.0
 11
354.4127434895506
 21
305.7995766439544
 31
0.0
  0
ARC
  5
2CC
330
19
100
AcDbEntity
  8
4
100
AcDbCircle
 10
363.9127434895506
 20
307.2995766439544
 30
0.0
 40
4.5
100
AcDbArc
 50
280.4756816963973
 51
79.52431830360274
  0
LINE
  5
2CD
330
19
100
AcDbEntity
  8
4
100
AcDbLine
 10
376.9127434895506
 20
296.7995766439544
 30
0.0
 11
364.9127434895506
 21
296.7995766439544
 31
0.0
  0
ARC
  5
2CE
330
19
100
AcDbEntity
  8
4
100
AcDbCircle
 10
364.9127434895506
 20
319.7995766439544
 30
0.0
 40
1.0
100
AcDbArc
 50
90.0
 51
180.0
  0
ARC
  5
2CF
330
19
100
AcDbEntity
  8
4
100
AcDbCircle
 10
380.9127434895506
 20
315.7995766439544
 30
0.0
 40
1.0
100
AcDbArc
 50
270.0
 51
0.0
  0
LINE
  5
2D0
330
19
100
AcDbEntity
  8
4
100
AcDbLine
 10
381.9127434895506
 20
305.9901016246413
 30
0.0
 11
381.9127434895506
 21
301.7995766439544
 31
0.0
  0
ARC
  5
2D1
330
19
100
AcDbEntity
  8
4
100
AcDbCircle
 10
378.9127434895506
 20
305.9901016246413
 30
0.0
 40
3.0
100
AcDbArc
 50
0.0
 51
75.5224878140737
  0
LINE
  5
2D2
330
19
100
AcDbEntity
  8
4
100
AcDbLine
 10
380.9127434895506
 20
314.7995766439544
 30
0.0
 11
380.4127434895508
 21
314.7995766439544
 31
0.0
  0
LINE
  5
2D3
330
19
100
AcDbEntity
  8
4
100
AcDbLine
 10
381.9127434895506
 20
319.7995766439544
 30
0.0
 11
381.9127434895506
 21
315.7995766439544
 31
0.0
  0
ARC
  5
2D4
330
19
100
AcDbEntity
  8
4
100
AcDbCircle
 10
380.9127434895506
 20
319.7995766439544
 30
0.0
 40
1.0
100
AcDbArc
 50
0.0
 51
90.0
  0
LINE
  5
2D5
330
19
100
AcDbEntity
  8
4
100
AcDbLine
 10
315.9127434895506
 20
319.7995766439544
 30
0.0
 11
315.9127434895506
 21
303.7995766439544
 31
0.0
  0
LINE
  5
2D6
330
19
100
AcDbEntity
  8
4
100
AcDbLine
 10
309.9127434895506
 20
319.7995766439544
 30
0.0
 11
309.9127434895506
 21
297.7995766439544
 31
0.0
  0
LINE
  5
2D7
330
19
100
AcDbEntity
  8
4
100
AcDbLine
 10
336.7233773958096
 20
320.0421122689906
 30
0.0
 11
331.2233773958096
 21
298.0421122689906
 31
0.0
  0
LINE
  5
2D8
330
19
100
AcDbEntity
  8
4
100
AcDbLine
 10
326.4127434895506
 20
301.7995766439544
 30
0.0
 11
326.4127434895506
 21
297.7995766439544
 31
0.0
  0
ARC
  5
2D9
330
19
100
AcDbEntity
  8
4
100
AcDbCircle
 10
325.4127434895506
 20
297.7995766439544
 30
0.0
 40
1.0
100
AcDbArc
 50
270.0
 51
0.0
  0
ARC
  5
2DA
330
19
100
AcDbEntity
  8
4
100
AcDbCircle
 10
325.4127434895506
 20
301.7995766439544
 30
0.0
 40
1.0
100
AcDbArc
 50
0.0
 51
90.0
  0
ARC
  5
2DB
330
19
100
AcDbEntity
  8
4
100
AcDbCircle
 10
316.9127434895506
 20
303.7995766439544
 30
0.0
 40
1.0
100
AcDbArc
 50
180.0
 51
270.0
  0
ARC
  5
2DC
330
19
100
AcDbEntity
  8
4
100
AcDbCircle
 10
310.9127434895506
 20
297.7995766439544
 30
0.0
 40
1.0
100
AcDbArc
 50
180.0
 51
270.0
  0
LINE
  5
2DD
330
19
100
AcDbEntity
  8
4
100
AcDbLine
 10
325.4127434895506
 20
302.7995766439544
 30
0.0
 11
316.9127434895506
 21
302.7995766439544
 31
0.0
  0
LINE
  5
2DE
330
19
100
AcDbEntity
  8
4
100
AcDbLine
 10
325.4127434895506
 20
296.7995766439544
 30
0.0
 11
310.9127434895506
 21
296.7995766439544
 31
0.0
  0
LINE
  5
2DF
330
19
100
AcDbEntity
  8
4
100
AcDbLine
 10
342.0727680979946
 20
299.4208444564727
 30
0.0
 11
342.5387189573833
 21
297.5570410189182
 31
0.0
  0
ARC
  5
2E0
330
19
100
AcDbEntity
  8
4
100
AcDbCircle
 10
341.5876968479217
 20
299.2995766439544
 30
0.0
 40
0.5
100
AcDbArc
 50
14.03624346792014
 51
90.0
  0
ARC
  5
2E1
330
19
100
AcDbEntity
  8
4
100
AcDbCircle
 10
338.2377901311793
 20
299.2995766439544
 30
0.0
 40
0.5
100
AcDbArc
 50
90.0
 51
165.9637565320799
  0
LINE
  5
2E2
330
19
100
AcDbEntity
  8
4
100
AcDbLine
 10
341.5876968479217
 20
299.7995766439544
 30
0.0
 11
338.2377901311793
 21
299.7995766439544
 31
0.0
  0
LINE
  5
2E3
330
19
100
AcDbEntity
  8
4
100
AcDbLine
 10
337.7527188811066
 20
299.4208444564727
 30
0.0
 11
337.286768021718
 21
297.5570410189182
 31
0.0
  0
LINE
  5
2E4
330
19
100
AcDbEntity
  8
4
100
AcDbLine
 10
336.3166255215726
 20
296.7995766439544
 30
0.0
 11
332.193519895955
 21
296.7995766439544
 31
0.0
  0
ARC
  5
2E5
330
19
100
AcDbEntity
  8
4
100
AcDbCircle
 10
332.193519895955
 20
297.7995766439544
 30
0.0
 40
1.0
100
AcDbArc
 50
165.9637565320735
 51
270.0
  0
ARC
  5
2E6
330
19
100
AcDbEntity
  8
4
100
AcDbCircle
 10
336.3166255215726
 20
297.7995766439544
 30
0.0
 40
1.0
100
AcDbArc
 50
270.0
 51
345.9637565320735
  0
ARC
  5
2E7
330
19
100
AcDbEntity
  8
4
100
AcDbCircle
 10
343.5088614575286
 20
297.7995766439547
 30
0.0
 40
1.0
100
AcDbArc
 50
194.0362434679265
 51
270.0
  0
LINE
  5
2E8
330
19
100
AcDbEntity
  8
4
100
AcDbLine
 10
314.9127434895506
 20
320.7995766439544
 30
0.0
 11
310.9127434895506
 21
320.7995766439544
 31
0.0
  0
ARC
  5
2E9
330
19
100
AcDbEntity
  8
4
100
AcDbCircle
 10
310.9127434895506
 20
319.7995766439544
 30
0.0
 40
1.0
100
AcDbArc
 50
90.0
 51
180.0
  0
ARC
  5
2EA
330
19
100
AcDbEntity
  8
4
100
AcDbCircle
 10
314.9127434895506
 20
319.7995766439544
 30
0.0
 40
1.0
100
AcDbArc
 50
0.0
 51
90.0
  0
LINE
  5
2EB
330
19
100
AcDbEntity
  8
4
100
AcDbLine
 10
342.131967083146
 20
320.7995766439544
 30
0.0
 11
337.693519895955
 21
320.7995766439544
 31
0.0
  0
ARC
  5
2EC
330
19
100
AcDbEntity
  8
4
100
AcDbCircle
 10
337.693519895955
 20
319.7995766439544
 30
0.0
 40
1.0
100
AcDbArc
 50
90.0
 51
165.9637565320735
  0
ARC
  5
2ED
330
19
100
AcDbEntity
  8
4
100
AcDbCircle
 10
342.131967083146
 20
319.7995766439544
 30
0.0
 40
1.0
100
AcDbArc
 50
14.03624346792646
 51
90.0
  0
LINE
  5
2EE
330
19
100
AcDbEntity
  8
4
100
AcDbLine
 10
343.1021095832914
 20
320.0421122689906
 30
0.0
 11
348.6021095832914
 21
298.0421122689906
 31
0.0
  0
LINE
  5
2EF
330
19
100
AcDbEntity
  8
4
100
AcDbLine
 10
347.631967083146
 20
296.7995766439542
 30
0.0
 11
343.5088614575286
 21
296.7995766439547
 31
0.0
  0
ARC
  5
2F0
330
19
100
AcDbEntity
  8
4
100
AcDbCircle
 10
305.9127434895506
 20
324.7995766439544
 30
0.0
 40
2.0
100
AcDbArc
 50
90.0
 51
180.0
  0
ARC
  5
2F1
330
19
100
AcDbEntity
  8
4
100
AcDbCircle
 10
385.9127434895506
 20
324.7995766439544
 30
0.0
 40
2.0
100
AcDbArc
 50
0.0
 51
90.0
  0
ARC
  5
2F2
330
19
100
AcDbEntity
  8
4
100
AcDbCircle
 10
456.3210766895465
 20
355.2079098439503
 30
0.0
 40
5.0
100
AcDbArc
 50
15.0572644549236
 51
74.9427355450772
  0
LINE
  5
2F3
330
19
100
AcDbEntity
  8
4
100
AcDbLine
 10
800.6756123984896
 20
271.7995766439547
 30
0.0
 11
816.6756123984896
 21
266.7995766439547
 31
0.0
  0
LINE
  5
2F4
330
19
100
AcDbEntity
  8
4
100
AcDbLine
 10
790.4124949926977
 20
288.0005446241933
 30
0.0
 11
799.5953639158924
 21
290.5049634214283
 31
0.0
  0
ARC
  5
2F5
330
19
100
AcDbEntity
  8
4
100
AcDbCircle
 10
790.6756123984896
 20
287.0357808029555
 30
0.0
 40
1.0
100
AcDbArc
 50
105.2551187030549
 51
180.0
  0
ARC
  5
2F6
330
19
100
AcDbEntity
  8
4
100
AcDbCircle
 10
799.0691291043081
 20
292.4344910639038
 30
0.0
 40
2.0
100
AcDbArc
 50
285.255118703058
 51
343.7397952916901
  0
LINE
  5
2FD
330
19
100
AcDbEntity
  8
4
100
AcDbLine
 10
800.6756123984896
 20
217.7995766439547
 30
0.0
 11
816.6756123984896
 21
222.7995766439547
 31
0.0
  0
ARC
  5
2FE
330
19
100
AcDbEntity
  8
4
100
AcDbCircle
 10
799.1601766743242
 20
195.066784841094
 30
0.0
 40
4.0
100
AcDbArc
 50
16.2602047083119
 51
74.74488129694184
  0
ARC
  5
2FF
330
19
100
AcDbEntity
  8
4
100
AcDbCircle
 10
799.0691291043081
 20
197.164662224006
 30
0.0
 40
2.0
100
AcDbArc
 50
16.26020470831235
 51
74.74488129694171
  0
LINE
  5
300
330
19
100
AcDbEntity
  8
4
100
AcDbLine
 10
790.4124949926977
 20
201.5986086637163
 30
0.0
 11
800.2126462974925
 21
198.9258401260449
 31
0.0
  0
ARC
  5
301
330
19
100
AcDbEntity
  8
4
100
AcDbCircle
 10
790.6756123984896
 20
202.563372484954
 30
0.0
 40
1.0
100
AcDbArc
 50
180.0
 51
254.7448812969451
  0
LINE
  5
304
330
19
100
AcDbEntity
  8
4
100
AcDbLine
 10
800.6756123984896
 20
198.7995766439547
 30
0.0
 11
800.6756123984896
 21
291.2431844595758
 31
0.0
  0
LINE
  5
305
330
19
100
AcDbEntity
  8
4
100
AcDbLine
 10
789.6756123984896
 20
202.563372484954
 30
0.0
 11
789.6756123984896
 21
287.0357808029555
 31
0.0
  0
ARC
  5
306
330
19
100
AcDbEntity
  8
4
100
AcDbCircle
 10
445.7474945313706
 20
270.1377392533038
 30
0.0
 40
3.0
100
AcDbArc
 50
265.1485788721405
 51
14.2410316353826
  0
ARC
  5
307
330
19
100
AcDbEntity
  8
4
100
AcDbCircle
 10
397.0813512557197
 20
278.2827191795368
 30
0.0
 40
7.0
100
AcDbArc
 50
186.2614549438377
 51
265.1485788721404
  0
ARC
  5
308
330
19
100
AcDbEntity
  8
4
100
AcDbCircle
 10
381.7302714651139
 20
280.6171046195179
 30
0.0
 40
5.0
100
AcDbArc
 50
6.973793430355677
 51
83.02620656964487
  0
ARC
  5
309
330
19
100
AcDbEntity
  8
4
100
AcDbCircle
 10
384.3923494837638
 20
283.2791826381676
 30
0.0
 40
5.0
100
AcDbArc
 50
7.494980959280322
 51
82.52200874565311
  0
ARC
  5
30A
330
19
100
AcDbEntity
  8
4
100
AcDbCircle
 10
389.9127434895506
 20
287.5832795261192
 30
0.0
 40
2.0
100
AcDbArc
 50
180.0
 51
217.9425463551725
  0
ARC
  5
30B
330
19
100
AcDbEntity
  8
4
100
AcDbCircle
 10
389.9127434895508
 20
287.5832795261178
 30
0.0
 40
2.0
100
AcDbArc
 50
180.0
 51
217.9425463551597
  0
ARC
  5
30C
330
19
100
AcDbEntity
  8
4
100
AcDbCircle
 10
294.7441357233818
 20
278.2827191795366
 30
0.0
 40
7.0
100
AcDbArc
 50
274.8514211278596
 51
353.7385450561624
  0
ARC
  5
30D
330
19
100
AcDbEntity
  8
4
100
AcDbCircle
 10
301.9127434895506
 20
287.5832795261226
 30
0.0
 40
2.0
100
AcDbArc
 50
322.0574536448067
 51
0.0
  0
ARC
  5
30E
330
19
100
AcDbEntity
  8
4
100
AcDbCircle
 10
307.4331374953374
 20
283.2791826381674
 30
0.0
 40
5.0
100
AcDbArc
 50
97.4949809592804
 51
172.505019040721
  0
ARC
  5
30F
330
19
100
AcDbEntity
  8
4
100
AcDbCircle
 10
310.0952155139873
 20
280.6171046195175
 30
0.0
 40
5.0
100
AcDbArc
 50
96.9737934303558
 51
173.0262065696443
  0
ARC
  5
310
330
19
100
AcDbEntity
  8
4
100
AcDbCircle
 10
345.9127434895506
 20
-12.20042335604558
 30
0.0
 40
300.0
100
AcDbArc
 50
83.0262065696443
 51
96.97379343035567
  0
ARC
  5
311
330
19
100
AcDbEntity
  8
4
100
AcDbCircle
 10
345.9127434895506
 20
-9.200423356045576
 30
0.0
 40
300.0
100
AcDbArc
 50
82.50501904071994
 51
97.49498095928006
  0
LINE
  5
312
330
19
100
AcDbEntity
  8
4
100
AcDbLine
 10
445.4937781415122
 20
267.1484871740176
 30
0.0
 11
396.4893463460496
 21
271.3077976612021
 31
0.0
  0
ARC
  5
313
330
19
100
AcDbEntity
  8
4
100
AcDbCircle
 10
445.7474945313706
 20
219.4614140346052
 30
0.0
 40
3.0
100
AcDbArc
 50
345.7589683646174
 51
94.85142112785951
  0
ARC
  5
318
330
19
100
AcDbEntity
  8
4
100
AcDbCircle
 10
381.7302714651139
 20
208.9820486683911
 30
0.0
 40
5.0
100
AcDbArc
 50
276.973793430355
 51
353.0262065696443
  0
ARC
  5
319
330
19
100
AcDbEntity
  8
4
100
AcDbCircle
 10
397.0813512557197
 20
211.3164341083723
 30
0.0
 40
7.0
100
AcDbArc
 50
94.85142112785962
 51
173.7385450561628
  0
ARC
  5
31A
330
19
100
AcDbEntity
  8
4
100
AcDbCircle
 10
310.0952155139873
 20
208.9820486683911
 30
0.0
 40
5.0
100
AcDbArc
 50
186.9737934303556
 51
263.0262065696449
  0
ARC
  5
31B
330
19
100
AcDbEntity
  8
4
100
AcDbCircle
 10
294.7441357233815
 20
211.3164341083723
 30
0.0
 40
7.0
100
AcDbArc
 50
6.261454943837213
 51
85.14857887214039
  0
ARC
  5
31C
330
19
100
AcDbEntity
  8
4
100
AcDbCircle
 10
345.9127434895506
 20
501.7995766439549
 30
0.0
 40
300.0
100
AcDbArc
 50
263.0262065696443
 51
276.9737934303557
  0
ARC
  5
31D
330
19
100
AcDbEntity
  8
4
100
AcDbCircle
 10
345.9127434895506
 20
498.7995766439549
 30
0.0
 40
300.0
100
AcDbArc
 50
262.50501904072
 51
277.49498095928
  0
ARC
  5
31E
330
19
100
AcDbEntity
  8
4
100
AcDbCircle
 10
379.3958860251328
 20
193.6309688777856
 30
0.0
 40
7.0
100
AcDbArc
 50
96.26145494383721
 51
175.1485788721405
  0
ARC
  5
31F
330
19
100
AcDbEntity
  8
4
100
AcDbCircle
 10
307.4331374953374
 20
206.3199706497414
 30
0.0
 40
5.0
100
AcDbArc
 50
187.4949809592804
 51
262.505019040719
  0
ARC
  5
320
330
19
100
AcDbEntity
  8
4
100
AcDbCircle
 10
312.4296009539685
 20
193.6309688777856
 30
0.0
 40
7.0
100
AcDbArc
 50
4.851421127859541
 51
83.73854505616279
  0
ARC
  5
321
330
19
100
AcDbEntity
  8
4
100
AcDbCircle
 10
384.3923494837638
 20
206.3199706497414
 30
0.0
 40
5.0
100
AcDbArc
 50
277.494980959281
 51
352.5050190407196
  0
LINE
  5
322
330
19
100
AcDbEntity
  8
4
100
AcDbLine
 10
445.4937781415122
 20
222.4506661138917
 30
0.0
 11
396.4893463460496
 21
218.2913556267069
 31
0.0
  0
ARC
  5
323
330
19
100
AcDbEntity
  8
4
100
AcDbCircle
 10
88.91274348955062
 20
244.7995766439547
 30
0.0
 40
300.0
100
AcDbArc
 50
353.0262065696443
 51
6.973793430355729
  0
ARC
  5
324
330
19
100
AcDbEntity
  8
4
100
AcDbCircle
 10
91.91274348955062
 20
244.7995766439547
 30
0.0
 40
300.0
100
AcDbArc
 50
352.50501904072
 51
7.494980959280029
  0
ARC
  5
325
330
19
100
AcDbEntity
  8
4
100
AcDbCircle
 10
599.9127434895506
 20
244.7995766439547
 30
0.0
 40
300.0
100
AcDbArc
 50
172.50501904072
 51
187.49498095928
  0
ARC
  5
326
330
19
100
AcDbEntity
  8
4
100
AcDbCircle
 10
602.9127434895506
 20
244.7995766439547
 30
0.0
 40
300.0
100
AcDbArc
 50
173.0262065696443
 51
186.9737934303557
  0
LINE
  5
327
330
19
100
AcDbEntity
  8
4
100
AcDbLine
 10
303.9127434895506
 20
324.7995766439544
 30
0.0
 11
303.9127434895506
 21
287.5832795261226
 31
0.0
  0
LINE
  5
328
330
19
100
AcDbEntity
  8
4
100
AcDbLine
 10
387.9127434895506
 20
324.7995766439544
 30
0.0
 11
387.9127434895506
 21
287.5832795261192
 31
0.0
  0
LINE
  5
32A
330
19
100
AcDbEntity
  8
4
100
AcDbLine
 10
816.6756123984899
 20
345.656719501098
 30
0.0
 11
800.9891291043082
 21
291.8744910639039
 31
0.0
  0
LINE
  5
32B
330
19
100
AcDbEntity
  8
4
100
AcDbLine
 10
800.6756123984896
 20
324.7995766439549
 30
0.0
 11
800.6756123984896
 21
291.2431844595756
 31
0.0
  0
LINE
  5
32C
330
19
100
AcDbEntity
  8
L-CENTER
 48
3.0
100
AcDbLine
 10
1060.953701254852
 20
244.7995766439547
 30
0.0
 11
690.3975235421271
 21
244.7995766439547
 31
0.0
  0
LINE
  5
32D
330
19
100
AcDbEntity
  8
4
100
AcDbLine
 10
825.6756123984896
 20
374.7995766439547
 30
0.0
 11
925.6756123984896
 21
374.7995766439547
 31
0.0
  0
LINE
  5
32E
330
19
100
AcDbEntity
  8
4
100
AcDbLine
 10
888.1756123984896
 20
380.2995766439545
 30
0.0
 11
863.1756123984899
 21
380.2995766439545
 31
0.0
  0
LINE
  5
32F
330
19
100
AcDbEntity
  8
4
100
AcDbLine
 10
888.1756123984896
 20
378.2995766439545
 30
0.0
 11
863.1756123984899
 21
378.2995766439545
 31
0.0
  0
LINE
  5
330
330
19
100
AcDbEntity
  8
4
100
AcDbLine
 10
886.6756123984896
 20
384.2995766439547
 30
0.0
 11
864.6756123984896
 21
384.2995766439547
 31
0.0
  0
LINE
  5
331
330
19
100
AcDbEntity
  8
4
100
AcDbLine
 10
894.6756123984896
 20
376.7995766439547
 30
0.0
 11
856.6756123984896
 21
376.7995766439547
 31
0.0
  0
LINE
  5
332
330
19
100
AcDbEntity
  8
2
100
AcDbLine
 10
942.9756123984894
 20
140.8765281898191
 30
0.0
 11
944.9756123984894
 21
142.8765281898191
 31
0.0
  0
LINE
  5
333
330
19
100
AcDbEntity
  8
4
100
AcDbLine
 10
942.9756123984894
 20
148.1265281898191
 30
0.0
 11
944.9756123984894
 21
148.1265281898191
 31
0.0
  0
LINE
  5
334
330
19
100
AcDbEntity
  8
L-CENTER
 48
3.0
100
AcDbLine
 10
919.7459307675977
 20
140.8765281898191
 30
0.0
 11
954.9466215970947
 21
140.8765281898191
 31
0.0
  0
LINE
  5
335
330
19
100
AcDbEntity
  8
4
100
AcDbLine
 10
944.9756123984894
 20
147.3765281898191
 30
0.0
 11
952.9756123984894
 21
147.3765281898191
 31
0.0
  0
LINE
  5
336
330
19
100
AcDbEntity
  8
4
100
AcDbLine
 10
872.1756123984896
 20
131.2995766439547
 30
0.0
 11
879.1756123984896
 21
131.2995766439547
 31
0.0
  0
LINE
  5
337
330
19
100
AcDbEntity
  8
4
100
AcDbLine
 10
872.1756123984896
 20
138.2995766439547
 30
0.0
 11
879.1756123984896
 21
138.2995766439547
 31
0.0
  0
LINE
  5
338
330
19
100
AcDbEntity
  8
4
100
AcDbLine
 10
872.1756123984896
 20
131.2995766439547
 30
0.0
 11
872.1756123984896
 21
138.2995766439547
 31
0.0
  0
LINE
  5
339
330
19
100
AcDbEntity
  8
4
100
AcDbLine
 10
879.1756123984896
 20
131.2995766439547
 30
0.0
 11
879.1756123984896
 21
138.2995766439547
 31
0.0
  0
ARC
  5
33A
330
19
100
AcDbEntity
  8
4
100
AcDbCircle
 10
941.9756123984894
 20
117.7995766439547
 30
0.0
 40
1.0
100
AcDbArc
 50
270.0
 51
0.0
  0
LINE
  5
33B
330
19
100
AcDbEntity
  8
4
100
AcDbLine
 10
924.6756123984896
 20
114.7995766439547
 30
0.0
 11
925.6756123984896
 21
114.7995766439547
 31
0.0
  0
LINE
  5
33C
330
19
100
AcDbEntity
  8
4
100
AcDbLine
 10
941.9756123984894
 20
116.7995766439547
 30
0.0
 11
925.6756123984892
 21
116.7995766439547
 31
0.0
  0
LINE
  5
33D
330
19
100
AcDbEntity
  8
4
100
AcDbLine
 10
942.9756123984894
 20
133.6265281898191
 30
0.0
 11
944.9756123984894
 21
133.6265281898191
 31
0.0
  0
LINE
  5
33E
330
19
100
AcDbEntity
  8
4
100
AcDbLine
 10
944.9756123984894
 20
134.3765281898191
 30
0.0
 11
952.9756123984894
 21
134.3765281898191
 31
0.0
  0
LINE
  5
33F
330
19
100
AcDbEntity
  8
4
100
AcDbLine
 10
952.9756123984894
 20
134.3765281898191
 30
0.0
 11
952.9756123984894
 21
147.3765281898191
 31
0.0
  0
LINE
  5
340
330
19
100
AcDbEntity
  8
4
100
AcDbLine
 10
944.9756123984894
 20
133.6265281898191
 30
0.0
 11
944.9756123984894
 21
148.1265281898191
 31
0.0
  0
LINE
  5
341
330
19
100
AcDbEntity
  8
2
100
AcDbLine
 10
942.9756123984894
 20
138.0481010650728
 30
0.0
 11
944.9756123984894
 21
140.0481010650728
 31
0.0
  0
ARC
  5
342
330
19
100
AcDbEntity
  8
4
100
AcDbCircle
 10
968.6756123984896
 20
59.79957664395465
 30
0.0
 40
2.0
100
AcDbArc
 50
0.0
 51
90.0
  0
ARC
  5
343
330
19
100
AcDbEntity
  8
4
100
AcDbCircle
 10
925.6756123984901
 20
71.79957664395465
 30
0.0
 40
10.0
100
AcDbArc
 50
180.0
 51
270.0
  0
ARC
  5
344
330
19
100
AcDbEntity
  8
4
100
AcDbCircle
 10
943.6463627488797
 20
65.79957664395465
 30
0.0
 40
4.0
100
AcDbArc
 50
196.7983717813055
 51
270.0
  0
LINE
  5
345
330
19
100
AcDbEntity
  8
4
100
AcDbLine
 10
915.6756123984896
 20
93.49763324778496
 30
0.0
 11
915.6756123984901
 21
71.79957664395465
 31
0.0
  0
LINE
  5
346
330
19
100
AcDbEntity
  8
4
100
AcDbLine
 10
924.6756123984896
 20
114.7995766439547
 30
0.0
 11
939.8170519057326
 21
64.64355827621216
 31
0.0
  0
ARC
  5
347
330
19
100
AcDbEntity
  8
4
100
AcDbCircle
 10
875.6756123984896
 20
121.7995766439547
 30
0.0
 40
49.0
100
AcDbArc
 50
324.718738172734
 51
0.0
  0
LINE
  5
34E
330
19
100
AcDbEntity
  8
4
100
AcDbLine
 10
970.6756123984896
 20
31.79957664395465
 30
0.0
 11
970.6756123984896
 21
59.79957664395465
 31
0.0
  0
LINE
  5
34F
330
19
100
AcDbEntity
  8
L-CENTER
 48
3.0
100
AcDbLine
 10
940.6756123984896
 20
21.79957664395465
 30
0.0
 11
940.6756123984896
 21
71.79957664395465
 31
0.0
  0
LINE
  5
350
330
19
100
AcDbEntity
  8
4
100
AcDbLine
 10
817.6756123984896
 20
116.7995766439547
 30
0.0
 11
826.931381970674
 21
116.7995766439547
 31
0.0
  0
ARC
  5
351
330
19
100
AcDbEntity
  8
4
100
AcDbCircle
 10
817.6756123984896
 20
117.7995766439547
 30
0.0
 40
1.0
100
AcDbArc
 50
180.0
 51
270.0
  0
ARC
  5
357
330
19
100
AcDbEntity
  8
4
100
AcDbCircle
 10
807.7048620480998
 20
65.79957664395465
 30
0.0
 40
4.0
100
AcDbArc
 50
270.0
 51
343.2016282186945
  0
ARC
  5
358
330
19
100
AcDbEntity
  8
4
100
AcDbCircle
 10
825.6756123984894
 20
71.79957664395465
 30
0.0
 40
10.0
100
AcDbArc
 50
270.0
 51
0.0
  0
ARC
  5
359
330
19
100
AcDbEntity
  8
4
100
AcDbCircle
 10
782.6756123984896
 20
59.79957664395465
 30
0.0
 40
2.0
100
AcDbArc
 50
90.0
 51
180.0
  0
LINE
  5
35A
330
19
100
AcDbEntity
  8
4
100
AcDbLine
 10
835.6756123984896
 20
93.49763324778496
 30
0.0
 11
835.6756123984894
 21
71.79957664395465
 31
0.0
  0
LINE
  5
35C
330
19
100
AcDbEntity
  8
4
100
AcDbLine
 10
811.5341728912467
 20
64.64355827621227
 30
0.0
 11
827.0251374007598
 21
115.9573782139742
 31
0.0
  0
LINE
  5
35D
330
19
100
AcDbEntity
  8
4
100
AcDbLine
 10
822.6756123984896
 20
116.7995766439547
 30
0.0
 11
822.6756123984896
 21
101.5495766439542
 31
0.0
  0
ARC
  5
35E
330
19
100
AcDbEntity
  8
4
100
AcDbCircle
 10
875.6756123984896
 20
121.7995766439547
 30
0.0
 40
49.0
100
AcDbArc
 50
180.0
 51
215.281261827266
  0
LINE
  5
35F
330
19
100
AcDbEntity
  8
4
100
AcDbLine
 10
473.9127434895506
 20
169.7995766439547
 30
0.0
 11
473.7209720924689
 21
169.7995766439547
 31
0.0
  0
LINE
  5
360
330
19
100
AcDbEntity
  8
4
100
AcDbLine
 10
473.9127434895506
 20
157.7995766439547
 30
0.0
 11
474.9127434895506
 21
157.7995766439547
 31
0.0
  0
LINE
  5
362
330
19
100
AcDbEntity
  8
4
100
AcDbLine
 10
555.9127434895506
 20
138.2995766439546
 30
0.0
 11
555.9127434895506
 21
109.2995766439547
 31
0.0
  0
LINE
  5
364
330
19
100
AcDbEntity
  8
4
100
AcDbLine
 10
554.9127434895506
 20
135.2995766439547
 30
0.0
 11
555.9127434895506
 21
134.2995766439547
 31
0.0
  0
LINE
  5
365
330
19
100
AcDbEntity
  8
4
100
AcDbLine
 10
474.9127434895504
 20
139.2995766439547
 30
0.0
 11
495.9127434895506
 21
139.2995766439547
 31
0.0
  0
ARC
  5
366
330
19
100
AcDbEntity
  8
4
100
AcDbCircle
 10
456.3210766895465
 20
134.391243443959
 30
0.0
 40
5.0
100
AcDbArc
 50
285.057264454923
 51
344.9427355450743
  0
LINE
  5
367
330
19
100
AcDbEntity
  8
4
100
AcDbLine
 10
500.9127434895506
 20
138.2995766439547
 30
0.0
 11
500.9127434895504
 21
135.2995766439547
 31
0.0
  0
LINE
  5
368
330
19
100
AcDbEntity
  8
4
100
AcDbLine
 10
495.9127434895506
 20
135.2995766439547
 30
0.0
 11
554.9127434895506
 21
135.2995766439547
 31
0.0
  0
LINE
  5
369
330
19
100
AcDbEntity
  8
4
100
AcDbLine
 10
500.9127434895506
 20
138.2995766439547
 30
0.0
 11
555.9127434895506
 21
138.2995766439547
 31
0.0
  0
ARC
  5
36A
330
19
100
AcDbEntity
  8
4
100
AcDbCircle
 10
371.2509060988998
 20
144.9648256021346
 30
0.0
 40
3.0
100
AcDbArc
 50
175.1485788721405
 51
284.2410316353826
  0
ARC
  5
36B
330
19
100
AcDbEntity
  8
4
100
AcDbCircle
 10
320.5745808802014
 20
144.9648256021346
 30
0.0
 40
3.0
100
AcDbArc
 50
255.7589683646174
 51
4.851421127859541
  0
LINE
  5
36C
330
19
100
AcDbEntity
  8
4
100
AcDbLine
 10
345.9127434895506
 20
135.6559831045057
 30
0.0
 11
357.9127434895504
 21
128.7277798742301
 31
0.0
  0
LINE
  5
36D
330
19
100
AcDbEntity
  8
4
100
AcDbLine
 10
357.9127434895504
 20
128.7277798742301
 30
0.0
 11
357.9127434895504
 21
114.8713734136792
 31
0.0
  0
ARC
  5
36E
330
19
100
AcDbEntity
  8
4
100
AcDbCircle
 10
404.9127434895506
 20
116.8474765205879
 30
0.0
 40
2.0
100
AcDbArc
 50
97.84965082380431
 51
180.0
  0
ARC
  5
36F
330
19
100
AcDbEntity
  8
4
100
AcDbCircle
 10
392.9127434895506
 20
115.3639004362133
 30
0.0
 40
2.0
100
AcDbArc
 50
0.0
 51
96.24593198344063
  0
ARC
  5
370
330
19
100
AcDbEntity
  8
4
100
AcDbCircle
 10
298.9127434895506
 20
115.3639004362133
 30
0.0
 40
2.0
100
AcDbArc
 50
83.75406801655939
 51
180.0
  0
ARC
  5
371
330
19
100
AcDbEntity
  8
4
100
AcDbCircle
 10
286.9127434895506
 20
116.8474765205879
 30
0.0
 40
2.0
100
AcDbArc
 50
0.0
 51
82.15034917619569
  0
LINE
  5
372
330
19
100
AcDbEntity
  8
4
100
AcDbLine
 10
333.9127434895506
 20
128.7277798742301
 30
0.0
 11
333.9127434895506
 21
114.8713734136793
 31
0.0
  0
LINE
  5
373
330
19
100
AcDbEntity
  8
4
100
AcDbLine
 10
345.9127434895506
 20
135.6559831045057
 30
0.0
 11
333.9127434895506
 21
128.7277798742301
 31
0.0
  0
ARC
  5
374
330
19
100
AcDbEntity
  8
4
100
AcDbCircle
 10
345.9127434895506
 20
121.7995766439547
 30
0.0
 40
22.0
100
AcDbArc
 50
90.0
 51
188.1902902613165
  0
ARC
  5
375
330
19
100
AcDbEntity
  8
4
100
AcDbCircle
 10
345.9127434895506
 20
121.7995766439547
 30
0.0
 40
22.0
100
AcDbArc
 50
351.8097097386835
 51
90.0
  0
ARC
  5
376
330
19
100
AcDbEntity
  8
4
100
AcDbCircle
 10
345.9127434895506
 20
544.7995766439544
 30
0.0
 40
430.0
100
AcDbArc
 50
272.2279832959101
 51
285.0572644549238
  0
LINE
  5
377
330
19
100
AcDbEntity
  8
4
100
AcDbLine
 10
474.9127434895504
 20
104.2995766439547
 30
0.0
 11
495.9127434895506
 21
104.2995766439547
 31
0.0
  0
LINE
  5
378
330
19
100
AcDbEntity
  8
4
100
AcDbLine
 10
473.9127434895506
 20
85.79957664395442
 30
0.0
 11
474.9127434895506
 21
85.79957664395465
 31
0.0
  0
LINE
  5
379
330
19
100
AcDbEntity
  8
4
100
AcDbLine
 10
495.9127434895506
 20
108.2995766439546
 30
0.0
 11
554.9127434895506
 21
108.2995766439547
 31
0.0
  0
ARC
  5
37B
330
19
100
AcDbEntity
  8
4
100
AcDbCircle
 10
466.9127434895506
 20
59.79957664395465
 30
0.0
 40
2.0
100
AcDbArc
 50
0.0
 51
79.5708449563004
  0
ARC
  5
37C
330
19
100
AcDbEntity
  8
4
100
AcDbCircle
 10
467.6368219442802
 20
63.73349458811686
 30
0.0
 40
2.0
100
AcDbArc
 50
176.4967826591374
 51
259.5708449563004
  0
LINE
  5
37D
330
19
100
AcDbEntity
  8
4
100
AcDbLine
 10
473.9127434895506
 20
73.79957664395465
 30
0.0
 11
469.0712724352925
 21
73.79957664395465
 31
0.0
  0
ARC
  5
37E
330
19
100
AcDbEntity
  8
4
100
AcDbCircle
 10
469.0712724352925
 20
70.79957664395465
 30
0.0
 40
3.0
100
AcDbArc
 50
90.0
 51
176.4967826591372
  0
ARC
  5
380
330
19
100
AcDbEntity
  8
4
100
AcDbCircle
 10
405.9127434895506
 20
64.79957664395465
 30
0.0
 40
3.0
100
AcDbArc
 50
180.0
 51
270.0
  0
ARC
  5
381
330
19
100
AcDbEntity
  8
4
100
AcDbCircle
 10
396.9127434895506
 20
59.79957664395465
 30
0.0
 40
2.0
100
AcDbArc
 50
90.0
 51
180.0
  0
ARC
  5
382
330
19
100
AcDbEntity
  8
4
100
AcDbCircle
 10
294.9127434895506
 20
59.79957664395465
 30
0.0
 40
2.0
100
AcDbArc
 50
0.0
 51
90.0
  0
ARC
  5
383
330
19
100
AcDbEntity
  8
4
100
AcDbCircle
 10
285.9127434895506
 20
64.79957664395465
 30
0.0
 40
3.0
100
AcDbArc
 50
270.0
 51
0.0
  0
LINE
  5
384
330
19
100
AcDbEntity
  8
L-CENTER
 48
3.0
100
AcDbLine
 10
363.1791075224102
 20
61.79957664395465
 30
0.0
 11
328.6463794566911
 21
61.79957664395465
 31
0.0
  0
LINE
  5
385
330
19
100
AcDbEntity
  8
4
100
AcDbLine
 10
467.1269578592071
 20
61.79957664395465
 30
0.0
 11
396.9127434895506
 21
61.79957664395465
 31
0.0
  0
LINE
  5
386
330
19
100
AcDbEntity
  8
4
100
AcDbLine
 10
463.1723752465393
 20
93.49763324778496
 30
0.0
 11
407.3432628640389
 21
93.49763324778496
 31
0.0
  0
LINE
  5
387
330
19
100
AcDbEntity
  8
4
100
AcDbLine
 10
473.9127434895506
 20
169.7995766439547
 30
0.0
 11
473.9127434895506
 21
73.79957664395465
 31
0.0
  0
LINE
  5
388
330
19
100
AcDbEntity
  8
4
100
AcDbLine
 10
474.9127434895506
 20
157.7995766439547
 30
0.0
 11
474.9127434895506
 21
85.79957664395465
 31
0.0
  0
LINE
  5
389
330
19
100
AcDbEntity
  8
4
100
AcDbLine
 10
358.9127434895506
 20
109.3496770459658
 30
0.0
 11
358.9127434895506
 21
61.79957664395465
 31
0.0
  0
LINE
  5
38A
330
19
100
AcDbEntity
  8
4
100
AcDbLine
 10
332.9127434895506
 20
109.3496770459658
 30
0.0
 11
332.9127434895506
 21
61.79957664395465
 31
0.0
  0
LINE
  5
38B
330
19
100
AcDbEntity
  8
4
100
AcDbLine
 10
288.9127434895506
 20
64.79957664395465
 30
0.0
 11
288.9127434895506
 21
116.8474765205879
 31
0.0
  0
ARC
  5
38C
330
19
100
AcDbEntity
  8
4
100
AcDbCircle
 10
345.9127434895506
 20
121.7995766439547
 30
0.0
 40
18.0
100
AcDbArc
 50
192.1371753395049
 51
270.0
  0
ARC
  5
38D
330
19
100
AcDbEntity
  8
4
100
AcDbCircle
 10
345.9127434895506
 20
121.7995766439547
 30
0.0
 40
18.0
100
AcDbArc
 50
270.0
 51
347.8628246604951
  0
LINE
  5
38E
330
19
100
AcDbEntity
  8
4
100
AcDbLine
 10
402.9127434895506
 20
64.79957664395465
 30
0.0
 11
402.9127434895506
 21
116.8474765205879
 31
0.0
  0
LINE
  5
38F
330
19
100
AcDbEntity
  8
4
100
AcDbLine
 10
357.9127434895504
 20
114.8713734136792
 30
0.0
 11
345.9127434895504
 21
107.9431701834037
 31
0.0
  0
CIRCLE
  5
390
330
19
100
AcDbEntity
  8
4
100
AcDbCircle
 10
345.9127434895506
 20
121.7995766439547
 30
0.0
 40
15.0
  0
LINE
  5
391
330
19
100
AcDbEntity
  8
4
100
AcDbLine
 10
333.9127434895506
 20
114.8713734136793
 30
0.0
 11
345.9127434895504
 21
107.9431701834037
 31
0.0
  0
LINE
  5
392
330
19
100
AcDbEntity
  8
4
100
AcDbLine
 10
495.9127434895504
 20
139.2995766439546
 30
0.0
 11
495.9127434895504
 21
104.2995766439546
 31
0.0
  0
LINE
  5
393
330
19
100
AcDbEntity
  8
4
100
AcDbLine
 10
555.9127434895506
 20
109.2995766439547
 30
0.0
 11
554.9127434895506
 21
108.2995766439547
 31
0.0
  0
LINE
  5
394
330
19
100
AcDbEntity
  8
4
100
AcDbLine
 10
554.9127434895506
 20
135.2995766439547
 30
0.0
 11
554.9127434895506
 21
108.2995766439547
 31
0.0
  0
TEXT
  5
3A1
330
19
100
AcDbEntity
  8
3
100
AcDbText
 10
600.8471935815198
 20
15.98008432018958
 30
0.0
 40
9.0
  1
LA5-06
  7
KANJI
 72
     1
 11
625.5971935815198
 21
15.98008432018958
 31
0.0
100
AcDbText
  0
LINE
  5
3A5
330
19
100
AcDbEntity
  8
4
100
AcDbLine
 10
402.9127434895506
 20
31.79957664395465
 30
0.0
 11
394.9127434895506
 21
43.79957664395465
 31
0.0
  0
LINE
  5
3A6
330
19
100
AcDbEntity
  8
4
100
AcDbLine
 10
289.5064765612503
 20
32.69017625150423
 30
0.0
 11
296.3190104178509
 21
42.90897703640508
 31
0.0
  0
ARC
  5
3A7
330
19
100
AcDbEntity
  8
4
100
AcDbCircle
 10
287.8423759725747
 20
33.79957664395465
 30
0.0
 40
2.0
100
AcDbArc
 50
270.0
 51
326.3099324740198
  0
ARC
  5
3A8
330
19
100
AcDbEntity
  8
4
100
AcDbCircle
 10
297.9831110065265
 20
41.79957664395465
 30
0.0
 40
2.0
100
AcDbArc
 50
90.0
 51
146.3099324740198
  0
LINE
  5
3A9
330
19
100
AcDbEntity
  8
4
100
AcDbLine
 10
394.9127434895506
 20
43.79957664395465
 30
0.0
 11
297.9831110065265
 21
43.79957664395465
 31
0.0
  0
LINE
  5
3AD
330
19
100
AcDbEntity
  8
4
100
AcDbLine
 10
468.9127434895506
 20
31.79957664395465
 30
0.0
 11
402.9127434895506
 21
31.79957664395465
 31
0.0
  0
LINE
  5
3B1
330
19
100
AcDbEntity
  8
4
100
AcDbLine
 10
296.9127434895506
 20
43.79957664395465
 30
0.0
 11
296.9127434895506
 21
115.3639004362133
 31
0.0
  0
LINE
  5
3B2
330
19
100
AcDbEntity
  8
4
100
AcDbLine
 10
394.9127434895506
 20
43.79957664395465
 30
0.0
 11
394.9127434895506
 21
115.3639004362133
 31
0.0
  0
ARC
  5
3B3
330
19
100
AcDbEntity
  8
4
100
AcDbCircle
 10
345.9127434895506
 20
61.79957664395465
 30
0.0
 40
13.0
100
AcDbArc
 50
270.0
 51
0.0
  0
ARC
  5
3B4
330
19
100
AcDbEntity
  8
4
100
AcDbCircle
 10
345.9127434895506
 20
61.79957664395465
 30
0.0
 40
13.0
100
AcDbArc
 50
180.0
 51
270.0
  0
LINE
  5
3B5
330
19
100
AcDbEntity
  8
4
100
AcDbLine
 10
468.9127434895506
 20
59.79957664395465
 30
0.0
 11
468.9127434895506
 21
31.79957664395465
 31
0.0
  0
LINE
  5
3B6
330
19
100
AcDbEntity
  8
L-CENTER
 48
3.0
100
AcDbLine
 10
430.9127434895506
 20
21.79957664395465
 30
0.0
 11
430.9127434895506
 21
71.79957664395465
 31
0.0
  0
LWPOLYLINE
  5
3B7
330
19
100
AcDbEntity
  8
4
100
AcDbPolyline
 90
       44
 70
     0
 43
0.0
 10
410.3675401207283
 20
61.79957664395459
 10
411.2033794423576
 20
60.72976121327554
 10
411.5304094423577
 20
60.29778521327546
 10
411.8337664423577
 20
59.86932221327544
 10
412.4833924423579
 20
58.62254921327548
 10
412.5736594423577
 20
58.22568521327554
 10
412.5810634423578
 20
57.84110621327551
 10
412.4937604423576
 20
57.47057621327559
 10
412.2775264423576
 20
57.07155821327552
 10
411.9672484423577
 20
56.68512821327556
 10
411.6033724423578
 20
56.30392721327547
 10
411.2263474423578
 20
55.92060221327557
 10
410.8766164423578
 20
55.52779421327551
 10
410.5946344423578
 20
55.11814421327551
 10
410.4222484423576
 20
54.71970221327553
 10
410.3313754423577
 20
54.30282821327552
 10
410.3111914423578
 20
53.86973621327553
 10
410.5665574423576
 20
52.49533121327551
 10
411.0685024423578
 20
51.05479421327556
 10
411.5247964423577
 20
49.60799021327546
 10
411.6162424423578
 20
49.13467721327544
 10
411.6593224423577
 20
48.66953321327549
 10
411.6432124423577
 20
48.2147812132755
 10
411.5111554423577
 20
47.60054921327554
 10
411.2714134423577
 20
47.00628821327547
 10
410.9523934423578
 20
46.42745921327543
 10
409.8036334423578
 20
44.73825221327542
 10
409.4514844423577
 20
44.17582721327545
 10
409.1620504423577
 20
43.60616921327551
 10
408.9637384423577
 20
43.02474221327549
 10
408.8815984423577
 20
42.49840721327547
 10
408.8796064423577
 20
41.9608192132755
 10
408.9446134423576
 20
41.41345721327548
 10
409.4101864423578
 20
39.72746621327553
 10
410.0055274423576
 20
38.00658821327551
 10
410.1714664423578
 20
37.43209421327549
 10
410.2992424423578
 20
36.85961921327549
 10
410.3757094423577
 20
36.29064521327547
 10
410.3723974423579
 20
35.39337521327542
 10
410.2326574423578
 20
34.5066292132754
 10
409.9837714423577
 20
33.62830421327544
 10
409.6530274423576
 20
32.75629421327557
 10
409.2677104423576
 20
31.88849321327552
 10
409.2253319053611
 20
31.79957664395465
  0
LINE
  5
3B8
330
19
100
AcDbEntity
  8
4
100
AcDbLine
 10
439.9127434895506
 20
31.79957664395465
 30
0.0
 11
439.9127434895506
 21
61.79957664395465
 31
0.0
  0
LINE
  5
3B9
330
19
100
AcDbEntity
  8
4
100
AcDbLine
 10
421.9127434895506
 20
31.79957664395465
 30
0.0
 11
421.9127434895504
 21
61.79957664395465
 31
0.0
  0
LINE
  5
3BD
330
19
100
AcDbEntity
  8
L-CENTER
 48
3.0
100
AcDbLine
 10
810.6756123984896
 20
21.79957664395465
 30
0.0
 11
810.6756123984896
 21
71.79957664395465
 31
0.0
  0
LINE
  5
3BE
330
19
100
AcDbEntity
  8
4
100
AcDbLine
 10
780.6756123984896
 20
31.79957664395465
 30
0.0
 11
780.6756123984896
 21
59.79957664395465
 31
0.0
  0
LINE
  5
3BF
330
19
100
AcDbEntity
  8
4
100
AcDbLine
 10
780.6756123984896
 20
31.79957664395465
 30
0.0
 11
970.6756123984896
 21
31.79957664395465
 31
0.0
  0
LINE
  5
3C0
330
19
100
AcDbEntity
  8
4
100
AcDbLine
 10
782.6756123984896
 20
61.79957664395465
 30
0.0
 11
968.6756123984896
 21
61.79957664395465
 31
0.0
  0
LINE
  5
3C1
330
19
100
AcDbEntity
  8
L-CENTER
 48
3.0
100
AcDbLine
 10
937.0184648732456
 20
121.7995766439547
 30
0.0
 11
814.3327599237334
 21
121.7995766439547
 31
0.0
  0
CIRCLE
  5
3C4
330
19
100
AcDbEntity
  8
4
100
AcDbCircle
 10
875.6756123984896
 20
121.7995766439547
 30
0.0
 40
36.0
  0
CIRCLE
  5
3C5
330
19
100
AcDbEntity
  8
4
100
AcDbCircle
 10
875.6756123984896
 20
121.7995766439547
 30
0.0
 40
48.0
  0
ARC
  5
3C6
330
19
100
AcDbEntity
  8
4
100
AcDbCircle
 10
875.6756123984896
 20
121.7995766439547
 30
0.0
 40
13.5
100
AcDbArc
 50
105.0261137591195
 51
74.97388624088055
  0
LINE
  5
3C7
330
19
100
AcDbEntity
  8
2
 48
3.0
100
AcDbLine
 10
345.9127434895507
 20
65.26367825909233
 30
0.0
 11
348.9127434895506
 21
63.53162745152349
 31
0.0
  0
LINE
  5
3C8
330
19
100
AcDbEntity
  8
2
 48
3.0
100
AcDbLine
 10
342.9127434895506
 20
60.06752583638576
 30
0.0
 11
345.9127434895506
 21
58.33547502881686
 31
0.0
  0
LINE
  5
3C9
330
19
100
AcDbEntity
  8
2
 48
3.0
100
AcDbLine
 10
348.9127434895506
 20
63.53162745152349
 30
0.0
 11
348.9127434895506
 21
60.06752583638564
 31
0.0
  0
LINE
  5
3CA
330
19
100
AcDbEntity
  8
2
 48
3.0
100
AcDbLine
 10
342.9127434895506
 20
63.53162745152332
 30
0.0
 11
342.9127434895506
 21
60.06752583638576
 31
0.0
  0
LINE
  5
3CB
330
19
100
AcDbEntity
  8
L-CENTER
 48
3.0
100
AcDbLine
 10
345.9127434895506
 20
386.7995766439544
 30
0.0
 11
345.9127434895506
 21
37.70768846164287
 31
0.0
  0
ARC
  5
3CC
330
19
100
AcDbEntity
  8
4
100
AcDbCircle
 10
45.91274348955085
 20
244.7995766439544
 30
0.0
 40
430.0
100
AcDbArc
 50
344.9427355450762
 51
15.05726445492382
  0
LINE
  5
3CD
330
19
100
AcDbEntity
  8
4
100
AcDbLine
 10
475.1092320640528
 20
218.5246038501052
 30
0.0
 11
465.6405592067244
 21
63.85570376390251
 31
0.0
  0
LINE
  5
3CE
330
19
100
AcDbEntity
  8
4
100
AcDbLine
 10
368.2616540196136
 20
145.2185419919931
 30
0.0
 11
372.4209645067983
 21
194.2229737874557
 31
0.0
  0
LINE
  5
3CF
330
19
100
AcDbEntity
  8
4
100
AcDbLine
 10
323.5638329594876
 20
145.2185419919931
 30
0.0
 11
319.4045224723029
 21
194.2229737874557
 31
0.0
  0
ARC
  5
3D0
330
19
100
AcDbEntity
  8
4
100
AcDbCircle
 10
473.7209720924689
 20
171.2995766439547
 30
0.0
 40
1.5
100
AcDbArc
 50
176.4967826591383
 51
269.9999999999978
  0
LINE
  5
3D1
330
19
100
AcDbEntity
  8
4
100
AcDbLine
 10
816.6756123984896
 20
371.7995766439549
 30
0.0
 11
816.6756123984896
 21
117.7995766439547
 31
0.0
  0
LINE
  5
3D7
330
19
100
AcDbEntity
  8
4
100
AcDbLine
 10
816.6756123984896
 20
143.9424337868118
 30
0.0
 11
800.9891291043082
 21
197.7246622240059
 31
0.0
  0
LINE
  5
3D8
330
19
100
AcDbEntity
  8
4
100
AcDbLine
 10
816.6756123984896
 20
149.2995766439549
 30
0.0
 11
803.0001766743242
 21
196.1867848410939
 31
0.0
  0
LINE
  5
3D9
330
19
100
AcDbEntity
  8
2
100
AcDbLine
 10
931.9756123984896
 20
116.7995766439547
 30
0.0
 11
931.9756123984896
 21
372.7995766439547
 31
0.0
  0
LINE
  5
3DA
330
19
100
AcDbEntity
  8
4
100
AcDbLine
 10
931.6756123984896
 20
116.7995766439547
 30
0.0
 11
931.6756123984896
 21
372.7995766439547
 31
0.0
  0
LINE
  5
3DB
330
19
100
AcDbEntity
  8
4
100
AcDbLine
 10
925.6756123984896
 20
374.7995766439547
 30
0.0
 11
925.6756123984901
 21
114.7995766439547
 31
0.0
  0
LINE
  5
3DC
330
19
100
AcDbEntity
  8
4
100
AcDbLine
 10
942.9756123984894
 20
117.7995766439547
 30
0.0
 11
942.9756123984894
 21
371.7995766439547
 31
0.0
  0
LINE
  5
3DD
330
19
100
AcDbEntity
  8
L-CENTER
 48
3.0
100
AcDbLine
 10
875.6756123984896
 20
387.4332740903581
 30
0.0
 11
875.6756123984895
 21
25.60316283450447
 31
0.0
  0
LINE
  5
3DE
330
19
100
AcDbEntity
  8
4
100
AcDbLine
 10
825.6756123984896
 20
374.7995766439547
 30
0.0
 11
825.6756123984896
 21
116.7995766439547
 31
0.0
  0
LINE
  5
3DF
330
19
100
AcDbEntity
  8
4
100
AcDbLine
 10
826.6756123984896
 20
244.7995766439547
 30
0.0
 11
826.6756123984896
 21
121.7995766439547
 31
0.0
  0
LINE
  5
3E0
330
19
100
AcDbEntity
  8
4
100
AcDbLine
 10
924.6756123984896
 20
244.7995766439547
 30
0.0
 11
924.6756123984896
 21
121.7995766439547
 31
0.0
  0
LINE
  5
3E1
330
19
100
AcDbEntity
  8
4
100
AcDbLine
 10
942.9756123984898
 20
163.0813331926813
 30
0.0
 11
948.7737765547581
 21
198.0999483939045
 31
0.0
  0
LINE
  5
3E2
330
19
100
AcDbEntity
  8
4
100
AcDbLine
 10
942.9756123984898
 20
153.8985865449456
 30
0.0
 11
950.3661023742729
 21
198.5342190719539
 31
0.0
  0
ARC
  5
3E3
330
19
100
AcDbEntity
  8
4
100
AcDbCircle
 10
235.5044102895549
 20
355.2079098439503
 30
0.0
 40
5.0
100
AcDbArc
 50
105.0572644549247
 51
164.9427355450751
  0
ARC
  5
3E4
330
19
100
AcDbEntity
  8
4
100
AcDbCircle
 10
246.0779924477308
 20
270.1377392533036
 30
0.0
 40
3.0
100
AcDbArc
 50
165.7589683646175
 51
274.8514211278595
  0
ARC
  5
3E5
330
19
100
AcDbEntity
  8
4
100
AcDbCircle
 10
246.0779924477306
 20
219.4614140346052
 30
0.0
 40
3.0
100
AcDbArc
 50
85.14857887214049
 51
194.2410316353825
  0
ARC
  5
3E6
330
19
100
AcDbEntity
  8
4
100
AcDbCircle
 10
645.9127434895506
 20
244.7995766439544
 30
0.0
 40
430.0
100
AcDbArc
 50
164.9427355450761
 51
183.5032173408625
  0
LINE
  5
3E7
330
19
100
AcDbEntity
  8
4
100
AcDbLine
 10
217.9127434895506
 20
157.7995766439547
 30
0.0
 11
216.9127434895506
 21
157.7995766439547
 31
0.0
  0
ARC
  5
3E8
330
19
100
AcDbEntity
  8
4
100
AcDbCircle
 10
235.5044102895547
 20
134.391243443959
 30
0.0
 40
5.0
100
AcDbArc
 50
195.0572644549256
 51
254.942735545077
  0
LINE
  5
3E9
330
19
100
AcDbEntity
  8
4
100
AcDbLine
 10
217.9127434895506
 20
85.79957664395442
 30
0.0
 11
216.9127434895506
 21
85.79957664395465
 31
0.0
  0
LINE
  5
3EA
330
19
100
AcDbEntity
  8
4
100
AcDbLine
 10
224.184619558529
 20
61.79957664395465
 30
0.0
 11
223.9127434895506
 21
61.79957664395465
 31
0.0
  0
ARC
  5
3EB
330
19
100
AcDbEntity
  8
4
100
AcDbCircle
 10
223.9127434895506
 20
60.79957664395465
 30
0.0
 40
1.0
100
AcDbArc
 50
90.0
 51
180.0
  0
ARC
  5
3EC
330
19
100
AcDbEntity
  8
4
100
AcDbCircle
 10
224.184619558529
 20
63.79957664395465
 30
0.0
 40
2.0
100
AcDbArc
 50
270.0
 51
3.503217340862606
  0
ARC
  5
3ED
330
19
100
AcDbEntity
  8
4
100
AcDbCircle
 10
222.7542145438088
 20
70.79957664395465
 30
0.0
 40
3.0
100
AcDbArc
 50
3.503217340862814
 51
90.0
  0
LINE
  5
3EE
330
19
100
AcDbEntity
  8
4
100
AcDbLine
 10
217.9127434895506
 20
73.79957664395442
 30
0.0
 11
222.7542145438088
 21
73.79957664395465
 31
0.0
  0
LINE
  5
3EF
330
19
100
AcDbEntity
  8
4
100
AcDbLine
 10
217.9127434895506
 20
169.7995766439547
 30
0.0
 11
217.9127434895506
 21
73.79957664395442
 31
0.0
  0
LINE
  5
3F0
330
19
100
AcDbEntity
  8
4
100
AcDbLine
 10
216.9127434895506
 20
157.7995766439547
 30
0.0
 11
216.9127434895506
 21
85.79957664395465
 31
0.0
  0
LINE
  5
3F2
330
19
100
AcDbEntity
  8
L-CENTER
 48
3.0
100
AcDbLine
 10
260.9127434895506
 20
21.79957664395465
 30
0.0
 11
260.9127434895506
 21
71.79957664395465
 31
0.0
  0
LINE
  5
3F3
330
19
100
AcDbEntity
  8
4
100
AcDbLine
 10
222.9127434895506
 20
60.79957664395465
 30
0.0
 11
222.9127434895506
 21
31.79957664395465
 31
0.0
  0
ARC
  5
3F4
330
19
100
AcDbEntity
  8
4
100
AcDbCircle
 10
645.9127434895504
 20
244.7995766439544
 30
0.0
 40
430.0
100
AcDbArc
 50
164.9427355450761
 51
195.0572644549239
  0
LINE
  5
3F5
330
19
100
AcDbEntity
  8
4
100
AcDbLine
 10
216.7162549150489
 20
218.5246038501059
 30
0.0
 11
226.1808822960843
 21
63.92178581974019
 31
0.0
  0
ARC
  5
3F6
330
19
100
AcDbEntity
  8
4
100
AcDbCircle
 10
217.9127434895506
 20
171.7995766439547
 30
0.0
 40
2.0
100
AcDbArc
 50
270.0
 51
329.6461908323774
  0
LINE
  5
3F7
330
19
100
AcDbEntity
  8
L-CENTER
 48
3.0
100
AcDbLine
 10
485.9127434895506
 20
244.7995766439547
 30
0.0
 11
205.9127434895506
 21
244.7995766439547
 31
0.0
  0
LINE
  5
3F8
330
19
100
AcDbEntity
  8
L-CENTER
 48
3.0
100
AcDbLine
 10
560.338180243446
 20
121.7995766439547
 30
0.0
 11
131.4873067356552
 21
121.7995766439547
 31
0.0
  0
ARC
  5
3F9
330
19
100
AcDbEntity
  8
4
100
AcDbCircle
 10
345.9127434895506
 20
244.7995766439547
 30
0.0
 40
106.0
100
AcDbArc
 50
277.0114116271595
 51
262.9885883728406
  0
ARC
  5
3FA
330
19
100
AcDbEntity
  8
4
100
AcDbCircle
 10
345.9127434895506
 20
244.7995766439547
 30
0.0
 40
128.0
100
AcDbArc
 50
277.9021441181848
 51
262.0978558818151
  0
LINE
  5
3FB
330
19
100
AcDbEntity
  8
4
100
AcDbLine
 10
287.8423759725747
 20
31.79957664395465
 30
0.0
 11
222.9127434895506
 21
31.79957664395465
 31
0.0
  0
LINE
  5
3FC
330
19
100
AcDbEntity
  8
4
100
AcDbLine
 10
224.184619558529
 20
61.79957664395465
 30
0.0
 11
294.9127434895506
 21
61.79957664395465
 31
0.0
  0
LINE
  5
3FD
330
19
100
AcDbEntity
  8
4
100
AcDbLine
 10
246.3317088375891
 20
222.4506661138917
 30
0.0
 11
295.3361406330516
 21
218.2913556267069
 31
0.0
  0
ARC
  5
3FE
330
19
100
AcDbEntity
  8
4
100
AcDbCircle
 10
345.9127434895506
 20
544.7995766439544
 30
0.0
 40
430.0
100
AcDbArc
 50
254.9427355450761
 51
267.7720167040899
  0
LINE
  5
3FF
330
19
100
AcDbEntity
  8
4
100
AcDbLine
 10
228.6531117325619
 20
93.49763324778496
 30
0.0
 11
284.4822241150623
 21
93.49763324778496
 31
0.0
  0
LINE
  5
402
330
19
100
AcDbEntity
  8
4
100
AcDbLine
 10
246.3317088375893
 20
267.1484871740174
 30
0.0
 11
295.3361406330516
 21
271.3077976612021
 31
0.0
  0
ARC
  5
403
330
19
100
AcDbEntity
  8
4
100
AcDbCircle
 10
345.9127434895506
 20
-55.20042335604535
 30
0.0
 40
430.0
100
AcDbArc
 50
74.94273554507615
 51
105.0572644549238
  0
ARC
  5
472
330
19
100
AcDbEntity
  8
4
100
AcDbCircle
 10
187.4127434895506
 20
697.8912837371354
 30
0.0
 40
3.5
100
AcDbArc
 50
270.0
 51
90.0
  0
LINE
  5
473
330
19
100
AcDbEntity
  8
4
100
AcDbLine
 10
135.9127434895506
 20
710.3912837371354
 30
0.0
 11
135.9127434895506
 21
685.3912837371354
 31
0.0
  0
LINE
  5
474
330
19
100
AcDbEntity
  8
4
100
AcDbLine
 10
195.9127434895506
 20
715.3912837371354
 30
0.0
 11
195.9127434895506
 21
680.3912837371354
 31
0.0
  0
LINE
  5
475
330
19
100
AcDbEntity
  8
4
100
AcDbLine
 10
187.4127434895506
 20
694.3912837371354
 30
0.0
 11
135.9127434895506
 21
694.3912837371354
 31
0.0
  0
LINE
  5
476
330
19
100
AcDbEntity
  8
4
100
AcDbLine
 10
194.9127434895506
 20
684.3912837371354
 30
0.0
 11
136.9127434895506
 21
684.3912837371354
 31
0.0
  0
ARC
  5
477
330
19
100
AcDbEntity
  8
4
100
AcDbCircle
 10
194.9127434895506
 20
683.3912837371354
 30
0.0
 40
1.0
100
AcDbArc
 50
0.0
 51
90.0
  0
LINE
  5
478
330
19
100
AcDbEntity
  8
4
100
AcDbLine
 10
215.9127434895507
 20
680.3912837371354
 30
0.0
 11
195.9127434895506
 21
680.3912837371354
 31
0.0
  0
LINE
  5
479
330
19
100
AcDbEntity
  8
4
100
AcDbLine
 10
136.9127434895506
 20
694.3912837371354
 30
0.0
 11
136.9127434895506
 21
684.3912837371358
 31
0.0
  0
LINE
  5
47A
330
19
100
AcDbEntity
  8
4
100
AcDbLine
 10
136.9127434895506
 20
684.3912837371354
 30
0.0
 11
135.9127434895506
 21
685.3912837371354
 31
0.0
  0
LINE
  5
47B
330
19
100
AcDbEntity
  8
4
100
AcDbLine
 10
194.9127434895506
 20
711.3912837371354
 30
0.0
 11
136.9127434895506
 21
711.3912837371354
 31
0.0
  0
LINE
  5
47C
330
19
100
AcDbEntity
  8
4
100
AcDbLine
 10
187.4127434895506
 20
701.3912837371354
 30
0.0
 11
135.9127434895506
 21
701.3912837371354
 31
0.0
  0
ARC
  5
47D
330
19
100
AcDbEntity
  8
4
100
AcDbCircle
 10
194.9127434895506
 20
712.3912837371354
 30
0.0
 40
1.0
100
AcDbArc
 50
270.0
 51
0.0
  0
LINE
  5
47E
330
19
100
AcDbEntity
  8
4
100
AcDbLine
 10
215.9127434895507
 20
715.3912837371354
 30
0.0
 11
195.9127434895506
 21
715.3912837371354
 31
0.0
  0
LINE
  5
47F
330
19
100
AcDbEntity
  8
4
100
AcDbLine
 10
136.9127434895506
 20
711.3912837371354
 30
0.0
 11
136.9127434895506
 21
701.3912837371354
 31
0.0
  0
LINE
  5
480
330
19
100
AcDbEntity
  8
4
100
AcDbLine
 10
136.9127434895506
 20
711.3912837371354
 30
0.0
 11
135.9127434895506
 21
710.3912837371354
 31
0.0
  0
LINE
  5
483
330
19
100
AcDbEntity
  8
4
100
AcDbLine
 10
136.9127434895506
 20
135.2995766439547
 30
0.0
 11
136.9127434895506
 21
108.2995766439547
 31
0.0
  0
LINE
  5
484
330
19
100
AcDbEntity
  8
4
100
AcDbLine
 10
135.9127434895506
 20
109.2995766439547
 30
0.0
 11
136.9127434895506
 21
108.2995766439547
 31
0.0
  0
LINE
  5
485
330
19
100
AcDbEntity
  8
4
100
AcDbLine
 10
195.9127434895508
 20
139.2995766439546
 30
0.0
 11
195.9127434895508
 21
104.2995766439546
 31
0.0
  0
LINE
  5
486
330
19
100
AcDbEntity
  8
4
100
AcDbLine
 10
195.9127434895506
 20
108.2995766439546
 30
0.0
 11
136.9127434895506
 21
108.2995766439547
 31
0.0
  0
LINE
  5
487
330
19
100
AcDbEntity
  8
4
100
AcDbLine
 10
216.9127434895508
 20
104.2995766439547
 30
0.0
 11
195.9127434895506
 21
104.2995766439547
 31
0.0
  0
LINE
  5
488
330
19
100
AcDbEntity
  8
4
100
AcDbLine
 10
190.9127434895506
 20
138.2995766439547
 30
0.0
 11
135.9127434895506
 21
138.2995766439547
 31
0.0
  0
LINE
  5
489
330
19
100
AcDbEntity
  8
4
100
AcDbLine
 10
195.9127434895506
 20
135.2995766439547
 30
0.0
 11
136.9127434895506
 21
135.2995766439547
 31
0.0
  0
LINE
  5
48A
330
19
100
AcDbEntity
  8
4
100
AcDbLine
 10
190.9127434895506
 20
138.2995766439547
 30
0.0
 11
190.9127434895508
 21
135.2995766439547
 31
0.0
  0
LINE
  5
48B
330
19
100
AcDbEntity
  8
4
100
AcDbLine
 10
216.9127434895508
 20
139.2995766439547
 30
0.0
 11
195.9127434895506
 21
139.2995766439547
 31
0.0
  0
LINE
  5
48C
330
19
100
AcDbEntity
  8
4
100
AcDbLine
 10
136.9127434895506
 20
135.2995766439547
 30
0.0
 11
135.9127434895506
 21
134.2995766439547
 31
0.0
  0
LINE
  5
48E
330
19
100
AcDbEntity
  8
4
100
AcDbLine
 10
135.9127434895506
 20
138.2995766439546
 30
0.0
 11
135.9127434895506
 21
109.2995766439547
 31
0.0
  0
LINE
  5
4A8
330
19
100
AcDbEntity
  8
4
100
AcDbLine
 10
364.9127434895506
 20
591.8912837371355
 30
0.0
 11
364.9127434895506
 21
518.8912837371355
 31
0.0
  0
LINE
  5
4A9
330
19
100
AcDbEntity
  8
4
100
AcDbLine
 10
326.9127434895506
 20
591.8912837371355
 30
0.0
 11
326.9127434895506
 21
518.8912837371355
 31
0.0
  0
LINE
  5
4AA
330
19
100
AcDbEntity
  8
4
100
AcDbLine
 10
340.9127434895506
 20
582.8912837371355
 30
0.0
 11
340.9127434895506
 21
517.8912837371355
 31
0.0
  0
LINE
  5
4AB
330
19
100
AcDbEntity
  8
4
100
AcDbLine
 10
350.9127434895506
 20
582.8912837371355
 30
0.0
 11
350.9127434895506
 21
517.8912837371355
 31
0.0
  0
LINE
  5
4AC
330
19
100
AcDbEntity
  8
4
100
AcDbLine
 10
365.9127434895507
 20
610.8912837371355
 30
0.0
 11
365.9127434895506
 21
592.8912837371355
 31
0.0
  0
LINE
  5
4AD
330
19
100
AcDbEntity
  8
4
100
AcDbLine
 10
325.9127434895507
 20
610.8912837371355
 30
0.0
 11
325.9127434895506
 21
592.8912837371355
 31
0.0
  0
LINE
  5
4AE
330
19
100
AcDbEntity
  8
4
100
AcDbLine
 10
376.9127434895504
 20
610.8912837371355
 30
0.0
 11
314.9127434895505
 21
610.8912837371355
 31
0.0
  0
LINE
  5
4AF
330
19
100
AcDbEntity
  8
4
100
AcDbLine
 10
314.9127434895505
 20
610.8912837371355
 30
0.0
 11
314.9127434895505
 21
611.8912837371355
 31
0.0
  0
LINE
  5
4B0
330
19
100
AcDbEntity
  8
4
100
AcDbLine
 10
376.9127434895505
 20
610.8912837371355
 30
0.0
 11
376.9127434895504
 21
611.8912837371355
 31
0.0
  0
ARC
  5
4B1
330
19
100
AcDbEntity
  8
4
100
AcDbCircle
 10
345.9127434895507
 20
582.8912837371355
 30
0.0
 40
5.0
100
AcDbArc
 50
90.0
 51
180.0
  0
LINE
  5
4B2
330
19
100
AcDbEntity
  8
4
100
AcDbLine
 10
325.9127434895506
 20
592.8912837371355
 30
0.0
 11
365.9127434895506
 21
592.8912837371355
 31
0.0
  0
ARC
  5
4B3
330
19
100
AcDbEntity
  8
4
100
AcDbCircle
 10
325.9127434895507
 20
591.8912837371355
 30
0.0
 40
1.0
100
AcDbArc
 50
0.0
 51
90.0
  0
ARC
  5
4B4
330
19
100
AcDbEntity
  8
4
100
AcDbCircle
 10
365.9127434895507
 20
591.8912837371355
 30
0.0
 40
1.0
100
AcDbArc
 50
90.0
 51
180.0
  0
ARC
  5
4B5
330
19
100
AcDbEntity
  8
4
100
AcDbCircle
 10
345.9127434895507
 20
582.8912837371355
 30
0.0
 40
5.0
100
AcDbArc
 50
0.0
 51
90.0
  0
LINE
  5
4B6
330
19
100
AcDbEntity
  8
4
100
AcDbLine
 10
345.9127434895506
 20
587.8912837371355
 30
0.0
 11
345.9127434895506
 21
587.8912837371355
 31
0.0
  0
LINE
  5
4B7
330
19
100
AcDbEntity
  8
4
100
AcDbLine
 10
327.9127434895506
 20
517.8912837371355
 30
0.0
 11
363.9127434895506
 21
517.8912837371355
 31
0.0
  0
LINE
  5
4B8
330
19
100
AcDbEntity
  8
4
100
AcDbLine
 10
326.9127434895506
 20
518.8912837371355
 30
0.0
 11
327.9127434895506
 21
517.8912837371355
 31
0.0
  0
LINE
  5
4B9
330
19
100
AcDbEntity
  8
4
100
AcDbLine
 10
326.9127434895506
 20
518.8912837371355
 30
0.0
 11
340.9127434895506
 21
518.8912837371355
 31
0.0
  0
LINE
  5
4BA
330
19
100
AcDbEntity
  8
4
100
AcDbLine
 10
363.9127434895506
 20
517.8912837371355
 30
0.0
 11
364.9127434895506
 21
518.8912837371355
 31
0.0
  0
LINE
  5
4BB
330
19
100
AcDbEntity
  8
4
100
AcDbLine
 10
350.9127434895506
 20
518.8912837371355
 30
0.0
 11
364.9127434895506
 21
518.8912837371355
 31
0.0
  0
LINE
  5
4BD
330
19
100
AcDbEntity
  8
4
100
AcDbLine
 10
696.6756123984896
 20
263.7995766439547
 30
0.0
 11
696.6756123984896
 21
225.7995766439547
 31
0.0
  0
LINE
  5
4BE
330
19
100
AcDbEntity
  8
4
100
AcDbLine
 10
695.6756123984896
 20
226.7995766439547
 30
0.0
 11
695.6756123984894
 21
267.2995766439547
 31
0.0
  0
LINE
  5
4BF
330
19
100
AcDbEntity
  8
4
100
AcDbLine
 10
770.6756123984901
 20
224.7995766439547
 30
0.0
 11
770.6756123984901
 21
264.7995766439547
 31
0.0
  0
LINE
  5
4C0
330
19
100
AcDbEntity
  8
4
100
AcDbLine
 10
788.6756123984901
 20
213.7995766439547
 30
0.0
 11
788.6756123984896
 21
275.7995766439547
 31
0.0
  0
LINE
  5
4C1
330
19
100
AcDbEntity
  8
4
100
AcDbLine
 10
770.6756123984892
 20
225.7995766439547
 30
0.0
 11
696.6756123984896
 21
225.7995766439547
 31
0.0
  0
LINE
  5
4C2
330
19
100
AcDbEntity
  8
4
100
AcDbLine
 10
789.6756123984896
 20
213.7995766439547
 30
0.0
 11
788.6756123984901
 21
213.7995766439547
 31
0.0
  0
LINE
  5
4C3
330
19
100
AcDbEntity
  8
4
100
AcDbLine
 10
788.67561239849
 20
224.7995766439547
 30
0.0
 11
770.6756123984892
 21
224.7995766439547
 31
0.0
  0
LINE
  5
4C4
330
19
100
AcDbEntity
  8
4
100
AcDbLine
 10
695.6756123984896
 20
226.7995766439547
 30
0.0
 11
696.6756123984896
 21
225.7995766439547
 31
0.0
  0
LINE
  5
4C5
330
19
100
AcDbEntity
  8
4
100
AcDbLine
 10
770.6756123984892
 20
263.7995766439547
 30
0.0
 11
696.6756123984896
 21
263.7995766439547
 31
0.0
  0
LINE
  5
4C6
330
19
100
AcDbEntity
  8
4
100
AcDbLine
 10
765.6756123984901
 20
267.2995766439547
 30
0.0
 11
695.6756123984896
 21
267.2995766439547
 31
0.0
  0
LINE
  5
4C7
330
19
100
AcDbEntity
  8
4
100
AcDbLine
 10
765.6756123984901
 20
263.7995766439547
 30
0.0
 11
765.6756123984901
 21
267.2995766439547
 31
0.0
  0
LINE
  5
4C8
330
19
100
AcDbEntity
  8
4
100
AcDbLine
 10
789.6756123984896
 20
275.7995766439547
 30
0.0
 11
788.6756123984896
 21
275.7995766439547
 31
0.0
  0
LINE
  5
4C9
330
19
100
AcDbEntity
  8
4
100
AcDbLine
 10
788.6756123984898
 20
264.7995766439547
 30
0.0
 11
770.6756123984892
 21
264.7995766439547
 31
0.0
  0
LINE
  5
4CA
330
19
100
AcDbEntity
  8
4
100
AcDbLine
 10
696.6756123984896
 20
263.7995766439547
 30
0.0
 11
695.6756123984896
 21
262.7995766439547
 31
0.0
  0
CIRCLE
  5
4E4
330
19
100
AcDbEntity
  8
4
100
AcDbCircle
 10
345.9127434895506
 20
244.7995766439547
 30
0.0
 40
31.0
  0
LINE
  5
4E6
330
19
100
AcDbEntity
  8
4
100
AcDbLine
 10
340.9127434895508
 20
267.2995766439547
 30
0.0
 11
350.9127434895506
 21
267.2995766439547
 31
0.0
  0
LINE
  5
4E7
330
19
100
AcDbEntity
  8
4
100
AcDbLine
 10
340.9127434895511
 20
259.2995766439547
 30
0.0
 11
350.9127434895506
 21
259.2995766439547
 31
0.0
  0
LINE
  5
4E8
330
19
100
AcDbEntity
  8
4
100
AcDbLine
 10
340.9127434895508
 20
267.2995766439547
 30
0.0
 11
340.9127434895511
 21
259.2995766439547
 31
0.0
  0
LINE
  5
4E9
330
19
100
AcDbEntity
  8
4
100
AcDbLine
 10
350.9127434895506
 20
267.2995766439547
 30
0.0
 11
350.9127434895506
 21
259.2995766439547
 31
0.0
  0
ARC
  5
4EA
330
19
100
AcDbEntity
  8
4
100
AcDbCircle
 10
345.9127434895506
 20
244.7995766439547
 30
0.0
 40
19.0
100
AcDbArc
 50
105.2575232904556
 51
74.74247670954361
  0
ENDSEC
  0
SECTION
  2
OBJECTS
  0
DICTIONARY
  5
7
330
0
100
AcDbDictionary
281
     1
  3
ACAD_COLOR
350
2C
  3
ACAD_GROUP
350
2A
  3
ACAD_LAYOUT
350
22
  3
ACAD_MATERIAL
350
9
  3
ACAD_MLEADERSTYLE
350
455
  3
ACAD_MLINESTYLE
350
17
  3
ACAD_PLOTSETTINGS
350
2B
  3
ACAD_PLOTSTYLENAME
350
6
  3
ACAD_SCALELIST
350
31
  3
ACAD_TABLESTYLE
350
454
  3
ACAD_VISUALSTYLE
350
2D
  3
ACDBHEADERROUNDTRIPXREC
350
4F2
  3
AcDbVariableDictionary
350
452
  3
DWGPROPS
350
4F5
  0
DICTIONARY
  5
4F6
330
29
100
AcDbDictionary
280
     1
281
     1
  3
ACAD_XREC_ROUNDTRIP
360
4F7
  0
DICTIONARY
  5
1E
330
1D
100
AcDbDictionary
280
     1
281
     1
  3
ADSK_XREC_LAYER_RECONCILED
360
1F
  0
DICTIONARY
  5
D8
330
D7
100
AcDbDictionary
280
     1
281
     1
  3
ADSK_XREC_LAYER_RECONCILED
360
D9
  0
DICTIONARY
  5
3
330
1
100
AcDbDictionary
280
     1
281
     1
  3
ADSK_XREC_LAYER_RECONCILED
360
4
  0
DICTIONARY
  5
6B
330
6A
100
AcDbDictionary
280
     1
281
     1
  3
ADSK_XREC_LAYER_RECONCILED
360
6C
  0
DICTIONARY
  5
57
330
56
100
AcDbDictionary
280
     1
281
     1
  3
ADSK_XREC_LAYER_RECONCILED
360
58
  0
DICTIONARY
  5
5D
330
5C
100
AcDbDictionary
280
     1
281
     1
  3
ADSK_XREC_LAYER_RECONCILED
360
5E
  0
DICTIONARY
  5
1A
330
19
100
AcDbDictionary
280
     1
281
     1
  3
ACAD_SORTENTS
360
1B
  0
DICTIONARY
  5
2C
102
{ACAD_REACTORS
330
7
102
}
330
7
100
AcDbDictionary
281
     1
  0
DICTIONARY
  5
2A
102
{ACAD_REACTORS
330
7
102
}
330
7
100
AcDbDictionary
281
     1
  0
DICTIONARY
  5
22
102
{ACAD_REACTORS
330
7
102
}
330
7
100
AcDbDictionary
281
     1
  3
Model
350
21
  3
ﾚｲｱｳﾄ1
350
26
  0
DICTIONARY
  5
9
102
{ACAD_REACTORS
330
7
102
}
330
7
100
AcDbDictionary
281
     1
  3
ByBlock
350
54
  3
ByLayer
350
12
  3
Global
350
8
  0
DICTIONARY
  5
455
102
{ACAD_REACTORS
330
7
102
}
330
7
100
AcDbDictionary
281
     1
  3
Standard
350
4EB
  0
DICTIONARY
  5
17
102
{ACAD_REACTORS
330
7
102
}
330
7
100
AcDbDictionary
281
     1
  3
STANDARD
350
16
  0
DICTIONARY
  5
2B
102
{ACAD_REACTORS
330
7
102
}
330
7
100
AcDbDictionary
281
     1
  0
ACDBDICTIONARYWDFLT
  5
6
102
{ACAD_REACTORS
330
7
102
}
330
7
100
AcDbDictionary
281
     1
  3
Normal
350
5
100
AcDbDictionaryWithDefault
340
5
  0
DICTIONARY
  5
31
102
{ACAD_REACTORS
330
7
102
}
330
7
100
AcDbDictionary
281
     1
  3
*A1
350
53
  0
DICTIONARY
  5
454
102
{ACAD_REACTORS
330
7
102
}
330
7
100
AcDbDictionary
281
     1
  3
Standard
350
4EE
  0
DICTIONARY
  5
2D
102
{ACAD_REACTORS
330
7
102
}
330
7
100
AcDbDictionary
281
     1
  3
2dWireframe
350
45D
  3
Basic
350
460
  3
Brighten
350
464
  3
ColorChange
350
468
  3
Conceptual
350
462
  3
Dim
350
463
  3
EdgeColorOff
350
46B
  3
Facepattern
350
467
  3
Flat
350
459
  3
FlatWithEdges
350
45A
  3
Gouraud
350
45B
  3
GouraudWithEdges
350
45C
  3
Hidden
350
45F
  3
JitterOff
350
469
  3
Linepattern
350
466
  3
OverhangOff
350
46A
  3
Realistic
350
461
  3
Shaded
350
470
  3
Shaded with edges
350
46F
  3
Shades of Gray
350
46C
  3
Sketchy
350
46D
  3
Thicken
350
465
  3
Wireframe
350
45E
  3
X-Ray
350
46E
  0
DICTIONARY
  5
4F2
102
{ACAD_REACTORS
330
7
102
}
330
7
100
AcDbDictionary
281
     1
  3
COLORDICT
350
4F3
  3
MATERIALDICT
350
4F4
  0
DICTIONARY
  5
452
102
{ACAD_REACTORS
330
7
102
}
330
7
100
AcDbDictionary
281
     1
  3
CANNOSCALE
350
453
  3
CMLEADERSTYLE
350
4ED
  3
CTABLESTYLE
350
4EF
  3
DIMASSOC
350
4F0
  3
HIDETEXT
350
4F1
  3
MSLTSCALE
350
4F8
  3
XCLIPFRAME
350
456
  0
XRECORD
  5
4F5
102
{ACAD_REACTORS
330
7
102
}
330
7
100
AcDbXrecord
280
     1
  1
DWGPROPS COOKIE
  2

  3

  4

  6

  7

  8
sg-d04
  9

300
=
301
=
302
=
303
=
304
=
305
=
306
=
307
=
308
=
309
=
 40
0.0
 41
2457438.412551667
 42
2457871.440759143
  1

 90
        0
  0
XRECORD
  5
4F7
102
{ACAD_REACTORS
330
4F6
102
}
330
4F6
100
AcDbXrecord
280
     1
102
VTR_0.000_0.000_1.000_1.000_VISUALSTYLE
340
45D
102
VTR_0.000_0.000_1.000_1.000_GRIDDISPLAY
 70
     3
102
VTR_0.000_0.000_1.000_1.000_GRIDMAJOR
 70
     5
102
VTR_0.000_0.000_1.000_1.000_DEFAULTLIGHTING
280
     1
102
VTR_0.000_0.000_1.000_1.000_DEFAULTLIGHTINGTYPE
 70
     1
102
VTR_0.000_0.000_1.000_1.000_BRIGHTNESS
141
0.0
102
VTR_0.000_0.000_1.000_1.000_CONTRAST
142
0.0
  0
XRECORD
  5
1F
102
{ACAD_REACTORS
330
1E
102
}
330
1E
100
AcDbXrecord
280
     1
290
     1
  0
XRECORD
  5
D9
102
{ACAD_REACTORS
330
D8
102
}
330
D8
100
AcDbXrecord
280
     1
290
     1
  0
XRECORD
  5
4
102
{ACAD_REACTORS
330
3
102
}
330
3
100
AcDbXrecord
280
     1
290
     1
  0
XRECORD
  5
6C
102
{ACAD_REACTORS
330
6B
102
}
330
6B
100
AcDbXrecord
280
     1
290
     1
  0
XRECORD
  5
58
102
{ACAD_REACTORS
330
57
102
}
330
57
100
AcDbXrecord
280
     1
290
     1
  0
XRECORD
  5
5E
102
{ACAD_REACTORS
330
5D
102
}
330
5D
100
AcDbXrecord
280
     1
290
     1
  0
SORTENTSTABLE
  5
1B
102
{ACAD_REACTORS
330
1A
102
}
330
1A
100
AcDbSortentsTable
330
19
331
0
  5
222
331
69
  5
3CC
331
6D
  5
3CB
331
6E
  5
3CA
331
6F
  5
3C9
331
1A5
  5
297
331
1A6
  5
296
331
1A7
  5
295
331
1A8
  5
294
331
1A9
  5
293
331
1AA
  5
292
331
1AB
  5
291
331
1AC
  5
290
331
1AD
  5
28F
331
1AE
  5
28E
331
1AF
  5
28D
331
1B0
  5
28C
331
1B1
  5
28B
331
1B2
  5
28A
331
1B3
  5
289
331
1B4
  5
288
331
1B5
  5
287
331
1B6
  5
286
331
1B7
  5
285
331
1B8
  5
284
331
1B9
  5
283
331
1BA
  5
282
331
1BB
  5
281
331
1BC
  5
280
331
1BD
  5
27F
331
1BE
  5
27E
331
1BF
  5
27D
331
1C0
  5
27C
331
1C1
  5
27B
331
1C2
  5
27A
331
1C3
  5
279
331
1C4
  5
278
331
1C5
  5
277
331
1C6
  5
276
331
1C7
  5
275
331
1C8
  5
274
331
1C9
  5
273
331
1CA
  5
272
331
1CB
  5
271
331
1CC
  5
270
331
1CD
  5
26F
331
1CE
  5
26E
331
1CF
  5
26D
331
1D0
  5
26C
331
1D1
  5
26B
331
1D2
  5
26A
331
1D3
  5
269
331
1D4
  5
268
331
1D5
  5
267
331
1D6
  5
266
331
1D7
  5
265
331
1D8
  5
264
331
1D9
  5
263
331
1DA
  5
262
331
1DB
  5
261
331
1DC
  5
260
331
1DD
  5
25F
331
1DE
  5
25E
331
1DF
  5
25D
331
1E0
  5
25C
331
1E1
  5
25B
331
1E2
  5
25A
331
1E3
  5
259
331
1E4
  5
258
331
1E5
  5
257
331
1E6
  5
256
331
1E7
  5
255
331
1E8
  5
254
331
1E9
  5
253
331
1EA
  5
252
331
1EB
  5
251
331
1EC
  5
250
331
1ED
  5
24F
331
1EE
  5
24E
331
1EF
  5
24D
331
1F0
  5
24C
331
1F1
  5
24B
331
1F2
  5
24A
331
1F3
  5
249
331
1F4
  5
248
331
1F5
  5
247
331
1F6
  5
246
331
1F7
  5
245
331
1F8
  5
244
331
1F9
  5
243
331
1FA
  5
242
331
1FB
  5
241
331
206
  5
236
331
207
  5
235
331
208
  5
234
331
209
  5
233
331
20A
  5
232
331
20B
  5
231
331
20C
  5
230
331
20D
  5
22F
331
20E
  5
22E
331
20F
  5
22D
331
210
  5
22C
331
211
  5
22B
331
212
  5
22A
331
213
  5
229
331
214
  5
228
331
215
  5
227
331
227
  5
215
331
228
  5
214
331
229
  5
213
331
22A
  5
212
331
22B
  5
211
331
22C
  5
210
331
22D
  5
20F
331
22E
  5
20E
331
22F
  5
20D
331
230
  5
20C
331
231
  5
20B
331
232
  5
20A
331
233
  5
209
331
234
  5
208
331
235
  5
207
331
236
  5
206
331
237
  5
205
331
238
  5
204
331
239
  5
203
331
23A
  5
202
331
23B
  5
201
331
23C
  5
200
331
23D
  5
1FF
331
23E
  5
1FE
331
23F
  5
1FD
331
243
  5
1F9
331
244
  5
1F8
331
247
  5
1F5
331
248
  5
1F4
331
249
  5
1F3
331
24A
  5
1F2
331
24B
  5
1F1
331
24C
  5
1F0
331
24D
  5
1EF
331
24E
  5
1EE
331
24F
  5
1ED
331
250
  5
1EC
331
251
  5
1EB
331
252
  5
1EA
331
253
  5
1E9
331
254
  5
1E8
331
255
  5
1E7
331
256
  5
1E6
331
257
  5
1E5
331
258
  5
1E4
331
259
  5
1E3
331
25A
  5
1E2
331
25B
  5
1E1
331
25C
  5
1E0
331
25D
  5
1DF
331
25E
  5
1DE
331
260
  5
1DC
331
261
  5
1DB
331
262
  5
1DA
331
263
  5
1D9
331
264
  5
1D8
331
265
  5
1D7
331
266
  5
1D6
331
267
  5
1D5
331
268
  5
1D4
331
26F
  5
1CD
331
270
  5
1CC
331
271
  5
1CB
331
272
  5
1CA
331
273
  5
1C9
331
274
  5
1C8
331
275
  5
1C7
331
276
  5
1C6
331
277
  5
1C5
331
278
  5
1C4
331
279
  5
1C3
331
27A
  5
1C2
331
27B
  5
1C1
331
27C
  5
1C0
331
27D
  5
1BF
331
27E
  5
1BE
331
27F
  5
1BD
331
280
  5
1BC
331
281
  5
1BB
331
282
  5
1BA
331
283
  5
1B9
331
284
  5
1B8
331
285
  5
1B7
331
286
  5
1B6
331
287
  5
1B5
331
288
  5
1B4
331
289
  5
1B3
331
28A
  5
1B2
331
28B
  5
1B1
331
28C
  5
1B0
331
28D
  5
1AF
331
28E
  5
1AE
331
28F
  5
1AD
331
290
  5
1AC
331
291
  5
1AB
331
292
  5
1AA
331
295
  5
1A7
331
296
  5
1A6
331
297
  5
1A5
331
298
  5
1A4
331
299
  5
1A3
331
29A
  5
1A2
331
29B
  5
1A1
331
29C
  5
1A0
331
2A1
  5
19B
331
2A2
  5
19A
331
2A3
  5
199
331
2A4
  5
198
331
2A6
  5
196
331
2A7
  5
195
331
2A8
  5
194
331
2A9
  5
193
331
2AA
  5
192
331
2AB
  5
191
331
2AC
  5
190
331
2AD
  5
18F
331
2AE
  5
18E
331
2AF
  5
18D
331
2B0
  5
18C
331
2B1
  5
18B
331
2B2
  5
18A
331
2B3
  5
189
331
2B4
  5
188
331
2B5
  5
187
331
2B6
  5
186
331
2B7
  5
185
331
2B8
  5
184
331
2B9
  5
183
331
2BA
  5
182
331
2BB
  5
181
331
2BC
  5
180
331
2BD
  5
17F
331
2BE
  5
17E
331
2BF
  5
17D
331
2C0
  5
17C
331
2C1
  5
17B
331
2C2
  5
17A
331
2C3
  5
179
331
2C4
  5
178
331
2C5
  5
177
331
2C6
  5
176
331
2C7
  5
175
331
2C8
  5
174
331
2C9
  5
173
331
2CA
  5
172
331
2CB
  5
171
331
2CC
  5
170
331
2CD
  5
16F
331
2CE
  5
16E
331
2CF
  5
16D
331
2D0
  5
16C
331
2D1
  5
16B
331
2D2
  5
16A
331
2D3
  5
169
331
2D4
  5
168
331
2D5
  5
167
331
2D6
  5
166
331
2D7
  5
165
331
2D8
  5
164
331
2D9
  5
163
331
2DA
  5
162
331
2DB
  5
161
331
2DC
  5
160
331
2DD
  5
15F
331
2DE
  5
15E
331
2DF
  5
15D
331
2E0
  5
15C
331
2E1
  5
15B
331
2E2
  5
15A
331
2E3
  5
159
331
2E4
  5
158
331
2E5
  5
157
331
2E6
  5
156
331
2E7
  5
155
331
2E8
  5
154
331
2E9
  5
153
331
2EA
  5
152
331
2EB
  5
151
331
2EC
  5
150
331
2ED
  5
14F
331
2EE
  5
14E
331
2EF
  5
14D
331
2F0
  5
14C
331
2F1
  5
14B
331
2F2
  5
14A
331
2F3
  5
149
331
2F4
  5
148
331
2F5
  5
147
331
2F6
  5
146
331
2FD
  5
13F
331
2FE
  5
13E
331
2FF
  5
13D
331
300
  5
13C
331
301
  5
13B
331
304
  5
138
331
305
  5
137
331
306
  5
136
331
307
  5
135
331
308
  5
134
331
309
  5
133
331
30A
  5
132
331
30B
  5
131
331
30C
  5
130
331
30D
  5
12F
331
30E
  5
12E
331
30F
  5
12D
331
310
  5
12C
331
311
  5
12B
331
312
  5
12A
331
313
  5
129
331
318
  5
124
331
319
  5
123
331
31A
  5
122
331
31B
  5
121
331
31C
  5
120
331
31D
  5
11F
331
31E
  5
11E
331
31F
  5
11D
331
320
  5
11C
331
321
  5
11B
331
322
  5
11A
331
323
  5
119
331
324
  5
118
331
325
  5
117
331
326
  5
116
331
327
  5
115
331
328
  5
114
331
32A
  5
112
331
32B
  5
111
331
32C
  5
110
331
32D
  5
10F
331
32E
  5
10E
331
32F
  5
10D
331
330
  5
10C
331
331
  5
10B
331
332
  5
10A
331
333
  5
109
331
334
  5
108
331
335
  5
107
331
336
  5
106
331
337
  5
105
331
338
  5
104
331
339
  5
103
331
33A
  5
102
331
33B
  5
101
331
33C
  5
100
331
33D
  5
FF
331
33E
  5
FE
331
33F
  5
FD
331
340
  5
FC
331
341
  5
FB
331
342
  5
FA
331
343
  5
F9
331
344
  5
F8
331
345
  5
F7
331
346
  5
F6
331
347
  5
F5
331
34E
  5
EE
331
34F
  5
ED
331
350
  5
EC
331
351
  5
EB
331
357
  5
E5
331
358
  5
E4
331
359
  5
E3
331
35A
  5
E2
331
35C
  5
E0
331
35D
  5
DF
331
35E
  5
DE
331
35F
  5
DD
331
360
  5
DC
331
362
  5
DA
331
364
  5
D5
331
365
  5
D4
331
366
  5
D3
331
367
  5
D2
331
368
  5
D1
331
369
  5
CF
331
36A
  5
CE
331
36B
  5
CD
331
36C
  5
CC
331
36D
  5
CB
331
36E
  5
CA
331
36F
  5
C9
331
370
  5
C8
331
371
  5
C7
331
372
  5
C6
331
373
  5
C5
331
374
  5
C4
331
375
  5
C3
331
376
  5
C2
331
377
  5
C1
331
378
  5
C0
331
379
  5
BF
331
37B
  5
BD
331
37C
  5
BC
331
37D
  5
BB
331
37E
  5
BA
331
380
  5
B8
331
381
  5
B7
331
382
  5
B6
331
383
  5
B5
331
384
  5
B4
331
385
  5
B3
331
386
  5
B2
331
387
  5
B1
331
388
  5
B0
331
389
  5
AF
331
38A
  5
AE
331
38B
  5
AD
331
38C
  5
AC
331
38D
  5
AB
331
38E
  5
AA
331
38F
  5
A9
331
390
  5
A8
331
391
  5
A7
331
392
  5
A6
331
393
  5
A5
331
394
  5
A4
331
3A1
  5
97
331
3A5
  5
93
331
3A6
  5
92
331
3A7
  5
91
331
3A8
  5
90
331
3A9
  5
8F
331
3AD
  5
8B
331
3B1
  5
87
331
3B2
  5
86
331
3B3
  5
85
331
3B4
  5
84
331
3B5
  5
83
331
3B6
  5
82
331
3B7
  5
81
331
3B8
  5
80
331
3B9
  5
7F
331
3BD
  5
7B
331
3BE
  5
7A
331
3BF
  5
79
331
3C0
  5
78
331
3C1
  5
77
331
3C4
  5
74
331
3C5
  5
73
331
3C6
  5
72
331
3C7
  5
71
331
3C8
  5
70
331
3C9
  5
6F
331
3CA
  5
6E
331
3CB
  5
6D
331
3CC
  5
69
331
3CD
  5
68
331
3CE
  5
67
331
3CF
  5
66
331
3D0
  5
65
331
3D1
  5
64
331
3D7
  5
5B
331
3D8
  5
5A
331
3D9
  5
55
  0
LAYOUT
  5
21
102
{ACAD_REACTORS
330
22
102
}
330
22
100
AcDbPlotSettings
  1

  2
Bullzip PDF Printer.pc3
  4
A3
  6

 40
0.2
 41
0.0
 42
0.0
 43
0.0
 44
420.2
 45
297.1
 46
25.0
 47
12.0
 48
59.99999985999989
 49
0.0
140
1205.999997235
141
817.4999980924999
142
1.0
143
3.0
 70
 11936
 72
     1
 73
     0
 74
     4
  7
monochrome.ctb
 75
     0
147
0.3333333333333333
148
-59.99999985999989
149
0.0
100
AcDbLayout
  1
Model
 70
     0
 71
     0
 10
0.0
 20
0.0
 11
12.0
 21
9.0
 12
0.0
 22
0.0
 32
0.0
 14
131.1400466183272
 24
15.98008432018958
 34
0.0
 15
1060.953701254852
 25
882.2302476736218
 35
0.0
146
0.0
 13
0.0
 23
0.0
 33
0.0
 16
1.0
 26
0.0
 36
0.0
 17
0.0
 27
1.0
 37
0.0
 76
     0
330
19
331
2E
1001
ACAD_PSEXT
1000
Bullzip PDF Printer.pc3
1000
Bullzip PDF Printer
1000
BULLZIP
1000
Bullzip PDF Printer 10.1.0.1871
1070
     0
  0
LAYOUT
  5
26
102
{ACAD_REACTORS
330
22
102
}
330
22
100
AcDbPlotSettings
  1

  2
C:\Program Files\ACAD LT 2000\plotters\Draftpro-DXL (7575A).pc3
  4

  6

 40
0.0
 41
0.0
 42
0.0
 43
0.0
 44
0.0
 45
0.0
 46
0.0
 47
0.0
 48
0.0
 49
0.0
140
0.0
141
0.0
142
1.0
143
1.0
 70
   688
 72
     0
 73
     0
 74
     5
  7
monochrome.ctb
 75
    16
147
1.0
148
0.0
149
0.0
100
AcDbLayout
  1
ﾚｲｱｳﾄ1
 70
     0
 71
     1
 10
0.0
 20
0.0
 11
12.0
 21
9.0
 12
0.0
 22
0.0
 32
0.0
 14
1.000000000000000E+20
 24
1.000000000000000E+20
 34
1.000000000000000E+20
 15
-1.000000000000000E+20
 25
-1.000000000000000E+20
 35
-1.000000000000000E+20
146
0.0
 13
0.0
 23
0.0
 33
0.0
 16
1.0
 26
0.0
 36
0.0
 17
0.0
 27
1.0
 37
0.0
 76
     0
330
23
  0
MATERIAL
  5
54
102
{ACAD_REACTORS
330
9
102
}
102
{ACAD_XDICTIONARY
360
4FD
102
}
330
9
100
AcDbMaterial
  1
ByBlock
 72
     0
 73
     2
 43
0.0208333333333333
 43
0.0
 43
0.0
 43
0.0
 43
0.0
 43
0.0208333333333333
 43
0.0
 43
0.0
 43
0.0
 43
0.0
 43
1.0
 43
0.0
 43
0.0
 43
0.0
 43
0.0
 43
1.0
 77
     0
 78
     2
 47
0.0208333333333333
 47
0.0
 47
0.0
 47
0.0
 47
0.0
 47
0.0208333333333333
 47
0.0
 47
0.0
 47
0.0
 47
0.0
 47
1.0
 47
0.0
 47
0.0
 47
0.0
 47
0.0
 47
1.0
171
     0
172
     2
 49
0.0208333333333333
 49
0.0
 49
0.0
 49
0.0
 49
0.0
 49
0.0208333333333333
 49
0.0
 49
0.0
 49
0.0
 49
0.0
 49
1.0
 49
0.0
 49
0.0
 49
0.0
 49
0.0
 49
1.0
175
     0
176
     2
142
0.0208333333333333
142
0.0
142
0.0
142
0.0
142
0.0
142
0.0208333333333333
142
0.0
142
0.0
142
0.0
142
0.0
142
1.0
142
0.0
142
0.0
142
0.0
142
0.0
142
1.0
179
     0
270
     2
144
0.0208333333333333
144
0.0
144
0.0
144
0.0
144
0.0
144
0.0208333333333333
144
0.0
144
0.0
144
0.0
144
0.0
144
1.0
144
0.0
144
0.0
144
0.0
144
0.0
144
1.0
274
     2
147
0.0208333333333333
147
0.0
147
0.0
147
0.0
147
0.0
147
0.0208333333333333
147
0.0
147
0.0
147
0.0
147
0.0
147
1.0
147
0.0
147
0.0
147
0.0
147
0.0
147
1.0
  0
MATERIAL
  5
12
102
{ACAD_REACTORS
330
9
102
}
102
{ACAD_XDICTIONARY
360
4F9
102
}
330
9
100
AcDbMaterial
  1
ByLayer
 72
     0
 73
     2
 43
0.0208333333333333
 43
0.0
 43
0.0
 43
0.0
 43
0.0
 43
0.0208333333333333
 43
0.0
 43
0.0
 43
0.0
 43
0.0
 43
1.0
 43
0.0
 43
0.0
 43
0.0
 43
0.0
 43
1.0
 77
     0
 78
     2
 47
0.0208333333333333
 47
0.0
 47
0.0
 47
0.0
 47
0.0
 47
0.0208333333333333
 47
0.0
 47
0.0
 47
0.0
 47
0.0
 47
1.0
 47
0.0
 47
0.0
 47
0.0
 47
0.0
 47
1.0
171
     0
172
     2
 49
0.0208333333333333
 49
0.0
 49
0.0
 49
0.0
 49
0.0
 49
0.0208333333333333
 49
0.0
 49
0.0
 49
0.0
 49
0.0
 49
1.0
 49
0.0
 49
0.0
 49
0.0
 49
0.0
 49
1.0
175
     0
176
     2
142
0.0208333333333333
142
0.0
142
0.0
142
0.0
142
0.0
142
0.0208333333333333
142
0.0
142
0.0
142
0.0
142
0.0
142
1.0
142
0.0
142
0.0
142
0.0
142
0.0
142
1.0
179
     0
270
     2
144
0.0208333333333333
144
0.0
144
0.0
144
0.0
144
0.0
144
0.0208333333333333
144
0.0
144
0.0
144
0.0
144
0.0
144
1.0
144
0.0
144
0.0
144
0.0
144
0.0
144
1.0
274
     2
147
0.0208333333333333
147
0.0
147
0.0
147
0.0
147
0.0
147
0.0208333333333333
147
0.0
147
0.0
147
0.0
147
0.0
147
1.0
147
0.0
147
0.0
147
0.0
147
0.0
147
1.0
  0
MATERIAL
  5
8
102
{ACAD_REACTORS
330
9
102
}
102
{ACAD_XDICTIONARY
360
4FB
102
}
330
9
100
AcDbMaterial
  1
Global
 72
     0
 73
     2
 43
0.0208333333333333
 43
0.0
 43
0.0
 43
0.0
 43
0.0
 43
0.0208333333333333
 43
0.0
 43
0.0
 43
0.0
 43
0.0
 43
1.0
 43
0.0
 43
0.0
 43
0.0
 43
0.0
 43
1.0
 77
     0
 78
     2
 47
0.0208333333333333
 47
0.0
 47
0.0
 47
0.0
 47
0.0
 47
0.0208333333333333
 47
0.0
 47
0.0
 47
0.0
 47
0.0
 47
1.0
 47
0.0
 47
0.0
 47
0.0
 47
0.0
 47
1.0
171
     0
172
     2
 49
0.0208333333333333
 49
0.0
 49
0.0
 49
0.0
 49
0.0
 49
0.0208333333333333
 49
0.0
 49
0.0
 49
0.0
 49
0.0
 49
1.0
 49
0.0
 49
0.0
 49
0.0
 49
0.0
 49
1.0
175
     0
176
     2
142
0.0208333333333333
142
0.0
142
0.0
142
0.0
142
0.0
142
0.0208333333333333
142
0.0
142
0.0
142
0.0
142
0.0
142
1.0
142
0.0
142
0.0
142
0.0
142
0.0
142
1.0
179
     0
270
     2
144
0.0208333333333333
144
0.0
144
0.0
144
0.0
144
0.0
144
0.0208333333333333
144
0.0
144
0.0
144
0.0
144
0.0
144
1.0
144
0.0
144
0.0
144
0.0
144
0.0
144
1.0
274
     2
147
0.0208333333333333
147
0.0
147
0.0
147
0.0
147
0.0
147
0.0208333333333333
147
0.0
147
0.0
147
0.0
147
0.0
147
1.0
147
0.0
147
0.0
147
0.0
147
0.0
147
1.0
1001
ACAD
1070
    -1
1070
     3
1070
     0
1000

1071
        0
  0
MLEADERSTYLE
  5
4EB
102
{ACAD_REACTORS
330
455
102
}
102
{ACAD_XDICTIONARY
360
52F
102
}
330
455
100
AcDbMLeaderStyle
170
     2
171
     1
172
     0
 90
        2
 40
0.0
 41
0.0
173
     1
 91
-1056964608
340
F
 92
       -2
290
     1
 42
0.09
291
     1
 43
0.36
  3
Standard
341
0
 44
0.18
300

342
10
174
     1
178
     6
175
     1
176
     0
 93
-1056964608
 45
0.18
292
     0
297
     0
 46
0.18
343
0
 94
-1056964608
 47
1.0
 49
1.0
140
1.0
293
     1
141
0.0
294
     1
177
     0
142
1.0
295
     0
296
     0
143
0.125
1001
ACAD_MLEADERVER
1070
     2
  0
MLINESTYLE
  5
16
102
{ACAD_REACTORS
330
17
102
}
330
17
100
AcDbMlineStyle
  2
STANDARD
 70
     0
  3

 62
     0
 51
90.0
 52
90.0
 71
     2
 49
0.5
 62
   256
  6
BYLAYER
 49
-0.5
 62
   256
  6
BYLAYER
  0
ACDBPLACEHOLDER
  5
5
102
{ACAD_REACTORS
330
6
102
}
330
6
  0
SCALE
  5
53
102
{ACAD_REACTORS
330
31
102
}
330
31
100
AcDbScale
 70
     0
300
1:1
140
1.0
141
1.0
290
     1
  0
TABLESTYLE
  5
4EE
102
{ACAD_REACTORS
330
454
102
}
330
454
100
AcDbTableStyle
  3
Standard
 70
     0
 71
     0
 40
0.06
 41
0.06
280
     0
281
     0
  7
STANDARD
140
0.18
170
     2
 62
     0
 63
   257
283
     0
274
    -2
284
     1
 64
     0
275
    -2
285
     1
 65
     0
276
    -2
286
     1
 66
     0
277
    -2
287
     1
 67
     0
278
    -2
288
     1
 68
     0
279
    -2
289
     1
 69
     0
  7
STANDARD
140
0.25
170
     5
 62
     0
 63
   257
283
     0
274
    -2
284
     1
 64
     0
275
    -2
285
     1
 65
     0
276
    -2
286
     1
 66
     0
277
    -2
287
     1
 67
     0
278
    -2
288
     1
 68
     0
279
    -2
289
     1
 69
     0
  7
STANDARD
140
0.18
170
     5
 62
     0
 63
   257
283
     0
274
    -2
284
     1
 64
     0
275
    -2
285
     1
 65
     0
276
    -2
286
     1
 66
     0
277
    -2
287
     1
 67
     0
278
    -2
288
     1
 68
     0
279
    -2
289
     1
 69
     0
  0
VISUALSTYLE
  5
45D
102
{ACAD_REACTORS
330
2D
102
}
102
{ACAD_XDICTIONARY
360
507
102
}
330
2D
100
AcDbVisualStyle
  2
2dWireframe
 70
     4
 71
     0
 72
     2
 73
     0
 90
        0
 40
0.6
 41
30.0
 62
     5
 63
     7
 74
     1
 91
        4
 64
     7
 65
   257
 75
     1
175
     1
 42
1.0
 92
        0
 66
   257
 43
1.0
 76
     1
 77
     6
 78
     2
 67
     7
 79
     5
170
     0
171
     0
290
     0
174
     0
 93
        1
 44
0.0
173
     0
291
     0
 45
0.0
1001
ACAD
1000
AcDbSavedByObjectVersion
1070
     0
  0
VISUALSTYLE
  5
460
102
{ACAD_REACTORS
330
2D
102
}
102
{ACAD_XDICTIONARY
360
50D
102
}
330
2D
100
AcDbVisualStyle
  2
Basic
 70
     7
 71
     1
 72
     0
 73
     1
 90
        0
 40
0.6
 41
30.0
 62
     5
 63
     7
 74
     0
 91
        4
 64
     7
 65
   257
 75
     1
175
     1
 42
1.0
 92
        8
 66
     7
 43
1.0
 76
     1
 77
     6
 78
     2
 67
     7
 79
     5
170
     0
171
     0
290
     0
174
     0
 93
        1
 44
0.0
173
     0
291
     1
 45
0.0
1001
ACAD
1000
AcDbSavedByObjectVersion
1070
     0
  0
VISUALSTYLE
  5
464
102
{ACAD_REACTORS
330
2D
102
}
102
{ACAD_XDICTIONARY
360
515
102
}
330
2D
100
AcDbVisualStyle
  2
Brighten
 70
    12
 71
     2
 72
     2
 73
     0
 90
        0
 40
0.6
 41
30.0
 62
     5
 63
     7
 74
     1
 91
        4
 64
     7
 65
   257
 75
     1
175
     1
 42
1.0
 92
        8
 66
     7
 43
1.0
 76
     1
 77
     6
 78
     2
 67
     7
 79
     5
170
     0
171
     0
290
     0
174
     0
 93
        1
 44
50.0
173
     0
291
     1
 45
0.0
1001
ACAD
1000
AcDbSavedByObjectVersion
1070
     0
  0
VISUALSTYLE
  5
468
102
{ACAD_REACTORS
330
2D
102
}
102
{ACAD_XDICTIONARY
360
51D
102
}
330
2D
100
AcDbVisualStyle
  2
ColorChange
 70
    16
 71
     2
 72
     2
 73
     3
 90
        0
 40
0.6
 41
30.0
 62
     5
 63
     8
 74
     1
 91
        4
 64
     7
 65
   257
 75
     1
175
     1
 42
1.0
 92
        8
 66
     8
 43
1.0
 76
     1
 77
     6
 78
     2
 67
     7
 79
     5
170
     0
171
     0
290
     0
174
     0
 93
        1
 44
0.0
173
     0
291
     1
 45
0.0
1001
ACAD
1000
AcDbSavedByObjectVersion
1070
     0
  0
VISUALSTYLE
  5
462
102
{ACAD_REACTORS
330
2D
102
}
102
{ACAD_XDICTIONARY
360
511
102
}
330
2D
100
AcDbVisualStyle
  2
Conceptual
 70
     9
 71
     3
 72
     2
 73
     0
 90
        0
 40
0.6
 41
30.0
 62
     5
 63
     7
 74
     2
 91
        2
 64
     7
 65
   257
 75
     1
175
     1
 42
40.0
 92
        8
 66
     7
 43
1.0
 76
     1
 77
     6
 78
     2
 67
     7
 79
     3
170
     0
171
     0
290
     0
174
     0
 93
        1
 44
0.0
173
     0
291
     0
 45
0.0
1001
ACAD
1000
AcDbSavedByObjectVersion
1070
     0
  0
VISUALSTYLE
  5
463
102
{ACAD_REACTORS
330
2D
102
}
102
{ACAD_XDICTIONARY
360
513
102
}
330
2D
100
AcDbVisualStyle
  2
Dim
 70
    11
 71
     2
 72
     2
 73
     0
 90
        0
 40
0.6
 41
30.0
 62
     5
 63
     7
 74
     1
 91
        4
 64
     7
 65
   257
 75
     1
175
     1
 42
1.0
 92
        8
 66
     7
 43
1.0
 76
     1
 77
     6
 78
     2
 67
     7
 79
     5
170
     0
171
     0
290
     0
174
     0
 93
        1
 44
-50.0
173
     0
291
     1
 45
0.0
1001
ACAD
1000
AcDbSavedByObjectVersion
1070
     0
  0
VISUALSTYLE
  5
46B
102
{ACAD_REACTORS
330
2D
102
}
102
{ACAD_XDICTIONARY
360
523
102
}
330
2D
100
AcDbVisualStyle
  2
EdgeColorOff
 70
    22
 71
     2
 72
     2
 73
     0
 90
        0
 40
0.6
 41
30.0
 62
     5
 63
     7
 74
     1
 91
        4
 64
     7
 65
   257
 75
     1
175
     1
 42
1.0
 92
        8
 66
     7
 43
1.0
 76
     1
 77
     6
 78
     2
 67
     7
 79
     5
170
     0
171
     0
290
     0
174
     0
 93
        1
 44
0.0
173
     0
291
     1
 45
0.0
1001
ACAD
1000
AcDbSavedByObjectVersion
1070
     0
  0
VISUALSTYLE
  5
467
102
{ACAD_REACTORS
330
2D
102
}
102
{ACAD_XDICTIONARY
360
51B
102
}
330
2D
100
AcDbVisualStyle
  2
Facepattern
 70
    15
 71
     2
 72
     2
 73
     0
 90
        0
 40
0.6
 41
30.0
 62
     5
 63
     7
 74
     1
 91
        4
 64
     7
 65
   257
 75
     1
175
     1
 42
1.0
 92
        8
 66
     7
 43
1.0
 76
     1
 77
     6
 78
     2
 67
     7
 79
     5
170
     0
171
     0
290
     0
174
     0
 93
        1
 44
0.0
173
     0
291
     1
 45
0.0
1001
ACAD
1000
AcDbSavedByObjectVersion
1070
     0
  0
VISUALSTYLE
  5
459
102
{ACAD_REACTORS
330
2D
102
}
102
{ACAD_XDICTIONARY
360
4FF
102
}
330
2D
100
AcDbVisualStyle
  2
Flat
 70
     0
 71
     2
 72
     1
 73
     1
 90
        2
 40
0.6
 41
30.0
 62
     5
 63
     7
 74
     0
 91
        4
 64
     7
 65
   257
 75
     1
175
     1
 42
1.0
 92
        8
 66
     7
 43
1.0
 76
     1
 77
     6
 78
     2
 67
     7
 79
     5
170
     0
171
     0
290
     0
174
     0
 93
       13
 44
0.0
173
     0
291
     1
 45
0.0
1001
ACAD
1000
AcDbSavedByObjectVersion
1070
     0
  0
VISUALSTYLE
  5
45A
102
{ACAD_REACTORS
330
2D
102
}
102
{ACAD_XDICTIONARY
360
501
102
}
330
2D
100
AcDbVisualStyle
  2
FlatWithEdges
 70
     1
 71
     2
 72
     1
 73
     1
 90
        2
 40
0.6
 41
30.0
 62
     5
 63
     7
 74
     1
 91
        4
 64
     7
 65
   257
 75
     1
175
     1
 42
1.0
 92
        0
 66
   257
 43
1.0
 76
     1
 77
     6
 78
     2
 67
     7
 79
     5
170
     0
171
     0
290
     0
174
     0
 93
       13
 44
0.0
173
     0
291
     1
 45
0.0
1001
ACAD
1000
AcDbSavedByObjectVersion
1070
     0
  0
VISUALSTYLE
  5
45B
102
{ACAD_REACTORS
330
2D
102
}
102
{ACAD_XDICTIONARY
360
503
102
}
330
2D
100
AcDbVisualStyle
  2
Gouraud
 70
     2
 71
     2
 72
     2
 73
     1
 90
        2
 40
0.6
 41
30.0
 62
     5
 63
     7
 74
     0
 91
        4
 64
     7
 65
   257
 75
     1
175
     1
 42
1.0
 92
        0
 66
     7
 43
1.0
 76
     1
 77
     6
 78
     2
 67
     7
 79
     5
170
     0
171
     0
290
     0
174
     0
 93
       13
 44
0.0
173
     0
291
     1
 45
0.0
1001
ACAD
1000
AcDbSavedByObjectVersion
1070
     0
  0
VISUALSTYLE
  5
45C
102
{ACAD_REACTORS
330
2D
102
}
102
{ACAD_XDICTIONARY
360
505
102
}
330
2D
100
AcDbVisualStyle
  2
GouraudWithEdges
 70
     3
 71
     2
 72
     2
 73
     1
 90
        2
 40
0.6
 41
30.0
 62
     5
 63
     7
 74
     1
 91
        4
 64
     7
 65
   257
 75
     1
175
     1
 42
1.0
 92
        0
 66
   257
 43
1.0
 76
     1
 77
     6
 78
     2
 67
     7
 79
     5
170
     0
171
     0
290
     0
174
     0
 93
       13
 44
0.0
173
     0
291
     1
 45
0.0
1001
ACAD
1000
AcDbSavedByObjectVersion
1070
     0
  0
VISUALSTYLE
  5
45F
102
{ACAD_REACTORS
330
2D
102
}
102
{ACAD_XDICTIONARY
360
50B
102
}
330
2D
100
AcDbVisualStyle
  2
Hidden
 70
     6
 71
     1
 72
     2
 73
     2
 90
        0
 40
0.6
 41
30.0
 62
     5
 63
     7
 74
     2
 91
        2
 64
     7
 65
   257
 75
     2
175
     1
 42
40.0
 92
        0
 66
   257
 43
1.0
 76
     1
 77
     6
 78
     2
 67
     7
 79
     3
170
     0
171
     0
290
     0
174
     0
 93
        1
 44
0.0
173
     0
291
     0
 45
0.0
1001
ACAD
1000
AcDbSavedByObjectVersion
1070
     0
  0
VISUALSTYLE
  5
469
102
{ACAD_REACTORS
330
2D
102
}
102
{ACAD_XDICTIONARY
360
51F
102
}
330
2D
100
AcDbVisualStyle
  2
JitterOff
 70
    20
 71
     2
 72
     2
 73
     0
 90
        0
 40
0.6
 41
30.0
 62
     5
 63
     7
 74
     1
 91
        4
 64
     7
 65
   257
 75
     1
175
     1
 42
1.0
 92
       10
 66
     7
 43
1.0
 76
     1
 77
     6
 78
     2
 67
     7
 79
     5
170
     0
171
     0
290
     0
174
     0
 93
        1
 44
0.0
173
     0
291
     1
 45
0.0
1001
ACAD
1000
AcDbSavedByObjectVersion
1070
     0
  0
VISUALSTYLE
  5
466
102
{ACAD_REACTORS
330
2D
102
}
102
{ACAD_XDICTIONARY
360
519
102
}
330
2D
100
AcDbVisualStyle
  2
Linepattern
 70
    14
 71
     2
 72
     2
 73
     0
 90
        0
 40
0.6
 41
30.0
 62
     5
 63
     7
 74
     1
 91
        4
 64
     7
 65
   257
 75
     7
175
     7
 42
1.0
 92
        8
 66
     7
 43
1.0
 76
     1
 77
     6
 78
     2
 67
     7
 79
     5
170
     0
171
     0
290
     0
174
     0
 93
        1
 44
0.0
173
     0
291
     1
 45
0.0
1001
ACAD
1000
AcDbSavedByObjectVersion
1070
     0
  0
VISUALSTYLE
  5
46A
102
{ACAD_REACTORS
330
2D
102
}
102
{ACAD_XDICTIONARY
360
521
102
}
330
2D
100
AcDbVisualStyle
  2
OverhangOff
 70
    21
 71
     2
 72
     2
 73
     0
 90
        0
 40
0.6
 41
30.0
 62
     5
 63
     7
 74
     1
 91
        4
 64
     7
 65
   257
 75
     1
175
     1
 42
1.0
 92
        9
 66
     7
 43
1.0
 76
     1
 77
     6
 78
     2
 67
     7
 79
     5
170
     0
171
     0
290
     0
174
     0
 93
        1
 44
0.0
173
     0
291
     1
 45
0.0
1001
ACAD
1000
AcDbSavedByObjectVersion
1070
     0
  0
VISUALSTYLE
  5
461
102
{ACAD_REACTORS
330
2D
102
}
102
{ACAD_XDICTIONARY
360
50F
102
}
330
2D
100
AcDbVisualStyle
  2
Realistic
 70
     8
 71
     2
 72
     3
 73
     0
 90
        2
 40
0.6
 41
30.0
 62
     5
 63
     7
 74
     0
 91
        0
 64
     7
 65
   257
 75
     1
175
     1
 42
1.0
 92
        8
 66
   257
 43
1.0
 76
     1
 77
     6
 78
     2
 67
     7
 79
     3
170
     0
171
     0
290
     0
174
     0
 93
       13
 44
0.0
173
     0
291
     0
 45
0.0
1001
ACAD
1000
AcDbSavedByObjectVersion
1070
     0
  0
VISUALSTYLE
  5
470
102
{ACAD_REACTORS
330
2D
102
}
102
{ACAD_XDICTIONARY
360
52D
102
}
330
2D
100
AcDbVisualStyle
  2
Shaded
 70
    27
 71
     2
 72
     2
 73
     1
 90
        2
 40
0.6
 41
30.0
 62
     5
 63
     7
 74
     0
 91
        4
 64
     7
 65
   257
 75
     1
175
     1
 42
1.0
 92
        8
 66
   257
 43
1.0
 76
     1
 77
     6
 78
     2
 67
   251
 79
     3
170
     0
171
     0
290
     0
174
     0
 93
        5
 44
0.0
173
     0
291
     0
 45
0.0
1001
ACAD
1000
AcDbSavedByObjectVersion
1070
     0
  0
VISUALSTYLE
  5
46F
102
{ACAD_REACTORS
330
2D
102
}
102
{ACAD_XDICTIONARY
360
52B
102
}
330
2D
100
AcDbVisualStyle
  2
Shaded with edges
 70
    26
 71
     2
 72
     2
 73
     1
 90
        2
 40
0.6
 41
30.0
 62
     5
 63
     7
 74
     1
 91
       10
 64
     7
 65
   257
 75
     2
175
     1
 42
1.0
 92
        8
 66
   257
 43
1.0
 76
     1
 77
     6
 78
     2
 67
     7
 79
     3
170
     0
171
     0
290
     0
174
     0
 93
        5
 44
0.0
173
     0
291
     0
 45
0.0
1001
ACAD
1000
AcDbSavedByObjectVersion
1070
     0
  0
VISUALSTYLE
  5
46C
102
{ACAD_REACTORS
330
2D
102
}
102
{ACAD_XDICTIONARY
360
525
102
}
330
2D
100
AcDbVisualStyle
  2
Shades of Gray
 70
    23
 71
     2
 72
     2
 73
     3
 90
        0
 40
0.6
 41
30.0
 62
     5
 63
     7
 74
     2
 91
        2
 64
     7
 65
     7
 75
     1
175
     1
 42
40.0
 92
        8
 66
     7
 43
1.0
 76
     1
 77
     6
 78
     2
 67
     7
 79
     3
170
     0
171
     0
290
     0
174
     0
 93
        1
 44
0.0
173
     0
291
     0
 45
0.0
1001
ACAD
1000
AcDbSavedByObjectVersion
1070
     0
  0
VISUALSTYLE
  5
46D
102
{ACAD_REACTORS
330
2D
102
}
102
{ACAD_XDICTIONARY
360
527
102
}
330
2D
100
AcDbVisualStyle
  2
Sketchy
 70
    24
 71
     1
 72
     2
 73
     2
 90
        0
 40
0.6
 41
30.0
 62
     5
 63
     7
 74
     2
 91
        2
 64
     7
 65
     7
 75
     1
175
     1
 42
40.0
 92
       11
 66
     7
 43
1.0
 76
     1
 77
     6
 78
     2
 67
     7
 79
     6
170
     0
171
     0
290
     0
174
     0
 93
        1
 44
0.0
173
     0
291
     0
 45
0.0
1001
ACAD
1000
AcDbSavedByObjectVersion
1070
     0
  0
VISUALSTYLE
  5
465
102
{ACAD_REACTORS
330
2D
102
}
102
{ACAD_XDICTIONARY
360
517
102
}
330
2D
100
AcDbVisualStyle
  2
Thicken
 70
    13
 71
     2
 72
     2
 73
     0
 90
        0
 40
0.6
 41
30.0
 62
     5
 63
     7
 74
     1
 91
        4
 64
     7
 65
   257
 75
     1
175
     1
 42
1.0
 92
       12
 66
     7
 43
1.0
 76
     1
 77
     6
 78
     2
 67
     7
 79
     5
170
     0
171
     0
290
     0
174
     0
 93
        1
 44
0.0
173
     0
291
     1
 45
0.0
1001
ACAD
1000
AcDbSavedByObjectVersion
1070
     0
  0
VISUALSTYLE
  5
45E
102
{ACAD_REACTORS
330
2D
102
}
102
{ACAD_XDICTIONARY
360
509
102
}
330
2D
100
AcDbVisualStyle
  2
Wireframe
 70
     5
 71
     0
 72
     2
 73
     0
 90
        0
 40
0.6
 41
30.0
 62
     5
 63
     7
 74
     1
 91
        4
 64
     7
 65
   257
 75
     1
175
     1
 42
1.0
 92
        0
 66
   257
 43
1.0
 76
     1
 77
     6
 78
     2
 67
     7
 79
     5
170
     0
171
     0
290
     0
174
     0
 93
        1
 44
0.0
173
     0
291
     0
 45
0.0
1001
ACAD
1000
AcDbSavedByObjectVersion
1070
     0
  0
VISUALSTYLE
  5
46E
102
{ACAD_REACTORS
330
2D
102
}
102
{ACAD_XDICTIONARY
360
529
102
}
330
2D
100
AcDbVisualStyle
  2
X-Ray
 70
    25
 71
     2
 72
     2
 73
     1
 90
        1
 40
0.5
 41
30.0
 62
     5
 63
     7
 74
     1
 91
        0
 64
     7
 65
   257
 75
     1
175
     1
 42
1.0
 92
        8
 66
     7
 43
1.0
 76
     1
 77
     6
 78
     2
 67
     7
 79
     3
170
     0
171
     0
290
     0
174
     0
 93
       13
 44
0.0
173
     0
291
     0
 45
0.0
1001
ACAD
1000
AcDbSavedByObjectVersion
1070
     0
  0
XRECORD
  5
4F3
102
{ACAD_REACTORS
330
4F2
102
}
330
4F2
100
AcDbXrecord
280
     1
340
2C
  0
XRECORD
  5
4F4
102
{ACAD_REACTORS
330
4F2
102
}
330
4F2
100
AcDbXrecord
280
     1
340
9
  0
DICTIONARYVAR
  5
453
102
{ACAD_REACTORS
330
452
102
}
330
452
100
DictionaryVariables
280
     0
  1
1:1
  0
DICTIONARYVAR
  5
4ED
102
{ACAD_REACTORS
330
452
102
}
330
452
100
DictionaryVariables
280
     0
  1
Standard
  0
DICTIONARYVAR
  5
4EF
102
{ACAD_REACTORS
330
452
102
}
330
452
100
DictionaryVariables
280
     0
  1
Standard
  0
DICTIONARYVAR
  5
4F0
102
{ACAD_REACTORS
330
452
102
}
330
452
100
DictionaryVariables
280
     0
  1
0
  0
DICTIONARYVAR
  5
4F1
102
{ACAD_REACTORS
330
452
102
}
330
452
100
DictionaryVariables
280
     0
  1
1
  0
DICTIONARYVAR
  5
4F8
102
{ACAD_REACTORS
330
452
102
}
330
452
100
DictionaryVariables
280
     0
  1
1
  0
DICTIONARYVAR
  5
456
102
{ACAD_REACTORS
330
452
102
}
330
452
100
DictionaryVariables
280
     0
  1
0
  0
DICTIONARY
  5
4FD
330
54
100
AcDbDictionary
280
     1
281
     1
  3
ACAD_XREC_ROUNDTRIP
360
4FE
  0
DICTIONARY
  5
4F9
330
12
100
AcDbDictionary
280
     1
281
     1
  3
ACAD_XREC_ROUNDTRIP
360
4FA
  0
DICTIONARY
  5
4FB
330
8
100
AcDbDictionary
280
     1
281
     1
  3
ACAD_XREC_ROUNDTRIP
360
4FC
  0
DICTIONARY
  5
52F
330
4EB
100
AcDbDictionary
280
     1
281
     1
  3
ACAD_XREC_ROUNDTRIP
360
530
  0
DICTIONARY
  5
507
330
45D
100
AcDbDictionary
280
     1
281
     1
  3
ACAD_XREC_ROUNDTRIP
360
508
  0
DICTIONARY
  5
50D
330
460
100
AcDbDictionary
280
     1
281
     1
  3
ACAD_XREC_ROUNDTRIP
360
50E
  0
DICTIONARY
  5
515
330
464
100
AcDbDictionary
280
     1
281
     1
  3
ACAD_XREC_ROUNDTRIP
360
516
  0
DICTIONARY
  5
51D
330
468
100
AcDbDictionary
280
     1
281
     1
  3
ACAD_XREC_ROUNDTRIP
360
51E
  0
DICTIONARY
  5
511
330
462
100
AcDbDictionary
280
     1
281
     1
  3
ACAD_XREC_ROUNDTRIP
360
512
  0
DICTIONARY
  5
513
330
463
100
AcDbDictionary
280
     1
281
     1
  3
ACAD_XREC_ROUNDTRIP
360
514
  0
DICTIONARY
  5
523
330
46B
100
AcDbDictionary
280
     1
281
     1
  3
ACAD_XREC_ROUNDTRIP
360
524
  0
DICTIONARY
  5
51B
330
467
100
AcDbDictionary
280
     1
281
     1
  3
ACAD_XREC_ROUNDTRIP
360
51C
  0
DICTIONARY
  5
4FF
330
459
100
AcDbDictionary
280
     1
281
     1
  3
ACAD_XREC_ROUNDTRIP
360
500
  0
DICTIONARY
  5
501
330
45A
100
AcDbDictionary
280
     1
281
     1
  3
ACAD_XREC_ROUNDTRIP
360
502
  0
DICTIONARY
  5
503
330
45B
100
AcDbDictionary
280
     1
281
     1
  3
ACAD_XREC_ROUNDTRIP
360
504
  0
DICTIONARY
  5
505
330
45C
100
AcDbDictionary
280
     1
281
     1
  3
ACAD_XREC_ROUNDTRIP
360
506
  0
DICTIONARY
  5
50B
330
45F
100
AcDbDictionary
280
     1
281
     1
  3
ACAD_XREC_ROUNDTRIP
360
50C
  0
DICTIONARY
  5
51F
330
469
100
AcDbDictionary
280
     1
281
     1
  3
ACAD_XREC_ROUNDTRIP
360
520
  0
DICTIONARY
  5
519
330
466
100
AcDbDictionary
280
     1
281
     1
  3
ACAD_XREC_ROUNDTRIP
360
51A
  0
DICTIONARY
  5
521
330
46A
100
AcDbDictionary
280
     1
281
     1
  3
ACAD_XREC_ROUNDTRIP
360
522
  0
DICTIONARY
  5
50F
330
461
100
AcDbDictionary
280
     1
281
     1
  3
ACAD_XREC_ROUNDTRIP
360
510
  0
DICTIONARY
  5
52D
330
470
100
AcDbDictionary
280
     1
281
     1
  3
ACAD_XREC_ROUNDTRIP
360
52E
  0
DICTIONARY
  5
52B
330
46F
100
AcDbDictionary
280
     1
281
     1
  3
ACAD_XREC_ROUNDTRIP
360
52C
  0
DICTIONARY
  5
525
330
46C
100
AcDbDictionary
280
     1
281
     1
  3
ACAD_XREC_ROUNDTRIP
360
526
  0
DICTIONARY
  5
527
330
46D
100
AcDbDictionary
280
     1
281
     1
  3
ACAD_XREC_ROUNDTRIP
360
528
  0
DICTIONARY
  5
517
330
465
100
AcDbDictionary
280
     1
281
     1
  3
ACAD_XREC_ROUNDTRIP
360
518
  0
DICTIONARY
  5
509
330
45E
100
AcDbDictionary
280
     1
281
     1
  3
ACAD_XREC_ROUNDTRIP
360
50A
  0
DICTIONARY
  5
529
330
46E
100
AcDbDictionary
280
     1
281
     1
  3
ACAD_XREC_ROUNDTRIP
360
52A
  0
XRECORD
  5
4FE
102
{ACAD_REACTORS
330
4FD
102
}
330
4FD
100
AcDbXrecord
280
     1
102
MATERIAL
148
0.0
149
0.0
149
0.0
 93
        0
 94
      127
282
     0
 72
     0
 77
     0
171
     0
175
     0
179
     0
273
     0
  0
XRECORD
  5
4FA
102
{ACAD_REACTORS
330
4F9
102
}
330
4F9
100
AcDbXrecord
280
     1
102
MATERIAL
148
0.0
149
0.0
149
0.0
 93
        0
 94
      127
282
     0
 72
     0
 77
     0
171
     0
175
     0
179
     0
273
     0
  0
XRECORD
  5
4FC
102
{ACAD_REACTORS
330
4FB
102
}
330
4FB
100
AcDbXrecord
280
     1
102
MATERIAL
148
0.0
149
0.0
149
0.0
 93
        0
 94
      127
282
     0
 72
     0
 77
     0
171
     0
175
     0
179
     0
273
     0
  0
XRECORD
  5
530
102
{ACAD_REACTORS
330
52F
102
}
330
52F
100
AcDbXrecord
280
     1
102
ACAD_ROUNDTRIP_2010_MLEADER_STYLE
  0
XRECORD
  5
508
102
{ACAD_REACTORS
330
507
102
}
330
507
100
AcDbXrecord
280
     1
102
RTVSPropertyOp0
 70
     1
102
RTVSPropertyOp1
 70
     1
102
RTVSPropertyOp2
 70
     1
102
RTVSPropertyOp3
 70
     1
102
RTVSPropertyOp4
 70
     1
102
RTVSPropertyOp5
 70
     1
102
RTVSPropertyOp6
 70
     1
102
RTVSPropertyOp7
 70
     1
102
RTVSPropertyOp8
 70
     1
102
RTVSPropertyOp9
 70
     1
102
RTVSPropertyOp10
 70
     1
102
RTVSPropertyOp11
 70
     1
102
RTVSPropertyOp12
 70
     1
102
RTVSPropertyOp13
 70
     1
102
RTVSPropertyOp14
 70
     1
102
RTVSPropertyOp15
 70
     1
102
RTVSPropertyOp16
 70
     1
102
RTVSPropertyOp17
 70
     1
102
RTVSPropertyOp18
 70
     1
102
RTVSPropertyOp19
 70
     1
102
RTVSPropertyOp20
 70
     1
102
RTVSPropertyOp21
 70
     1
102
RTVSPropertyOp22
 70
     1
102
RTVSPropertyOp23
 70
     1
102
RTVSPropertyOp24
 70
     1
102
RTVSPropertyOp25
 70
     1
102
RTVSPropertyOp26
 70
     1
102
RTVSPropertyOp27
 70
     1
102
RTVSPropertyOp28
 70
     1
102
RTVSPropertyOp29
 70
     1
102
RTVSPropertyOp30
 70
     1
102
RTVSPropertyOp31
 70
     1
102
RTVSPropertyOp32
 70
     1
102
RTVSPropertyOp33
 70
     1
102
RTVSPropertyOp34
 70
     1
102
RTVSPropertyOp35
 70
     1
102
RTVSPropertyOp36
 70
     1
102
RTVSPropertyOp37
 70
     1
102
RTVSPropertyOp38
 70
     1
102
RTVSPropertyOp39
 70
     1
102
RTVSPropertyOp40
 70
     1
102
RTVSPropertyOp41
 70
     1
102
RTVSPropertyOp42
 70
     1
102
RTVSPropertyOp43
 70
     1
102
RTVSPropertyOp44
 70
     1
102
RTVSPropertyOp45
 70
     1
102
RTVSPropertyOp46
 70
     1
102
RTVSPropertyOp47
 70
     1
102
RTVSPropertyOp48
 70
     1
102
RTVSPropertyOp49
 70
     1
102
RTVSPropertyOp50
 70
     1
102
RTVSPropertyOp51
 70
     0
102
RTVSPropertyOp52
 70
     0
102
RTVSPropertyOp53
 70
     1
102
RTVSPropertyOp54
 70
     1
102
RTVSPropertyOp55
 70
     1
102
RTVSPropertyOp56
 70
     1
102
RTVSPropertyOp57
 70
     1
102
RTVSPost2010Prop28
280
     1
102
RTVSPost2010PropOp28
 70
     1
102
RTVSPost2010Prop29
280
     1
102
RTVSPost2010PropOp29
 70
     1
102
RTVSPost2010Prop30
280
     0
102
RTVSPost2010PropOp30
 70
     1
102
RTVSPost2010Prop31
280
     0
102
RTVSPost2010PropOp31
 70
     1
102
RTVSPost2010Prop32
280
     0
102
RTVSPost2010PropOp32
 70
     1
102
RTVSPost2010Prop33
280
     0
102
RTVSPost2010PropOp33
 70
     1
102
RTVSPost2010Prop34
280
     0
102
RTVSPost2010PropOp34
 70
     1
102
RTVSPost2010Prop35
280
     0
102
RTVSPost2010PropOp35
 70
     1
102
RTVSPost2010Prop36
280
     0
102
RTVSPost2010PropOp36
 70
     1
102
RTVSPost2010Prop37
 90
       50
102
RTVSPost2010PropOp37
 70
     1
102
RTVSPost2010Prop38
140
0.0
102
RTVSPost2010PropOp38
 70
     1
102
RTVSPost2010Prop39
140
1.0
102
RTVSPost2010PropOp39
 70
     1
102
RTVSPost2010Prop40
 90
        0
102
RTVSPost2010PropOp40
 70
     1
102
RTVSPost2010Prop41ColorIndex
 90
       18
102
RTVSPost2010Prop41ColorRGB
 90
        0
102
RTVSPost2010PropOp41
 70
     1
102
RTVSPost2010Prop42
 90
       50
102
RTVSPost2010PropOp42
 70
     1
102
RTVSPost2010Prop43
 90
        3
102
RTVSPost2010PropOp43
 70
     1
102
RTVSPost2010Prop44ColorIndex
 90
        5
102
RTVSPost2010Prop44ColorRGB
 90
      255
102
RTVSPost2010PropOp44
 70
     1
102
RTVSPost2010Prop45
280
     0
102
RTVSPost2010PropOp45
 70
     1
102
RTVSPost2010Prop46
 90
       50
102
RTVSPost2010PropOp46
 70
     1
102
RTVSPost2010Prop47
 90
       50
102
RTVSPost2010PropOp47
 70
     1
102
RTVSPost2010Prop48
 90
       50
102
RTVSPost2010PropOp48
 70
     1
102
RTVSPost2010Prop49
280
     0
102
RTVSPost2010PropOp49
 70
     1
102
RTVSPost2010Prop50
 90
       50
102
RTVSPost2010PropOp50
 70
     1
102
RTVSPost2010Prop51ColorIndex
 90
      256
102
RTVSPost2010Prop51ColorRGB
 90
-16777216
102
RTVSPost2010PropOp51
 70
     0
102
RTVSPost2010Prop52
140
1.0
102
RTVSPost2010PropOp52
 70
     0
102
RTVSPost2010Prop53
 90
        2
102
RTVSPost2010PropOp53
 70
     1
102
RTVSPost2010Prop54
  1
strokes_ogs.tif
102
RTVSPost2010PropOp54
 70
     1
102
RTVSPost2010Prop55
280
     0
102
RTVSPost2010PropOp55
 70
     1
102
RTVSPost2010Prop56
140
1.0
102
RTVSPost2010PropOp56
 70
     1
102
RTVSPost2010Prop57
140
1.0
102
RTVSPost2010PropOp57
 70
     1
  0
XRECORD
  5
50E
102
{ACAD_REACTORS
330
50D
102
}
330
50D
100
AcDbXrecord
280
     1
102
RTVSPropertyOp0
 70
     1
102
RTVSPropertyOp1
 70
     1
102
RTVSPropertyOp2
 70
     1
102
RTVSPropertyOp3
 70
     1
102
RTVSPropertyOp4
 70
     1
102
RTVSPropertyOp5
 70
     1
102
RTVSPropertyOp6
 70
     1
102
RTVSPropertyOp7
 70
     1
102
RTVSPropertyOp8
 70
     1
102
RTVSPropertyOp9
 70
     1
102
RTVSPropertyOp10
 70
     1
102
RTVSPropertyOp11
 70
     1
102
RTVSPropertyOp12
 70
     1
102
RTVSPropertyOp13
 70
     1
102
RTVSPropertyOp14
 70
     1
102
RTVSPropertyOp15
 70
     1
102
RTVSPropertyOp16
 70
     1
102
RTVSPropertyOp17
 70
     1
102
RTVSPropertyOp18
 70
     1
102
RTVSPropertyOp19
 70
     1
102
RTVSPropertyOp20
 70
     1
102
RTVSPropertyOp21
 70
     1
102
RTVSPropertyOp22
 70
     1
102
RTVSPropertyOp23
 70
     1
102
RTVSPropertyOp24
 70
     1
102
RTVSPropertyOp25
 70
     1
102
RTVSPropertyOp26
 70
     1
102
RTVSPropertyOp27
 70
     1
102
RTVSPropertyOp28
 70
     1
102
RTVSPropertyOp29
 70
     1
102
RTVSPropertyOp30
 70
     1
102
RTVSPropertyOp31
 70
     1
102
RTVSPropertyOp32
 70
     1
102
RTVSPropertyOp33
 70
     1
102
RTVSPropertyOp34
 70
     1
102
RTVSPropertyOp35
 70
     1
102
RTVSPropertyOp36
 70
     1
102
RTVSPropertyOp37
 70
     1
102
RTVSPropertyOp38
 70
     1
102
RTVSPropertyOp39
 70
     1
102
RTVSPropertyOp40
 70
     1
102
RTVSPropertyOp41
 70
     1
102
RTVSPropertyOp42
 70
     1
102
RTVSPropertyOp43
 70
     1
102
RTVSPropertyOp44
 70
     1
102
RTVSPropertyOp45
 70
     1
102
RTVSPropertyOp46
 70
     1
102
RTVSPropertyOp47
 70
     1
102
RTVSPropertyOp48
 70
     1
102
RTVSPropertyOp49
 70
     1
102
RTVSPropertyOp50
 70
     1
102
RTVSPropertyOp51
 70
     0
102
RTVSPropertyOp52
 70
     0
102
RTVSPropertyOp53
 70
     1
102
RTVSPropertyOp54
 70
     1
102
RTVSPropertyOp55
 70
     1
102
RTVSPropertyOp56
 70
     1
102
RTVSPropertyOp57
 70
     1
102
RTVSPost2010Prop28
280
     0
102
RTVSPost2010PropOp28
 70
     1
102
RTVSPost2010Prop29
280
     1
102
RTVSPost2010PropOp29
 70
     1
102
RTVSPost2010Prop30
280
     1
102
RTVSPost2010PropOp30
 70
     1
102
RTVSPost2010Prop31
280
     0
102
RTVSPost2010PropOp31
 70
     1
102
RTVSPost2010Prop32
280
     0
102
RTVSPost2010PropOp32
 70
     1
102
RTVSPost2010Prop33
280
     0
102
RTVSPost2010PropOp33
 70
     1
102
RTVSPost2010Prop34
280
     0
102
RTVSPost2010PropOp34
 70
     1
102
RTVSPost2010Prop35
280
     0
102
RTVSPost2010PropOp35
 70
     1
102
RTVSPost2010Prop36
280
     0
102
RTVSPost2010PropOp36
 70
     1
102
RTVSPost2010Prop37
 90
       50
102
RTVSPost2010PropOp37
 70
     1
102
RTVSPost2010Prop38
140
0.0
102
RTVSPost2010PropOp38
 70
     1
102
RTVSPost2010Prop39
140
1.0
102
RTVSPost2010PropOp39
 70
     1
102
RTVSPost2010Prop40
 90
        0
102
RTVSPost2010PropOp40
 70
     1
102
RTVSPost2010Prop41ColorIndex
 90
       18
102
RTVSPost2010Prop41ColorRGB
 90
        0
102
RTVSPost2010PropOp41
 70
     1
102
RTVSPost2010Prop42
 90
       50
102
RTVSPost2010PropOp42
 70
     1
102
RTVSPost2010Prop43
 90
        3
102
RTVSPost2010PropOp43
 70
     1
102
RTVSPost2010Prop44ColorIndex
 90
        5
102
RTVSPost2010Prop44ColorRGB
 90
      255
102
RTVSPost2010PropOp44
 70
     1
102
RTVSPost2010Prop45
280
     0
102
RTVSPost2010PropOp45
 70
     1
102
RTVSPost2010Prop46
 90
       50
102
RTVSPost2010PropOp46
 70
     1
102
RTVSPost2010Prop47
 90
       50
102
RTVSPost2010PropOp47
 70
     1
102
RTVSPost2010Prop48
 90
       50
102
RTVSPost2010PropOp48
 70
     1
102
RTVSPost2010Prop49
280
     0
102
RTVSPost2010PropOp49
 70
     1
102
RTVSPost2010Prop50
 90
       50
102
RTVSPost2010PropOp50
 70
     1
102
RTVSPost2010Prop51ColorIndex
 90
      256
102
RTVSPost2010Prop51ColorRGB
 90
-16777216
102
RTVSPost2010PropOp51
 70
     0
102
RTVSPost2010Prop52
140
1.0
102
RTVSPost2010PropOp52
 70
     0
102
RTVSPost2010Prop53
 90
        2
102
RTVSPost2010PropOp53
 70
     1
102
RTVSPost2010Prop54
  1
strokes_ogs.tif
102
RTVSPost2010PropOp54
 70
     1
102
RTVSPost2010Prop55
280
     0
102
RTVSPost2010PropOp55
 70
     1
102
RTVSPost2010Prop56
140
1.0
102
RTVSPost2010PropOp56
 70
     1
102
RTVSPost2010Prop57
140
1.0
102
RTVSPost2010PropOp57
 70
     1
  0
XRECORD
  5
516
102
{ACAD_REACTORS
330
515
102
}
330
515
100
AcDbXrecord
280
     1
102
RTVSPropertyOp0
 70
     1
102
RTVSPropertyOp1
 70
     1
102
RTVSPropertyOp2
 70
     1
102
RTVSPropertyOp3
 70
     1
102
RTVSPropertyOp4
 70
     1
102
RTVSPropertyOp5
 70
     1
102
RTVSPropertyOp6
 70
     1
102
RTVSPropertyOp7
 70
     1
102
RTVSPropertyOp8
 70
     1
102
RTVSPropertyOp9
 70
     1
102
RTVSPropertyOp10
 70
     1
102
RTVSPropertyOp11
 70
     1
102
RTVSPropertyOp12
 70
     1
102
RTVSPropertyOp13
 70
     1
102
RTVSPropertyOp14
 70
     1
102
RTVSPropertyOp15
 70
     1
102
RTVSPropertyOp16
 70
     1
102
RTVSPropertyOp17
 70
     1
102
RTVSPropertyOp18
 70
     1
102
RTVSPropertyOp19
 70
     1
102
RTVSPropertyOp20
 70
     1
102
RTVSPropertyOp21
 70
     1
102
RTVSPropertyOp22
 70
     1
102
RTVSPropertyOp23
 70
     1
102
RTVSPropertyOp24
 70
     1
102
RTVSPropertyOp25
 70
     1
102
RTVSPropertyOp26
 70
     1
102
RTVSPropertyOp27
 70
     1
102
RTVSPropertyOp28
 70
     1
102
RTVSPropertyOp29
 70
     1
102
RTVSPropertyOp30
 70
     1
102
RTVSPropertyOp31
 70
     1
102
RTVSPropertyOp32
 70
     1
102
RTVSPropertyOp33
 70
     1
102
RTVSPropertyOp34
 70
     1
102
RTVSPropertyOp35
 70
     1
102
RTVSPropertyOp36
 70
     1
102
RTVSPropertyOp37
 70
     1
102
RTVSPropertyOp38
 70
     1
102
RTVSPropertyOp39
 70
     1
102
RTVSPropertyOp40
 70
     1
102
RTVSPropertyOp41
 70
     1
102
RTVSPropertyOp42
 70
     1
102
RTVSPropertyOp43
 70
     1
102
RTVSPropertyOp44
 70
     1
102
RTVSPropertyOp45
 70
     1
102
RTVSPropertyOp46
 70
     1
102
RTVSPropertyOp47
 70
     1
102
RTVSPropertyOp48
 70
     1
102
RTVSPropertyOp49
 70
     1
102
RTVSPropertyOp50
 70
     1
102
RTVSPropertyOp51
 70
     0
102
RTVSPropertyOp52
 70
     0
102
RTVSPropertyOp53
 70
     1
102
RTVSPropertyOp54
 70
     1
102
RTVSPropertyOp55
 70
     1
102
RTVSPropertyOp56
 70
     1
102
RTVSPropertyOp57
 70
     1
102
RTVSPost2010Prop28
280
     0
102
RTVSPost2010PropOp28
 70
     1
102
RTVSPost2010Prop29
280
     1
102
RTVSPost2010PropOp29
 70
     1
102
RTVSPost2010Prop30
280
     1
102
RTVSPost2010PropOp30
 70
     1
102
RTVSPost2010Prop31
280
     0
102
RTVSPost2010PropOp31
 70
     1
102
RTVSPost2010Prop32
280
     0
102
RTVSPost2010PropOp32
 70
     1
102
RTVSPost2010Prop33
280
     0
102
RTVSPost2010PropOp33
 70
     1
102
RTVSPost2010Prop34
280
     0
102
RTVSPost2010PropOp34
 70
     1
102
RTVSPost2010Prop35
280
     0
102
RTVSPost2010PropOp35
 70
     1
102
RTVSPost2010Prop36
280
     0
102
RTVSPost2010PropOp36
 70
     1
102
RTVSPost2010Prop37
 90
       50
102
RTVSPost2010PropOp37
 70
     1
102
RTVSPost2010Prop38
140
0.0
102
RTVSPost2010PropOp38
 70
     1
102
RTVSPost2010Prop39
140
1.0
102
RTVSPost2010PropOp39
 70
     1
102
RTVSPost2010Prop40
 90
        0
102
RTVSPost2010PropOp40
 70
     1
102
RTVSPost2010Prop41ColorIndex
 90
       18
102
RTVSPost2010Prop41ColorRGB
 90
        0
102
RTVSPost2010PropOp41
 70
     1
102
RTVSPost2010Prop42
 90
       50
102
RTVSPost2010PropOp42
 70
     1
102
RTVSPost2010Prop43
 90
        3
102
RTVSPost2010PropOp43
 70
     1
102
RTVSPost2010Prop44ColorIndex
 90
        5
102
RTVSPost2010Prop44ColorRGB
 90
      255
102
RTVSPost2010PropOp44
 70
     1
102
RTVSPost2010Prop45
280
     0
102
RTVSPost2010PropOp45
 70
     1
102
RTVSPost2010Prop46
 90
       50
102
RTVSPost2010PropOp46
 70
     1
102
RTVSPost2010Prop47
 90
       50
102
RTVSPost2010PropOp47
 70
     1
102
RTVSPost2010Prop48
 90
       50
102
RTVSPost2010PropOp48
 70
     1
102
RTVSPost2010Prop49
280
     0
102
RTVSPost2010PropOp49
 70
     1
102
RTVSPost2010Prop50
 90
       50
102
RTVSPost2010PropOp50
 70
     1
102
RTVSPost2010Prop51ColorIndex
 90
      256
102
RTVSPost2010Prop51ColorRGB
 90
-16777216
102
RTVSPost2010PropOp51
 70
     0
102
RTVSPost2010Prop52
140
1.0
102
RTVSPost2010PropOp52
 70
     0
102
RTVSPost2010Prop53
 90
        2
102
RTVSPost2010PropOp53
 70
     1
102
RTVSPost2010Prop54
  1
strokes_ogs.tif
102
RTVSPost2010PropOp54
 70
     1
102
RTVSPost2010Prop55
280
     0
102
RTVSPost2010PropOp55
 70
     1
102
RTVSPost2010Prop56
140
1.0
102
RTVSPost2010PropOp56
 70
     1
102
RTVSPost2010Prop57
140
1.0
102
RTVSPost2010PropOp57
 70
     1
  0
XRECORD
  5
51E
102
{ACAD_REACTORS
330
51D
102
}
330
51D
100
AcDbXrecord
280
     1
102
RTVSPropertyOp0
 70
     1
102
RTVSPropertyOp1
 70
     1
102
RTVSPropertyOp2
 70
     1
102
RTVSPropertyOp3
 70
     1
102
RTVSPropertyOp4
 70
     1
102
RTVSPropertyOp5
 70
     1
102
RTVSPropertyOp6
 70
     1
102
RTVSPropertyOp7
 70
     1
102
RTVSPropertyOp8
 70
     1
102
RTVSPropertyOp9
 70
     1
102
RTVSPropertyOp10
 70
     1
102
RTVSPropertyOp11
 70
     1
102
RTVSPropertyOp12
 70
     1
102
RTVSPropertyOp13
 70
     1
102
RTVSPropertyOp14
 70
     1
102
RTVSPropertyOp15
 70
     1
102
RTVSPropertyOp16
 70
     1
102
RTVSPropertyOp17
 70
     1
102
RTVSPropertyOp18
 70
     1
102
RTVSPropertyOp19
 70
     1
102
RTVSPropertyOp20
 70
     1
102
RTVSPropertyOp21
 70
     1
102
RTVSPropertyOp22
 70
     1
102
RTVSPropertyOp23
 70
     1
102
RTVSPropertyOp24
 70
     1
102
RTVSPropertyOp25
 70
     1
102
RTVSPropertyOp26
 70
     1
102
RTVSPropertyOp27
 70
     1
102
RTVSPropertyOp28
 70
     1
102
RTVSPropertyOp29
 70
     1
102
RTVSPropertyOp30
 70
     1
102
RTVSPropertyOp31
 70
     1
102
RTVSPropertyOp32
 70
     1
102
RTVSPropertyOp33
 70
     1
102
RTVSPropertyOp34
 70
     1
102
RTVSPropertyOp35
 70
     1
102
RTVSPropertyOp36
 70
     1
102
RTVSPropertyOp37
 70
     1
102
RTVSPropertyOp38
 70
     1
102
RTVSPropertyOp39
 70
     1
102
RTVSPropertyOp40
 70
     1
102
RTVSPropertyOp41
 70
     1
102
RTVSPropertyOp42
 70
     1
102
RTVSPropertyOp43
 70
     1
102
RTVSPropertyOp44
 70
     1
102
RTVSPropertyOp45
 70
     1
102
RTVSPropertyOp46
 70
     1
102
RTVSPropertyOp47
 70
     1
102
RTVSPropertyOp48
 70
     1
102
RTVSPropertyOp49
 70
     1
102
RTVSPropertyOp50
 70
     1
102
RTVSPropertyOp51
 70
     0
102
RTVSPropertyOp52
 70
     0
102
RTVSPropertyOp53
 70
     1
102
RTVSPropertyOp54
 70
     1
102
RTVSPropertyOp55
 70
     1
102
RTVSPropertyOp56
 70
     1
102
RTVSPropertyOp57
 70
     1
102
RTVSPost2010Prop28
280
     0
102
RTVSPost2010PropOp28
 70
     1
102
RTVSPost2010Prop29
280
     1
102
RTVSPost2010PropOp29
 70
     1
102
RTVSPost2010Prop30
280
     1
102
RTVSPost2010PropOp30
 70
     1
102
RTVSPost2010Prop31
280
     0
102
RTVSPost2010PropOp31
 70
     1
102
RTVSPost2010Prop32
280
     0
102
RTVSPost2010PropOp32
 70
     1
102
RTVSPost2010Prop33
280
     0
102
RTVSPost2010PropOp33
 70
     1
102
RTVSPost2010Prop34
280
     0
102
RTVSPost2010PropOp34
 70
     1
102
RTVSPost2010Prop35
280
     0
102
RTVSPost2010PropOp35
 70
     1
102
RTVSPost2010Prop36
280
     0
102
RTVSPost2010PropOp36
 70
     1
102
RTVSPost2010Prop37
 90
       50
102
RTVSPost2010PropOp37
 70
     1
102
RTVSPost2010Prop38
140
0.0
102
RTVSPost2010PropOp38
 70
     1
102
RTVSPost2010Prop39
140
1.0
102
RTVSPost2010PropOp39
 70
     1
102
RTVSPost2010Prop40
 90
        0
102
RTVSPost2010PropOp40
 70
     1
102
RTVSPost2010Prop41ColorIndex
 90
       18
102
RTVSPost2010Prop41ColorRGB
 90
        0
102
RTVSPost2010PropOp41
 70
     1
102
RTVSPost2010Prop42
 90
       50
102
RTVSPost2010PropOp42
 70
     1
102
RTVSPost2010Prop43
 90
        3
102
RTVSPost2010PropOp43
 70
     1
102
RTVSPost2010Prop44ColorIndex
 90
        5
102
RTVSPost2010Prop44ColorRGB
 90
      255
102
RTVSPost2010PropOp44
 70
     1
102
RTVSPost2010Prop45
280
     0
102
RTVSPost2010PropOp45
 70
     1
102
RTVSPost2010Prop46
 90
       50
102
RTVSPost2010PropOp46
 70
     1
102
RTVSPost2010Prop47
 90
       50
102
RTVSPost2010PropOp47
 70
     1
102
RTVSPost2010Prop48
 90
       50
102
RTVSPost2010PropOp48
 70
     1
102
RTVSPost2010Prop49
280
     0
102
RTVSPost2010PropOp49
 70
     1
102
RTVSPost2010Prop50
 90
       50
102
RTVSPost2010PropOp50
 70
     1
102
RTVSPost2010Prop51ColorIndex
 90
      256
102
RTVSPost2010Prop51ColorRGB
 90
-16777216
102
RTVSPost2010PropOp51
 70
     0
102
RTVSPost2010Prop52
140
1.0
102
RTVSPost2010PropOp52
 70
     0
102
RTVSPost2010Prop53
 90
        2
102
RTVSPost2010PropOp53
 70
     1
102
RTVSPost2010Prop54
  1
strokes_ogs.tif
102
RTVSPost2010PropOp54
 70
     1
102
RTVSPost2010Prop55
280
     0
102
RTVSPost2010PropOp55
 70
     1
102
RTVSPost2010Prop56
140
1.0
102
RTVSPost2010PropOp56
 70
     1
102
RTVSPost2010Prop57
140
1.0
102
RTVSPost2010PropOp57
 70
     1
  0
XRECORD
  5
512
102
{ACAD_REACTORS
330
511
102
}
330
511
100
AcDbXrecord
280
     1
102
RTVSPropertyOp0
 70
     1
102
RTVSPropertyOp1
 70
     1
102
RTVSPropertyOp2
 70
     1
102
RTVSPropertyOp3
 70
     1
102
RTVSPropertyOp4
 70
     1
102
RTVSPropertyOp5
 70
     1
102
RTVSPropertyOp6
 70
     1
102
RTVSPropertyOp7
 70
     1
102
RTVSPropertyOp8
 70
     1
102
RTVSPropertyOp9
 70
     1
102
RTVSPropertyOp10
 70
     1
102
RTVSPropertyOp11
 70
     1
102
RTVSPropertyOp12
 70
     1
102
RTVSPropertyOp13
 70
     1
102
RTVSPropertyOp14
 70
     1
102
RTVSPropertyOp15
 70
     1
102
RTVSPropertyOp16
 70
     1
102
RTVSPropertyOp17
 70
     1
102
RTVSPropertyOp18
 70
     1
102
RTVSPropertyOp19
 70
     1
102
RTVSPropertyOp20
 70
     1
102
RTVSPropertyOp21
 70
     1
102
RTVSPropertyOp22
 70
     1
102
RTVSPropertyOp23
 70
     1
102
RTVSPropertyOp24
 70
     1
102
RTVSPropertyOp25
 70
     1
102
RTVSPropertyOp26
 70
     1
102
RTVSPropertyOp27
 70
     1
102
RTVSPropertyOp28
 70
     1
102
RTVSPropertyOp29
 70
     1
102
RTVSPropertyOp30
 70
     1
102
RTVSPropertyOp31
 70
     1
102
RTVSPropertyOp32
 70
     1
102
RTVSPropertyOp33
 70
     1
102
RTVSPropertyOp34
 70
     1
102
RTVSPropertyOp35
 70
     1
102
RTVSPropertyOp36
 70
     1
102
RTVSPropertyOp37
 70
     1
102
RTVSPropertyOp38
 70
     1
102
RTVSPropertyOp39
 70
     1
102
RTVSPropertyOp40
 70
     1
102
RTVSPropertyOp41
 70
     1
102
RTVSPropertyOp42
 70
     1
102
RTVSPropertyOp43
 70
     1
102
RTVSPropertyOp44
 70
     1
102
RTVSPropertyOp45
 70
     1
102
RTVSPropertyOp46
 70
     1
102
RTVSPropertyOp47
 70
     1
102
RTVSPropertyOp48
 70
     1
102
RTVSPropertyOp49
 70
     1
102
RTVSPropertyOp50
 70
     1
102
RTVSPropertyOp51
 70
     0
102
RTVSPropertyOp52
 70
     0
102
RTVSPropertyOp53
 70
     1
102
RTVSPropertyOp54
 70
     1
102
RTVSPropertyOp55
 70
     1
102
RTVSPropertyOp56
 70
     1
102
RTVSPropertyOp57
 70
     1
102
RTVSPost2010Prop28
280
     0
102
RTVSPost2010PropOp28
 70
     1
102
RTVSPost2010Prop29
280
     1
102
RTVSPost2010PropOp29
 70
     1
102
RTVSPost2010Prop30
280
     1
102
RTVSPost2010PropOp30
 70
     1
102
RTVSPost2010Prop31
280
     0
102
RTVSPost2010PropOp31
 70
     1
102
RTVSPost2010Prop32
280
     0
102
RTVSPost2010PropOp32
 70
     1
102
RTVSPost2010Prop33
280
     0
102
RTVSPost2010PropOp33
 70
     1
102
RTVSPost2010Prop34
280
     0
102
RTVSPost2010PropOp34
 70
     1
102
RTVSPost2010Prop35
280
     0
102
RTVSPost2010PropOp35
 70
     1
102
RTVSPost2010Prop36
280
     0
102
RTVSPost2010PropOp36
 70
     1
102
RTVSPost2010Prop37
 90
       50
102
RTVSPost2010PropOp37
 70
     1
102
RTVSPost2010Prop38
140
0.0
102
RTVSPost2010PropOp38
 70
     1
102
RTVSPost2010Prop39
140
1.0
102
RTVSPost2010PropOp39
 70
     1
102
RTVSPost2010Prop40
 90
        0
102
RTVSPost2010PropOp40
 70
     1
102
RTVSPost2010Prop41ColorIndex
 90
       18
102
RTVSPost2010Prop41ColorRGB
 90
        0
102
RTVSPost2010PropOp41
 70
     1
102
RTVSPost2010Prop42
 90
       50
102
RTVSPost2010PropOp42
 70
     1
102
RTVSPost2010Prop43
 90
        3
102
RTVSPost2010PropOp43
 70
     1
102
RTVSPost2010Prop44ColorIndex
 90
        5
102
RTVSPost2010Prop44ColorRGB
 90
      255
102
RTVSPost2010PropOp44
 70
     1
102
RTVSPost2010Prop45
280
     0
102
RTVSPost2010PropOp45
 70
     1
102
RTVSPost2010Prop46
 90
       50
102
RTVSPost2010PropOp46
 70
     1
102
RTVSPost2010Prop47
 90
       50
102
RTVSPost2010PropOp47
 70
     1
102
RTVSPost2010Prop48
 90
       50
102
RTVSPost2010PropOp48
 70
     1
102
RTVSPost2010Prop49
280
     0
102
RTVSPost2010PropOp49
 70
     1
102
RTVSPost2010Prop50
 90
       50
102
RTVSPost2010PropOp50
 70
     1
102
RTVSPost2010Prop51ColorIndex
 90
      256
102
RTVSPost2010Prop51ColorRGB
 90
-16777216
102
RTVSPost2010PropOp51
 70
     0
102
RTVSPost2010Prop52
140
1.0
102
RTVSPost2010PropOp52
 70
     0
102
RTVSPost2010Prop53
 90
        2
102
RTVSPost2010PropOp53
 70
     1
102
RTVSPost2010Prop54
  1
strokes_ogs.tif
102
RTVSPost2010PropOp54
 70
     1
102
RTVSPost2010Prop55
280
     0
102
RTVSPost2010PropOp55
 70
     1
102
RTVSPost2010Prop56
140
1.0
102
RTVSPost2010PropOp56
 70
     1
102
RTVSPost2010Prop57
140
1.0
102
RTVSPost2010PropOp57
 70
     1
  0
XRECORD
  5
514
102
{ACAD_REACTORS
330
513
102
}
330
513
100
AcDbXrecord
280
     1
102
RTVSPropertyOp0
 70
     1
102
RTVSPropertyOp1
 70
     1
102
RTVSPropertyOp2
 70
     1
102
RTVSPropertyOp3
 70
     1
102
RTVSPropertyOp4
 70
     1
102
RTVSPropertyOp5
 70
     1
102
RTVSPropertyOp6
 70
     1
102
RTVSPropertyOp7
 70
     1
102
RTVSPropertyOp8
 70
     1
102
RTVSPropertyOp9
 70
     1
102
RTVSPropertyOp10
 70
     1
102
RTVSPropertyOp11
 70
     1
102
RTVSPropertyOp12
 70
     1
102
RTVSPropertyOp13
 70
     1
102
RTVSPropertyOp14
 70
     1
102
RTVSPropertyOp15
 70
     1
102
RTVSPropertyOp16
 70
     1
102
RTVSPropertyOp17
 70
     1
102
RTVSPropertyOp18
 70
     1
102
RTVSPropertyOp19
 70
     1
102
RTVSPropertyOp20
 70
     1
102
RTVSPropertyOp21
 70
     1
102
RTVSPropertyOp22
 70
     1
102
RTVSPropertyOp23
 70
     1
102
RTVSPropertyOp24
 70
     1
102
RTVSPropertyOp25
 70
     1
102
RTVSPropertyOp26
 70
     1
102
RTVSPropertyOp27
 70
     1
102
RTVSPropertyOp28
 70
     1
102
RTVSPropertyOp29
 70
     1
102
RTVSPropertyOp30
 70
     1
102
RTVSPropertyOp31
 70
     1
102
RTVSPropertyOp32
 70
     1
102
RTVSPropertyOp33
 70
     1
102
RTVSPropertyOp34
 70
     1
102
RTVSPropertyOp35
 70
     1
102
RTVSPropertyOp36
 70
     1
102
RTVSPropertyOp37
 70
     1
102
RTVSPropertyOp38
 70
     1
102
RTVSPropertyOp39
 70
     1
102
RTVSPropertyOp40
 70
     1
102
RTVSPropertyOp41
 70
     1
102
RTVSPropertyOp42
 70
     1
102
RTVSPropertyOp43
 70
     1
102
RTVSPropertyOp44
 70
     1
102
RTVSPropertyOp45
 70
     1
102
RTVSPropertyOp46
 70
     1
102
RTVSPropertyOp47
 70
     1
102
RTVSPropertyOp48
 70
     1
102
RTVSPropertyOp49
 70
     1
102
RTVSPropertyOp50
 70
     1
102
RTVSPropertyOp51
 70
     0
102
RTVSPropertyOp52
 70
     0
102
RTVSPropertyOp53
 70
     1
102
RTVSPropertyOp54
 70
     1
102
RTVSPropertyOp55
 70
     1
102
RTVSPropertyOp56
 70
     1
102
RTVSPropertyOp57
 70
     1
102
RTVSPost2010Prop28
280
     0
102
RTVSPost2010PropOp28
 70
     1
102
RTVSPost2010Prop29
280
     1
102
RTVSPost2010PropOp29
 70
     1
102
RTVSPost2010Prop30
280
     1
102
RTVSPost2010PropOp30
 70
     1
102
RTVSPost2010Prop31
280
     0
102
RTVSPost2010PropOp31
 70
     1
102
RTVSPost2010Prop32
280
     0
102
RTVSPost2010PropOp32
 70
     1
102
RTVSPost2010Prop33
280
     0
102
RTVSPost2010PropOp33
 70
     1
102
RTVSPost2010Prop34
280
     0
102
RTVSPost2010PropOp34
 70
     1
102
RTVSPost2010Prop35
280
     0
102
RTVSPost2010PropOp35
 70
     1
102
RTVSPost2010Prop36
280
     0
102
RTVSPost2010PropOp36
 70
     1
102
RTVSPost2010Prop37
 90
       50
102
RTVSPost2010PropOp37
 70
     1
102
RTVSPost2010Prop38
140
0.0
102
RTVSPost2010PropOp38
 70
     1
102
RTVSPost2010Prop39
140
1.0
102
RTVSPost2010PropOp39
 70
     1
102
RTVSPost2010Prop40
 90
        0
102
RTVSPost2010PropOp40
 70
     1
102
RTVSPost2010Prop41ColorIndex
 90
       18
102
RTVSPost2010Prop41ColorRGB
 90
        0
102
RTVSPost2010PropOp41
 70
     1
102
RTVSPost2010Prop42
 90
       50
102
RTVSPost2010PropOp42
 70
     1
102
RTVSPost2010Prop43
 90
        3
102
RTVSPost2010PropOp43
 70
     1
102
RTVSPost2010Prop44ColorIndex
 90
        5
102
RTVSPost2010Prop44ColorRGB
 90
      255
102
RTVSPost2010PropOp44
 70
     1
102
RTVSPost2010Prop45
280
     0
102
RTVSPost2010PropOp45
 70
     1
102
RTVSPost2010Prop46
 90
       50
102
RTVSPost2010PropOp46
 70
     1
102
RTVSPost2010Prop47
 90
       50
102
RTVSPost2010PropOp47
 70
     1
102
RTVSPost2010Prop48
 90
       50
102
RTVSPost2010PropOp48
 70
     1
102
RTVSPost2010Prop49
280
     0
102
RTVSPost2010PropOp49
 70
     1
102
RTVSPost2010Prop50
 90
       50
102
RTVSPost2010PropOp50
 70
     1
102
RTVSPost2010Prop51ColorIndex
 90
      256
102
RTVSPost2010Prop51ColorRGB
 90
-16777216
102
RTVSPost2010PropOp51
 70
     0
102
RTVSPost2010Prop52
140
1.0
102
RTVSPost2010PropOp52
 70
     0
102
RTVSPost2010Prop53
 90
        2
102
RTVSPost2010PropOp53
 70
     1
102
RTVSPost2010Prop54
  1
strokes_ogs.tif
102
RTVSPost2010PropOp54
 70
     1
102
RTVSPost2010Prop55
280
     0
102
RTVSPost2010PropOp55
 70
     1
102
RTVSPost2010Prop56
140
1.0
102
RTVSPost2010PropOp56
 70
     1
102
RTVSPost2010Prop57
140
1.0
102
RTVSPost2010PropOp57
 70
     1
  0
XRECORD
  5
524
102
{ACAD_REACTORS
330
523
102
}
330
523
100
AcDbXrecord
280
     1
102
RTVSPropertyOp0
 70
     0
102
RTVSPropertyOp1
 70
     0
102
RTVSPropertyOp2
 70
     0
102
RTVSPropertyOp3
 70
     0
102
RTVSPropertyOp4
 70
     0
102
RTVSPropertyOp5
 70
     0
102
RTVSPropertyOp6
 70
     0
102
RTVSPropertyOp7
 70
     0
102
RTVSPropertyOp8
 70
     0
102
RTVSPropertyOp9
 70
     0
102
RTVSPropertyOp10
 70
     0
102
RTVSPropertyOp11
 70
     0
102
RTVSPropertyOp12
 70
     0
102
RTVSPropertyOp13
 70
     0
102
RTVSPropertyOp14
 70
     0
102
RTVSPropertyOp15
 70
     0
102
RTVSPropertyOp16
 70
     0
102
RTVSPropertyOp17
 70
     0
102
RTVSPropertyOp18
 70
     0
102
RTVSPropertyOp19
 70
     0
102
RTVSPropertyOp20
 70
     0
102
RTVSPropertyOp21
 70
     0
102
RTVSPropertyOp22
 70
     0
102
RTVSPropertyOp23
 70
     0
102
RTVSPropertyOp24
 70
     0
102
RTVSPropertyOp25
 70
     0
102
RTVSPropertyOp26
 70
     0
102
RTVSPropertyOp27
 70
     0
102
RTVSPropertyOp28
 70
     1
102
RTVSPropertyOp29
 70
     1
102
RTVSPropertyOp30
 70
     1
102
RTVSPropertyOp31
 70
     1
102
RTVSPropertyOp32
 70
     1
102
RTVSPropertyOp33
 70
     1
102
RTVSPropertyOp34
 70
     1
102
RTVSPropertyOp35
 70
     1
102
RTVSPropertyOp36
 70
     1
102
RTVSPropertyOp37
 70
     1
102
RTVSPropertyOp38
 70
     1
102
RTVSPropertyOp39
 70
     1
102
RTVSPropertyOp40
 70
     1
102
RTVSPropertyOp41
 70
     1
102
RTVSPropertyOp42
 70
     1
102
RTVSPropertyOp43
 70
     1
102
RTVSPropertyOp44
 70
     1
102
RTVSPropertyOp45
 70
     1
102
RTVSPropertyOp46
 70
     1
102
RTVSPropertyOp47
 70
     1
102
RTVSPropertyOp48
 70
     1
102
RTVSPropertyOp49
 70
     1
102
RTVSPropertyOp50
 70
     1
102
RTVSPropertyOp51
 70
     0
102
RTVSPropertyOp52
 70
     0
102
RTVSPropertyOp53
 70
     1
102
RTVSPropertyOp54
 70
     1
102
RTVSPropertyOp55
 70
     1
102
RTVSPropertyOp56
 70
     1
102
RTVSPropertyOp57
 70
     1
102
RTVSPost2010Prop28
280
     0
102
RTVSPost2010PropOp28
 70
     1
102
RTVSPost2010Prop29
280
     1
102
RTVSPost2010PropOp29
 70
     1
102
RTVSPost2010Prop30
280
     1
102
RTVSPost2010PropOp30
 70
     1
102
RTVSPost2010Prop31
280
     0
102
RTVSPost2010PropOp31
 70
     1
102
RTVSPost2010Prop32
280
     0
102
RTVSPost2010PropOp32
 70
     1
102
RTVSPost2010Prop33
280
     0
102
RTVSPost2010PropOp33
 70
     1
102
RTVSPost2010Prop34
280
     0
102
RTVSPost2010PropOp34
 70
     1
102
RTVSPost2010Prop35
280
     0
102
RTVSPost2010PropOp35
 70
     1
102
RTVSPost2010Prop36
280
     0
102
RTVSPost2010PropOp36
 70
     1
102
RTVSPost2010Prop37
 90
       50
102
RTVSPost2010PropOp37
 70
     1
102
RTVSPost2010Prop38
140
0.0
102
RTVSPost2010PropOp38
 70
     1
102
RTVSPost2010Prop39
140
1.0
102
RTVSPost2010PropOp39
 70
     1
102
RTVSPost2010Prop40
 90
        0
102
RTVSPost2010PropOp40
 70
     1
102
RTVSPost2010Prop41ColorIndex
 90
       18
102
RTVSPost2010Prop41ColorRGB
 90
        0
102
RTVSPost2010PropOp41
 70
     1
102
RTVSPost2010Prop42
 90
       50
102
RTVSPost2010PropOp42
 70
     1
102
RTVSPost2010Prop43
 90
        3
102
RTVSPost2010PropOp43
 70
     1
102
RTVSPost2010Prop44ColorIndex
 90
        5
102
RTVSPost2010Prop44ColorRGB
 90
      255
102
RTVSPost2010PropOp44
 70
     1
102
RTVSPost2010Prop45
280
     0
102
RTVSPost2010PropOp45
 70
     1
102
RTVSPost2010Prop46
 90
       50
102
RTVSPost2010PropOp46
 70
     1
102
RTVSPost2010Prop47
 90
       50
102
RTVSPost2010PropOp47
 70
     1
102
RTVSPost2010Prop48
 90
       50
102
RTVSPost2010PropOp48
 70
     1
102
RTVSPost2010Prop49
280
     0
102
RTVSPost2010PropOp49
 70
     1
102
RTVSPost2010Prop50
 90
       50
102
RTVSPost2010PropOp50
 70
     1
102
RTVSPost2010Prop51ColorIndex
 90
      256
102
RTVSPost2010Prop51ColorRGB
 90
-16777216
102
RTVSPost2010PropOp51
 70
     0
102
RTVSPost2010Prop52
140
1.0
102
RTVSPost2010PropOp52
 70
     0
102
RTVSPost2010Prop53
 90
        2
102
RTVSPost2010PropOp53
 70
     1
102
RTVSPost2010Prop54
  1
strokes_ogs.tif
102
RTVSPost2010PropOp54
 70
     1
102
RTVSPost2010Prop55
280
     0
102
RTVSPost2010PropOp55
 70
     1
102
RTVSPost2010Prop56
140
1.0
102
RTVSPost2010PropOp56
 70
     1
102
RTVSPost2010Prop57
140
1.0
102
RTVSPost2010PropOp57
 70
     1
  0
XRECORD
  5
51C
102
{ACAD_REACTORS
330
51B
102
}
330
51B
100
AcDbXrecord
280
     1
102
RTVSPropertyOp0
 70
     1
102
RTVSPropertyOp1
 70
     1
102
RTVSPropertyOp2
 70
     1
102
RTVSPropertyOp3
 70
     1
102
RTVSPropertyOp4
 70
     1
102
RTVSPropertyOp5
 70
     1
102
RTVSPropertyOp6
 70
     1
102
RTVSPropertyOp7
 70
     1
102
RTVSPropertyOp8
 70
     1
102
RTVSPropertyOp9
 70
     1
102
RTVSPropertyOp10
 70
     1
102
RTVSPropertyOp11
 70
     1
102
RTVSPropertyOp12
 70
     1
102
RTVSPropertyOp13
 70
     1
102
RTVSPropertyOp14
 70
     1
102
RTVSPropertyOp15
 70
     1
102
RTVSPropertyOp16
 70
     1
102
RTVSPropertyOp17
 70
     1
102
RTVSPropertyOp18
 70
     1
102
RTVSPropertyOp19
 70
     1
102
RTVSPropertyOp20
 70
     1
102
RTVSPropertyOp21
 70
     1
102
RTVSPropertyOp22
 70
     1
102
RTVSPropertyOp23
 70
     1
102
RTVSPropertyOp24
 70
     1
102
RTVSPropertyOp25
 70
     1
102
RTVSPropertyOp26
 70
     1
102
RTVSPropertyOp27
 70
     1
102
RTVSPropertyOp28
 70
     1
102
RTVSPropertyOp29
 70
     1
102
RTVSPropertyOp30
 70
     1
102
RTVSPropertyOp31
 70
     1
102
RTVSPropertyOp32
 70
     1
102
RTVSPropertyOp33
 70
     1
102
RTVSPropertyOp34
 70
     1
102
RTVSPropertyOp35
 70
     1
102
RTVSPropertyOp36
 70
     1
102
RTVSPropertyOp37
 70
     1
102
RTVSPropertyOp38
 70
     1
102
RTVSPropertyOp39
 70
     1
102
RTVSPropertyOp40
 70
     1
102
RTVSPropertyOp41
 70
     1
102
RTVSPropertyOp42
 70
     1
102
RTVSPropertyOp43
 70
     1
102
RTVSPropertyOp44
 70
     1
102
RTVSPropertyOp45
 70
     1
102
RTVSPropertyOp46
 70
     1
102
RTVSPropertyOp47
 70
     1
102
RTVSPropertyOp48
 70
     1
102
RTVSPropertyOp49
 70
     1
102
RTVSPropertyOp50
 70
     1
102
RTVSPropertyOp51
 70
     0
102
RTVSPropertyOp52
 70
     0
102
RTVSPropertyOp53
 70
     1
102
RTVSPropertyOp54
 70
     1
102
RTVSPropertyOp55
 70
     1
102
RTVSPropertyOp56
 70
     1
102
RTVSPropertyOp57
 70
     1
102
RTVSPost2010Prop28
280
     0
102
RTVSPost2010PropOp28
 70
     1
102
RTVSPost2010Prop29
280
     1
102
RTVSPost2010PropOp29
 70
     1
102
RTVSPost2010Prop30
280
     1
102
RTVSPost2010PropOp30
 70
     1
102
RTVSPost2010Prop31
280
     0
102
RTVSPost2010PropOp31
 70
     1
102
RTVSPost2010Prop32
280
     0
102
RTVSPost2010PropOp32
 70
     1
102
RTVSPost2010Prop33
280
     0
102
RTVSPost2010PropOp33
 70
     1
102
RTVSPost2010Prop34
280
     0
102
RTVSPost2010PropOp34
 70
     1
102
RTVSPost2010Prop35
280
     0
102
RTVSPost2010PropOp35
 70
     1
102
RTVSPost2010Prop36
280
     0
102
RTVSPost2010PropOp36
 70
     1
102
RTVSPost2010Prop37
 90
       50
102
RTVSPost2010PropOp37
 70
     1
102
RTVSPost2010Prop38
140
0.0
102
RTVSPost2010PropOp38
 70
     1
102
RTVSPost2010Prop39
140
1.0
102
RTVSPost2010PropOp39
 70
     1
102
RTVSPost2010Prop40
 90
        0
102
RTVSPost2010PropOp40
 70
     1
102
RTVSPost2010Prop41ColorIndex
 90
       18
102
RTVSPost2010Prop41ColorRGB
 90
        0
102
RTVSPost2010PropOp41
 70
     1
102
RTVSPost2010Prop42
 90
       50
102
RTVSPost2010PropOp42
 70
     1
102
RTVSPost2010Prop43
 90
        3
102
RTVSPost2010PropOp43
 70
     1
102
RTVSPost2010Prop44ColorIndex
 90
        5
102
RTVSPost2010Prop44ColorRGB
 90
      255
102
RTVSPost2010PropOp44
 70
     1
102
RTVSPost2010Prop45
280
     0
102
RTVSPost2010PropOp45
 70
     1
102
RTVSPost2010Prop46
 90
       50
102
RTVSPost2010PropOp46
 70
     1
102
RTVSPost2010Prop47
 90
       50
102
RTVSPost2010PropOp47
 70
     1
102
RTVSPost2010Prop48
 90
       50
102
RTVSPost2010PropOp48
 70
     1
102
RTVSPost2010Prop49
280
     0
102
RTVSPost2010PropOp49
 70
     1
102
RTVSPost2010Prop50
 90
       50
102
RTVSPost2010PropOp50
 70
     1
102
RTVSPost2010Prop51ColorIndex
 90
      256
102
RTVSPost2010Prop51ColorRGB
 90
-16777216
102
RTVSPost2010PropOp51
 70
     0
102
RTVSPost2010Prop52
140
1.0
102
RTVSPost2010PropOp52
 70
     0
102
RTVSPost2010Prop53
 90
        2
102
RTVSPost2010PropOp53
 70
     1
102
RTVSPost2010Prop54
  1
strokes_ogs.tif
102
RTVSPost2010PropOp54
 70
     1
102
RTVSPost2010Prop55
280
     0
102
RTVSPost2010PropOp55
 70
     1
102
RTVSPost2010Prop56
140
1.0
102
RTVSPost2010PropOp56
 70
     1
102
RTVSPost2010Prop57
140
1.0
102
RTVSPost2010PropOp57
 70
     1
  0
XRECORD
  5
500
102
{ACAD_REACTORS
330
4FF
102
}
330
4FF
100
AcDbXrecord
280
     1
102
RTVSPropertyOp0
 70
     1
102
RTVSPropertyOp1
 70
     1
102
RTVSPropertyOp2
 70
     1
102
RTVSPropertyOp3
 70
     1
102
RTVSPropertyOp4
 70
     1
102
RTVSPropertyOp5
 70
     1
102
RTVSPropertyOp6
 70
     1
102
RTVSPropertyOp7
 70
     1
102
RTVSPropertyOp8
 70
     1
102
RTVSPropertyOp9
 70
     1
102
RTVSPropertyOp10
 70
     1
102
RTVSPropertyOp11
 70
     1
102
RTVSPropertyOp12
 70
     1
102
RTVSPropertyOp13
 70
     1
102
RTVSPropertyOp14
 70
     1
102
RTVSPropertyOp15
 70
     1
102
RTVSPropertyOp16
 70
     1
102
RTVSPropertyOp17
 70
     1
102
RTVSPropertyOp18
 70
     1
102
RTVSPropertyOp19
 70
     1
102
RTVSPropertyOp20
 70
     1
102
RTVSPropertyOp21
 70
     1
102
RTVSPropertyOp22
 70
     1
102
RTVSPropertyOp23
 70
     1
102
RTVSPropertyOp24
 70
     1
102
RTVSPropertyOp25
 70
     1
102
RTVSPropertyOp26
 70
     1
102
RTVSPropertyOp27
 70
     1
102
RTVSPropertyOp28
 70
     1
102
RTVSPropertyOp29
 70
     1
102
RTVSPropertyOp30
 70
     1
102
RTVSPropertyOp31
 70
     1
102
RTVSPropertyOp32
 70
     1
102
RTVSPropertyOp33
 70
     1
102
RTVSPropertyOp34
 70
     1
102
RTVSPropertyOp35
 70
     1
102
RTVSPropertyOp36
 70
     1
102
RTVSPropertyOp37
 70
     1
102
RTVSPropertyOp38
 70
     1
102
RTVSPropertyOp39
 70
     1
102
RTVSPropertyOp40
 70
     1
102
RTVSPropertyOp41
 70
     1
102
RTVSPropertyOp42
 70
     1
102
RTVSPropertyOp43
 70
     1
102
RTVSPropertyOp44
 70
     1
102
RTVSPropertyOp45
 70
     1
102
RTVSPropertyOp46
 70
     1
102
RTVSPropertyOp47
 70
     1
102
RTVSPropertyOp48
 70
     1
102
RTVSPropertyOp49
 70
     1
102
RTVSPropertyOp50
 70
     1
102
RTVSPropertyOp51
 70
     0
102
RTVSPropertyOp52
 70
     0
102
RTVSPropertyOp53
 70
     1
102
RTVSPropertyOp54
 70
     1
102
RTVSPropertyOp55
 70
     1
102
RTVSPropertyOp56
 70
     1
102
RTVSPropertyOp57
 70
     1
102
RTVSPost2010Prop28
280
     0
102
RTVSPost2010PropOp28
 70
     1
102
RTVSPost2010Prop29
280
     1
102
RTVSPost2010PropOp29
 70
     1
102
RTVSPost2010Prop30
280
     1
102
RTVSPost2010PropOp30
 70
     1
102
RTVSPost2010Prop31
280
     0
102
RTVSPost2010PropOp31
 70
     1
102
RTVSPost2010Prop32
280
     0
102
RTVSPost2010PropOp32
 70
     1
102
RTVSPost2010Prop33
280
     0
102
RTVSPost2010PropOp33
 70
     1
102
RTVSPost2010Prop34
280
     0
102
RTVSPost2010PropOp34
 70
     1
102
RTVSPost2010Prop35
280
     0
102
RTVSPost2010PropOp35
 70
     1
102
RTVSPost2010Prop36
280
     0
102
RTVSPost2010PropOp36
 70
     1
102
RTVSPost2010Prop37
 90
       50
102
RTVSPost2010PropOp37
 70
     1
102
RTVSPost2010Prop38
140
0.0
102
RTVSPost2010PropOp38
 70
     1
102
RTVSPost2010Prop39
140
1.0
102
RTVSPost2010PropOp39
 70
     1
102
RTVSPost2010Prop40
 90
        0
102
RTVSPost2010PropOp40
 70
     1
102
RTVSPost2010Prop41ColorIndex
 90
       18
102
RTVSPost2010Prop41ColorRGB
 90
        0
102
RTVSPost2010PropOp41
 70
     1
102
RTVSPost2010Prop42
 90
       50
102
RTVSPost2010PropOp42
 70
     1
102
RTVSPost2010Prop43
 90
        3
102
RTVSPost2010PropOp43
 70
     1
102
RTVSPost2010Prop44ColorIndex
 90
        5
102
RTVSPost2010Prop44ColorRGB
 90
      255
102
RTVSPost2010PropOp44
 70
     1
102
RTVSPost2010Prop45
280
     0
102
RTVSPost2010PropOp45
 70
     1
102
RTVSPost2010Prop46
 90
       50
102
RTVSPost2010PropOp46
 70
     1
102
RTVSPost2010Prop47
 90
       50
102
RTVSPost2010PropOp47
 70
     1
102
RTVSPost2010Prop48
 90
       50
102
RTVSPost2010PropOp48
 70
     1
102
RTVSPost2010Prop49
280
     0
102
RTVSPost2010PropOp49
 70
     1
102
RTVSPost2010Prop50
 90
       50
102
RTVSPost2010PropOp50
 70
     1
102
RTVSPost2010Prop51ColorIndex
 90
      256
102
RTVSPost2010Prop51ColorRGB
 90
-16777216
102
RTVSPost2010PropOp51
 70
     0
102
RTVSPost2010Prop52
140
1.0
102
RTVSPost2010PropOp52
 70
     0
102
RTVSPost2010Prop53
 90
        2
102
RTVSPost2010PropOp53
 70
     1
102
RTVSPost2010Prop54
  1
strokes_ogs.tif
102
RTVSPost2010PropOp54
 70
     1
102
RTVSPost2010Prop55
280
     0
102
RTVSPost2010PropOp55
 70
     1
102
RTVSPost2010Prop56
140
1.0
102
RTVSPost2010PropOp56
 70
     1
102
RTVSPost2010Prop57
140
1.0
102
RTVSPost2010PropOp57
 70
     1
  0
XRECORD
  5
502
102
{ACAD_REACTORS
330
501
102
}
330
501
100
AcDbXrecord
280
     1
102
RTVSPropertyOp0
 70
     1
102
RTVSPropertyOp1
 70
     1
102
RTVSPropertyOp2
 70
     1
102
RTVSPropertyOp3
 70
     1
102
RTVSPropertyOp4
 70
     1
102
RTVSPropertyOp5
 70
     1
102
RTVSPropertyOp6
 70
     1
102
RTVSPropertyOp7
 70
     1
102
RTVSPropertyOp8
 70
     1
102
RTVSPropertyOp9
 70
     1
102
RTVSPropertyOp10
 70
     1
102
RTVSPropertyOp11
 70
     1
102
RTVSPropertyOp12
 70
     1
102
RTVSPropertyOp13
 70
     1
102
RTVSPropertyOp14
 70
     1
102
RTVSPropertyOp15
 70
     1
102
RTVSPropertyOp16
 70
     1
102
RTVSPropertyOp17
 70
     1
102
RTVSPropertyOp18
 70
     1
102
RTVSPropertyOp19
 70
     1
102
RTVSPropertyOp20
 70
     1
102
RTVSPropertyOp21
 70
     1
102
RTVSPropertyOp22
 70
     1
102
RTVSPropertyOp23
 70
     1
102
RTVSPropertyOp24
 70
     1
102
RTVSPropertyOp25
 70
     1
102
RTVSPropertyOp26
 70
     1
102
RTVSPropertyOp27
 70
     1
102
RTVSPropertyOp28
 70
     1
102
RTVSPropertyOp29
 70
     1
102
RTVSPropertyOp30
 70
     1
102
RTVSPropertyOp31
 70
     1
102
RTVSPropertyOp32
 70
     1
102
RTVSPropertyOp33
 70
     1
102
RTVSPropertyOp34
 70
     1
102
RTVSPropertyOp35
 70
     1
102
RTVSPropertyOp36
 70
     1
102
RTVSPropertyOp37
 70
     1
102
RTVSPropertyOp38
 70
     1
102
RTVSPropertyOp39
 70
     1
102
RTVSPropertyOp40
 70
     1
102
RTVSPropertyOp41
 70
     1
102
RTVSPropertyOp42
 70
     1
102
RTVSPropertyOp43
 70
     1
102
RTVSPropertyOp44
 70
     1
102
RTVSPropertyOp45
 70
     1
102
RTVSPropertyOp46
 70
     1
102
RTVSPropertyOp47
 70
     1
102
RTVSPropertyOp48
 70
     1
102
RTVSPropertyOp49
 70
     1
102
RTVSPropertyOp50
 70
     1
102
RTVSPropertyOp51
 70
     0
102
RTVSPropertyOp52
 70
     0
102
RTVSPropertyOp53
 70
     1
102
RTVSPropertyOp54
 70
     1
102
RTVSPropertyOp55
 70
     1
102
RTVSPropertyOp56
 70
     1
102
RTVSPropertyOp57
 70
     1
102
RTVSPost2010Prop28
280
     0
102
RTVSPost2010PropOp28
 70
     1
102
RTVSPost2010Prop29
280
     1
102
RTVSPost2010PropOp29
 70
     1
102
RTVSPost2010Prop30
280
     1
102
RTVSPost2010PropOp30
 70
     1
102
RTVSPost2010Prop31
280
     0
102
RTVSPost2010PropOp31
 70
     1
102
RTVSPost2010Prop32
280
     0
102
RTVSPost2010PropOp32
 70
     1
102
RTVSPost2010Prop33
280
     0
102
RTVSPost2010PropOp33
 70
     1
102
RTVSPost2010Prop34
280
     0
102
RTVSPost2010PropOp34
 70
     1
102
RTVSPost2010Prop35
280
     0
102
RTVSPost2010PropOp35
 70
     1
102
RTVSPost2010Prop36
280
     0
102
RTVSPost2010PropOp36
 70
     1
102
RTVSPost2010Prop37
 90
       50
102
RTVSPost2010PropOp37
 70
     1
102
RTVSPost2010Prop38
140
0.0
102
RTVSPost2010PropOp38
 70
     1
102
RTVSPost2010Prop39
140
1.0
102
RTVSPost2010PropOp39
 70
     1
102
RTVSPost2010Prop40
 90
        0
102
RTVSPost2010PropOp40
 70
     1
102
RTVSPost2010Prop41ColorIndex
 90
       18
102
RTVSPost2010Prop41ColorRGB
 90
        0
102
RTVSPost2010PropOp41
 70
     1
102
RTVSPost2010Prop42
 90
       50
102
RTVSPost2010PropOp42
 70
     1
102
RTVSPost2010Prop43
 90
        3
102
RTVSPost2010PropOp43
 70
     1
102
RTVSPost2010Prop44ColorIndex
 90
        5
102
RTVSPost2010Prop44ColorRGB
 90
      255
102
RTVSPost2010PropOp44
 70
     1
102
RTVSPost2010Prop45
280
     0
102
RTVSPost2010PropOp45
 70
     1
102
RTVSPost2010Prop46
 90
       50
102
RTVSPost2010PropOp46
 70
     1
102
RTVSPost2010Prop47
 90
       50
102
RTVSPost2010PropOp47
 70
     1
102
RTVSPost2010Prop48
 90
       50
102
RTVSPost2010PropOp48
 70
     1
102
RTVSPost2010Prop49
280
     0
102
RTVSPost2010PropOp49
 70
     1
102
RTVSPost2010Prop50
 90
       50
102
RTVSPost2010PropOp50
 70
     1
102
RTVSPost2010Prop51ColorIndex
 90
      256
102
RTVSPost2010Prop51ColorRGB
 90
-16777216
102
RTVSPost2010PropOp51
 70
     0
102
RTVSPost2010Prop52
140
1.0
102
RTVSPost2010PropOp52
 70
     0
102
RTVSPost2010Prop53
 90
        2
102
RTVSPost2010PropOp53
 70
     1
102
RTVSPost2010Prop54
  1
strokes_ogs.tif
102
RTVSPost2010PropOp54
 70
     1
102
RTVSPost2010Prop55
280
     0
102
RTVSPost2010PropOp55
 70
     1
102
RTVSPost2010Prop56
140
1.0
102
RTVSPost2010PropOp56
 70
     1
102
RTVSPost2010Prop57
140
1.0
102
RTVSPost2010PropOp57
 70
     1
  0
XRECORD
  5
504
102
{ACAD_REACTORS
330
503
102
}
330
503
100
AcDbXrecord
280
     1
102
RTVSPropertyOp0
 70
     1
102
RTVSPropertyOp1
 70
     1
102
RTVSPropertyOp2
 70
     1
102
RTVSPropertyOp3
 70
     1
102
RTVSPropertyOp4
 70
     1
102
RTVSPropertyOp5
 70
     1
102
RTVSPropertyOp6
 70
     1
102
RTVSPropertyOp7
 70
     1
102
RTVSPropertyOp8
 70
     1
102
RTVSPropertyOp9
 70
     1
102
RTVSPropertyOp10
 70
     1
102
RTVSPropertyOp11
 70
     1
102
RTVSPropertyOp12
 70
     1
102
RTVSPropertyOp13
 70
     1
102
RTVSPropertyOp14
 70
     1
102
RTVSPropertyOp15
 70
     1
102
RTVSPropertyOp16
 70
     1
102
RTVSPropertyOp17
 70
     1
102
RTVSPropertyOp18
 70
     1
102
RTVSPropertyOp19
 70
     1
102
RTVSPropertyOp20
 70
     1
102
RTVSPropertyOp21
 70
     1
102
RTVSPropertyOp22
 70
     1
102
RTVSPropertyOp23
 70
     1
102
RTVSPropertyOp24
 70
     1
102
RTVSPropertyOp25
 70
     1
102
RTVSPropertyOp26
 70
     1
102
RTVSPropertyOp27
 70
     1
102
RTVSPropertyOp28
 70
     1
102
RTVSPropertyOp29
 70
     1
102
RTVSPropertyOp30
 70
     1
102
RTVSPropertyOp31
 70
     1
102
RTVSPropertyOp32
 70
     1
102
RTVSPropertyOp33
 70
     1
102
RTVSPropertyOp34
 70
     1
102
RTVSPropertyOp35
 70
     1
102
RTVSPropertyOp36
 70
     1
102
RTVSPropertyOp37
 70
     1
102
RTVSPropertyOp38
 70
     1
102
RTVSPropertyOp39
 70
     1
102
RTVSPropertyOp40
 70
     1
102
RTVSPropertyOp41
 70
     1
102
RTVSPropertyOp42
 70
     1
102
RTVSPropertyOp43
 70
     1
102
RTVSPropertyOp44
 70
     1
102
RTVSPropertyOp45
 70
     1
102
RTVSPropertyOp46
 70
     1
102
RTVSPropertyOp47
 70
     1
102
RTVSPropertyOp48
 70
     1
102
RTVSPropertyOp49
 70
     1
102
RTVSPropertyOp50
 70
     1
102
RTVSPropertyOp51
 70
     0
102
RTVSPropertyOp52
 70
     0
102
RTVSPropertyOp53
 70
     1
102
RTVSPropertyOp54
 70
     1
102
RTVSPropertyOp55
 70
     1
102
RTVSPropertyOp56
 70
     1
102
RTVSPropertyOp57
 70
     1
102
RTVSPost2010Prop28
280
     0
102
RTVSPost2010PropOp28
 70
     1
102
RTVSPost2010Prop29
280
     1
102
RTVSPost2010PropOp29
 70
     1
102
RTVSPost2010Prop30
280
     1
102
RTVSPost2010PropOp30
 70
     1
102
RTVSPost2010Prop31
280
     0
102
RTVSPost2010PropOp31
 70
     1
102
RTVSPost2010Prop32
280
     0
102
RTVSPost2010PropOp32
 70
     1
102
RTVSPost2010Prop33
280
     0
102
RTVSPost2010PropOp33
 70
     1
102
RTVSPost2010Prop34
280
     0
102
RTVSPost2010PropOp34
 70
     1
102
RTVSPost2010Prop35
280
     0
102
RTVSPost2010PropOp35
 70
     1
102
RTVSPost2010Prop36
280
     0
102
RTVSPost2010PropOp36
 70
     1
102
RTVSPost2010Prop37
 90
       50
102
RTVSPost2010PropOp37
 70
     1
102
RTVSPost2010Prop38
140
0.0
102
RTVSPost2010PropOp38
 70
     1
102
RTVSPost2010Prop39
140
1.0
102
RTVSPost2010PropOp39
 70
     1
102
RTVSPost2010Prop40
 90
        0
102
RTVSPost2010PropOp40
 70
     1
102
RTVSPost2010Prop41ColorIndex
 90
       18
102
RTVSPost2010Prop41ColorRGB
 90
        0
102
RTVSPost2010PropOp41
 70
     1
102
RTVSPost2010Prop42
 90
       50
102
RTVSPost2010PropOp42
 70
     1
102
RTVSPost2010Prop43
 90
        3
102
RTVSPost2010PropOp43
 70
     1
102
RTVSPost2010Prop44ColorIndex
 90
        5
102
RTVSPost2010Prop44ColorRGB
 90
      255
102
RTVSPost2010PropOp44
 70
     1
102
RTVSPost2010Prop45
280
     0
102
RTVSPost2010PropOp45
 70
     1
102
RTVSPost2010Prop46
 90
       50
102
RTVSPost2010PropOp46
 70
     1
102
RTVSPost2010Prop47
 90
       50
102
RTVSPost2010PropOp47
 70
     1
102
RTVSPost2010Prop48
 90
       50
102
RTVSPost2010PropOp48
 70
     1
102
RTVSPost2010Prop49
280
     0
102
RTVSPost2010PropOp49
 70
     1
102
RTVSPost2010Prop50
 90
       50
102
RTVSPost2010PropOp50
 70
     1
102
RTVSPost2010Prop51ColorIndex
 90
      256
102
RTVSPost2010Prop51ColorRGB
 90
-16777216
102
RTVSPost2010PropOp51
 70
     0
102
RTVSPost2010Prop52
140
1.0
102
RTVSPost2010PropOp52
 70
     0
102
RTVSPost2010Prop53
 90
        2
102
RTVSPost2010PropOp53
 70
     1
102
RTVSPost2010Prop54
  1
strokes_ogs.tif
102
RTVSPost2010PropOp54
 70
     1
102
RTVSPost2010Prop55
280
     0
102
RTVSPost2010PropOp55
 70
     1
102
RTVSPost2010Prop56
140
1.0
102
RTVSPost2010PropOp56
 70
     1
102
RTVSPost2010Prop57
140
1.0
102
RTVSPost2010PropOp57
 70
     1
  0
XRECORD
  5
506
102
{ACAD_REACTORS
330
505
102
}
330
505
100
AcDbXrecord
280
     1
102
RTVSPropertyOp0
 70
     1
102
RTVSPropertyOp1
 70
     1
102
RTVSPropertyOp2
 70
     1
102
RTVSPropertyOp3
 70
     1
102
RTVSPropertyOp4
 70
     1
102
RTVSPropertyOp5
 70
     1
102
RTVSPropertyOp6
 70
     1
102
RTVSPropertyOp7
 70
     1
102
RTVSPropertyOp8
 70
     1
102
RTVSPropertyOp9
 70
     1
102
RTVSPropertyOp10
 70
     1
102
RTVSPropertyOp11
 70
     1
102
RTVSPropertyOp12
 70
     1
102
RTVSPropertyOp13
 70
     1
102
RTVSPropertyOp14
 70
     1
102
RTVSPropertyOp15
 70
     1
102
RTVSPropertyOp16
 70
     1
102
RTVSPropertyOp17
 70
     1
102
RTVSPropertyOp18
 70
     1
102
RTVSPropertyOp19
 70
     1
102
RTVSPropertyOp20
 70
     1
102
RTVSPropertyOp21
 70
     1
102
RTVSPropertyOp22
 70
     1
102
RTVSPropertyOp23
 70
     1
102
RTVSPropertyOp24
 70
     1
102
RTVSPropertyOp25
 70
     1
102
RTVSPropertyOp26
 70
     1
102
RTVSPropertyOp27
 70
     1
102
RTVSPropertyOp28
 70
     1
102
RTVSPropertyOp29
 70
     1
102
RTVSPropertyOp30
 70
     1
102
RTVSPropertyOp31
 70
     1
102
RTVSPropertyOp32
 70
     1
102
RTVSPropertyOp33
 70
     1
102
RTVSPropertyOp34
 70
     1
102
RTVSPropertyOp35
 70
     1
102
RTVSPropertyOp36
 70
     1
102
RTVSPropertyOp37
 70
     1
102
RTVSPropertyOp38
 70
     1
102
RTVSPropertyOp39
 70
     1
102
RTVSPropertyOp40
 70
     1
102
RTVSPropertyOp41
 70
     1
102
RTVSPropertyOp42
 70
     1
102
RTVSPropertyOp43
 70
     1
102
RTVSPropertyOp44
 70
     1
102
RTVSPropertyOp45
 70
     1
102
RTVSPropertyOp46
 70
     1
102
RTVSPropertyOp47
 70
     1
102
RTVSPropertyOp48
 70
     1
102
RTVSPropertyOp49
 70
     1
102
RTVSPropertyOp50
 70
     1
102
RTVSPropertyOp51
 70
     0
102
RTVSPropertyOp52
 70
     0
102
RTVSPropertyOp53
 70
     1
102
RTVSPropertyOp54
 70
     1
102
RTVSPropertyOp55
 70
     1
102
RTVSPropertyOp56
 70
     1
102
RTVSPropertyOp57
 70
     1
102
RTVSPost2010Prop28
280
     0
102
RTVSPost2010PropOp28
 70
     1
102
RTVSPost2010Prop29
280
     1
102
RTVSPost2010PropOp29
 70
     1
102
RTVSPost2010Prop30
280
     1
102
RTVSPost2010PropOp30
 70
     1
102
RTVSPost2010Prop31
280
     0
102
RTVSPost2010PropOp31
 70
     1
102
RTVSPost2010Prop32
280
     0
102
RTVSPost2010PropOp32
 70
     1
102
RTVSPost2010Prop33
280
     0
102
RTVSPost2010PropOp33
 70
     1
102
RTVSPost2010Prop34
280
     0
102
RTVSPost2010PropOp34
 70
     1
102
RTVSPost2010Prop35
280
     0
102
RTVSPost2010PropOp35
 70
     1
102
RTVSPost2010Prop36
280
     0
102
RTVSPost2010PropOp36
 70
     1
102
RTVSPost2010Prop37
 90
       50
102
RTVSPost2010PropOp37
 70
     1
102
RTVSPost2010Prop38
140
0.0
102
RTVSPost2010PropOp38
 70
     1
102
RTVSPost2010Prop39
140
1.0
102
RTVSPost2010PropOp39
 70
     1
102
RTVSPost2010Prop40
 90
        0
102
RTVSPost2010PropOp40
 70
     1
102
RTVSPost2010Prop41ColorIndex
 90
       18
102
RTVSPost2010Prop41ColorRGB
 90
        0
102
RTVSPost2010PropOp41
 70
     1
102
RTVSPost2010Prop42
 90
       50
102
RTVSPost2010PropOp42
 70
     1
102
RTVSPost2010Prop43
 90
        3
102
RTVSPost2010PropOp43
 70
     1
102
RTVSPost2010Prop44ColorIndex
 90
        5
102
RTVSPost2010Prop44ColorRGB
 90
      255
102
RTVSPost2010PropOp44
 70
     1
102
RTVSPost2010Prop45
280
     0
102
RTVSPost2010PropOp45
 70
     1
102
RTVSPost2010Prop46
 90
       50
102
RTVSPost2010PropOp46
 70
     1
102
RTVSPost2010Prop47
 90
       50
102
RTVSPost2010PropOp47
 70
     1
102
RTVSPost2010Prop48
 90
       50
102
RTVSPost2010PropOp48
 70
     1
102
RTVSPost2010Prop49
280
     0
102
RTVSPost2010PropOp49
 70
     1
102
RTVSPost2010Prop50
 90
       50
102
RTVSPost2010PropOp50
 70
     1
102
RTVSPost2010Prop51ColorIndex
 90
      256
102
RTVSPost2010Prop51ColorRGB
 90
-16777216
102
RTVSPost2010PropOp51
 70
     0
102
RTVSPost2010Prop52
140
1.0
102
RTVSPost2010PropOp52
 70
     0
102
RTVSPost2010Prop53
 90
        2
102
RTVSPost2010PropOp53
 70
     1
102
RTVSPost2010Prop54
  1
strokes_ogs.tif
102
RTVSPost2010PropOp54
 70
     1
102
RTVSPost2010Prop55
280
     0
102
RTVSPost2010PropOp55
 70
     1
102
RTVSPost2010Prop56
140
1.0
102
RTVSPost2010PropOp56
 70
     1
102
RTVSPost2010Prop57
140
1.0
102
RTVSPost2010PropOp57
 70
     1
  0
XRECORD
  5
50C
102
{ACAD_REACTORS
330
50B
102
}
330
50B
100
AcDbXrecord
280
     1
102
RTVSPropertyOp0
 70
     1
102
RTVSPropertyOp1
 70
     1
102
RTVSPropertyOp2
 70
     1
102
RTVSPropertyOp3
 70
     1
102
RTVSPropertyOp4
 70
     1
102
RTVSPropertyOp5
 70
     1
102
RTVSPropertyOp6
 70
     1
102
RTVSPropertyOp7
 70
     1
102
RTVSPropertyOp8
 70
     1
102
RTVSPropertyOp9
 70
     1
102
RTVSPropertyOp10
 70
     1
102
RTVSPropertyOp11
 70
     1
102
RTVSPropertyOp12
 70
     1
102
RTVSPropertyOp13
 70
     1
102
RTVSPropertyOp14
 70
     1
102
RTVSPropertyOp15
 70
     1
102
RTVSPropertyOp16
 70
     1
102
RTVSPropertyOp17
 70
     1
102
RTVSPropertyOp18
 70
     1
102
RTVSPropertyOp19
 70
     1
102
RTVSPropertyOp20
 70
     1
102
RTVSPropertyOp21
 70
     1
102
RTVSPropertyOp22
 70
     1
102
RTVSPropertyOp23
 70
     1
102
RTVSPropertyOp24
 70
     1
102
RTVSPropertyOp25
 70
     1
102
RTVSPropertyOp26
 70
     1
102
RTVSPropertyOp27
 70
     1
102
RTVSPropertyOp28
 70
     1
102
RTVSPropertyOp29
 70
     1
102
RTVSPropertyOp30
 70
     1
102
RTVSPropertyOp31
 70
     1
102
RTVSPropertyOp32
 70
     1
102
RTVSPropertyOp33
 70
     1
102
RTVSPropertyOp34
 70
     1
102
RTVSPropertyOp35
 70
     1
102
RTVSPropertyOp36
 70
     1
102
RTVSPropertyOp37
 70
     1
102
RTVSPropertyOp38
 70
     1
102
RTVSPropertyOp39
 70
     1
102
RTVSPropertyOp40
 70
     1
102
RTVSPropertyOp41
 70
     1
102
RTVSPropertyOp42
 70
     1
102
RTVSPropertyOp43
 70
     1
102
RTVSPropertyOp44
 70
     1
102
RTVSPropertyOp45
 70
     1
102
RTVSPropertyOp46
 70
     1
102
RTVSPropertyOp47
 70
     1
102
RTVSPropertyOp48
 70
     1
102
RTVSPropertyOp49
 70
     1
102
RTVSPropertyOp50
 70
     1
102
RTVSPropertyOp51
 70
     0
102
RTVSPropertyOp52
 70
     0
102
RTVSPropertyOp53
 70
     1
102
RTVSPropertyOp54
 70
     1
102
RTVSPropertyOp55
 70
     1
102
RTVSPropertyOp56
 70
     1
102
RTVSPropertyOp57
 70
     1
102
RTVSPost2010Prop28
280
     0
102
RTVSPost2010PropOp28
 70
     1
102
RTVSPost2010Prop29
280
     1
102
RTVSPost2010PropOp29
 70
     1
102
RTVSPost2010Prop30
280
     1
102
RTVSPost2010PropOp30
 70
     1
102
RTVSPost2010Prop31
280
     0
102
RTVSPost2010PropOp31
 70
     1
102
RTVSPost2010Prop32
280
     0
102
RTVSPost2010PropOp32
 70
     1
102
RTVSPost2010Prop33
280
     0
102
RTVSPost2010PropOp33
 70
     1
102
RTVSPost2010Prop34
280
     0
102
RTVSPost2010PropOp34
 70
     1
102
RTVSPost2010Prop35
280
     0
102
RTVSPost2010PropOp35
 70
     1
102
RTVSPost2010Prop36
280
     0
102
RTVSPost2010PropOp36
 70
     1
102
RTVSPost2010Prop37
 90
       50
102
RTVSPost2010PropOp37
 70
     1
102
RTVSPost2010Prop38
140
0.0
102
RTVSPost2010PropOp38
 70
     1
102
RTVSPost2010Prop39
140
1.0
102
RTVSPost2010PropOp39
 70
     1
102
RTVSPost2010Prop40
 90
        0
102
RTVSPost2010PropOp40
 70
     1
102
RTVSPost2010Prop41ColorIndex
 90
       18
102
RTVSPost2010Prop41ColorRGB
 90
        0
102
RTVSPost2010PropOp41
 70
     1
102
RTVSPost2010Prop42
 90
       50
102
RTVSPost2010PropOp42
 70
     1
102
RTVSPost2010Prop43
 90
        3
102
RTVSPost2010PropOp43
 70
     1
102
RTVSPost2010Prop44ColorIndex
 90
        5
102
RTVSPost2010Prop44ColorRGB
 90
      255
102
RTVSPost2010PropOp44
 70
     1
102
RTVSPost2010Prop45
280
     0
102
RTVSPost2010PropOp45
 70
     1
102
RTVSPost2010Prop46
 90
       50
102
RTVSPost2010PropOp46
 70
     1
102
RTVSPost2010Prop47
 90
       50
102
RTVSPost2010PropOp47
 70
     1
102
RTVSPost2010Prop48
 90
       50
102
RTVSPost2010PropOp48
 70
     1
102
RTVSPost2010Prop49
280
     0
102
RTVSPost2010PropOp49
 70
     1
102
RTVSPost2010Prop50
 90
       50
102
RTVSPost2010PropOp50
 70
     1
102
RTVSPost2010Prop51ColorIndex
 90
      256
102
RTVSPost2010Prop51ColorRGB
 90
-16777216
102
RTVSPost2010PropOp51
 70
     0
102
RTVSPost2010Prop52
140
1.0
102
RTVSPost2010PropOp52
 70
     0
102
RTVSPost2010Prop53
 90
        2
102
RTVSPost2010PropOp53
 70
     1
102
RTVSPost2010Prop54
  1
strokes_ogs.tif
102
RTVSPost2010PropOp54
 70
     1
102
RTVSPost2010Prop55
280
     0
102
RTVSPost2010PropOp55
 70
     1
102
RTVSPost2010Prop56
140
1.0
102
RTVSPost2010PropOp56
 70
     1
102
RTVSPost2010Prop57
140
1.0
102
RTVSPost2010PropOp57
 70
     1
  0
XRECORD
  5
520
102
{ACAD_REACTORS
330
51F
102
}
330
51F
100
AcDbXrecord
280
     1
102
RTVSPropertyOp0
 70
     0
102
RTVSPropertyOp1
 70
     0
102
RTVSPropertyOp2
 70
     0
102
RTVSPropertyOp3
 70
     0
102
RTVSPropertyOp4
 70
     0
102
RTVSPropertyOp5
 70
     0
102
RTVSPropertyOp6
 70
     0
102
RTVSPropertyOp7
 70
     0
102
RTVSPropertyOp8
 70
     0
102
RTVSPropertyOp9
 70
     0
102
RTVSPropertyOp10
 70
     0
102
RTVSPropertyOp11
 70
     0
102
RTVSPropertyOp12
 70
     0
102
RTVSPropertyOp13
 70
     0
102
RTVSPropertyOp14
 70
     0
102
RTVSPropertyOp15
 70
     0
102
RTVSPropertyOp16
 70
     0
102
RTVSPropertyOp17
 70
     0
102
RTVSPropertyOp18
 70
     0
102
RTVSPropertyOp19
 70
     0
102
RTVSPropertyOp20
 70
     0
102
RTVSPropertyOp21
 70
     0
102
RTVSPropertyOp22
 70
     0
102
RTVSPropertyOp23
 70
     0
102
RTVSPropertyOp24
 70
     0
102
RTVSPropertyOp25
 70
     0
102
RTVSPropertyOp26
 70
     0
102
RTVSPropertyOp27
 70
     0
102
RTVSPropertyOp28
 70
     1
102
RTVSPropertyOp29
 70
     1
102
RTVSPropertyOp30
 70
     1
102
RTVSPropertyOp31
 70
     1
102
RTVSPropertyOp32
 70
     1
102
RTVSPropertyOp33
 70
     1
102
RTVSPropertyOp34
 70
     1
102
RTVSPropertyOp35
 70
     1
102
RTVSPropertyOp36
 70
     1
102
RTVSPropertyOp37
 70
     1
102
RTVSPropertyOp38
 70
     1
102
RTVSPropertyOp39
 70
     1
102
RTVSPropertyOp40
 70
     1
102
RTVSPropertyOp41
 70
     1
102
RTVSPropertyOp42
 70
     1
102
RTVSPropertyOp43
 70
     1
102
RTVSPropertyOp44
 70
     1
102
RTVSPropertyOp45
 70
     1
102
RTVSPropertyOp46
 70
     1
102
RTVSPropertyOp47
 70
     1
102
RTVSPropertyOp48
 70
     1
102
RTVSPropertyOp49
 70
     1
102
RTVSPropertyOp50
 70
     1
102
RTVSPropertyOp51
 70
     0
102
RTVSPropertyOp52
 70
     0
102
RTVSPropertyOp53
 70
     1
102
RTVSPropertyOp54
 70
     1
102
RTVSPropertyOp55
 70
     1
102
RTVSPropertyOp56
 70
     1
102
RTVSPropertyOp57
 70
     1
102
RTVSPost2010Prop28
280
     0
102
RTVSPost2010PropOp28
 70
     1
102
RTVSPost2010Prop29
280
     1
102
RTVSPost2010PropOp29
 70
     1
102
RTVSPost2010Prop30
280
     1
102
RTVSPost2010PropOp30
 70
     1
102
RTVSPost2010Prop31
280
     0
102
RTVSPost2010PropOp31
 70
     1
102
RTVSPost2010Prop32
280
     0
102
RTVSPost2010PropOp32
 70
     1
102
RTVSPost2010Prop33
280
     0
102
RTVSPost2010PropOp33
 70
     1
102
RTVSPost2010Prop34
280
     0
102
RTVSPost2010PropOp34
 70
     1
102
RTVSPost2010Prop35
280
     0
102
RTVSPost2010PropOp35
 70
     1
102
RTVSPost2010Prop36
280
     0
102
RTVSPost2010PropOp36
 70
     1
102
RTVSPost2010Prop37
 90
       50
102
RTVSPost2010PropOp37
 70
     1
102
RTVSPost2010Prop38
140
0.0
102
RTVSPost2010PropOp38
 70
     1
102
RTVSPost2010Prop39
140
1.0
102
RTVSPost2010PropOp39
 70
     1
102
RTVSPost2010Prop40
 90
        0
102
RTVSPost2010PropOp40
 70
     1
102
RTVSPost2010Prop41ColorIndex
 90
       18
102
RTVSPost2010Prop41ColorRGB
 90
        0
102
RTVSPost2010PropOp41
 70
     1
102
RTVSPost2010Prop42
 90
       50
102
RTVSPost2010PropOp42
 70
     1
102
RTVSPost2010Prop43
 90
        3
102
RTVSPost2010PropOp43
 70
     1
102
RTVSPost2010Prop44ColorIndex
 90
        5
102
RTVSPost2010Prop44ColorRGB
 90
      255
102
RTVSPost2010PropOp44
 70
     1
102
RTVSPost2010Prop45
280
     0
102
RTVSPost2010PropOp45
 70
     1
102
RTVSPost2010Prop46
 90
       50
102
RTVSPost2010PropOp46
 70
     1
102
RTVSPost2010Prop47
 90
       50
102
RTVSPost2010PropOp47
 70
     1
102
RTVSPost2010Prop48
 90
       50
102
RTVSPost2010PropOp48
 70
     1
102
RTVSPost2010Prop49
280
     0
102
RTVSPost2010PropOp49
 70
     1
102
RTVSPost2010Prop50
 90
       50
102
RTVSPost2010PropOp50
 70
     1
102
RTVSPost2010Prop51ColorIndex
 90
      256
102
RTVSPost2010Prop51ColorRGB
 90
-16777216
102
RTVSPost2010PropOp51
 70
     0
102
RTVSPost2010Prop52
140
1.0
102
RTVSPost2010PropOp52
 70
     0
102
RTVSPost2010Prop53
 90
        2
102
RTVSPost2010PropOp53
 70
     1
102
RTVSPost2010Prop54
  1
strokes_ogs.tif
102
RTVSPost2010PropOp54
 70
     1
102
RTVSPost2010Prop55
280
     0
102
RTVSPost2010PropOp55
 70
     1
102
RTVSPost2010Prop56
140
1.0
102
RTVSPost2010PropOp56
 70
     1
102
RTVSPost2010Prop57
140
1.0
102
RTVSPost2010PropOp57
 70
     1
  0
XRECORD
  5
51A
102
{ACAD_REACTORS
330
519
102
}
330
519
100
AcDbXrecord
280
     1
102
RTVSPropertyOp0
 70
     1
102
RTVSPropertyOp1
 70
     1
102
RTVSPropertyOp2
 70
     1
102
RTVSPropertyOp3
 70
     1
102
RTVSPropertyOp4
 70
     1
102
RTVSPropertyOp5
 70
     1
102
RTVSPropertyOp6
 70
     1
102
RTVSPropertyOp7
 70
     1
102
RTVSPropertyOp8
 70
     1
102
RTVSPropertyOp9
 70
     1
102
RTVSPropertyOp10
 70
     1
102
RTVSPropertyOp11
 70
     1
102
RTVSPropertyOp12
 70
     1
102
RTVSPropertyOp13
 70
     1
102
RTVSPropertyOp14
 70
     1
102
RTVSPropertyOp15
 70
     1
102
RTVSPropertyOp16
 70
     1
102
RTVSPropertyOp17
 70
     1
102
RTVSPropertyOp18
 70
     1
102
RTVSPropertyOp19
 70
     1
102
RTVSPropertyOp20
 70
     1
102
RTVSPropertyOp21
 70
     1
102
RTVSPropertyOp22
 70
     1
102
RTVSPropertyOp23
 70
     1
102
RTVSPropertyOp24
 70
     1
102
RTVSPropertyOp25
 70
     1
102
RTVSPropertyOp26
 70
     1
102
RTVSPropertyOp27
 70
     1
102
RTVSPropertyOp28
 70
     1
102
RTVSPropertyOp29
 70
     1
102
RTVSPropertyOp30
 70
     1
102
RTVSPropertyOp31
 70
     1
102
RTVSPropertyOp32
 70
     1
102
RTVSPropertyOp33
 70
     1
102
RTVSPropertyOp34
 70
     1
102
RTVSPropertyOp35
 70
     1
102
RTVSPropertyOp36
 70
     1
102
RTVSPropertyOp37
 70
     1
102
RTVSPropertyOp38
 70
     1
102
RTVSPropertyOp39
 70
     1
102
RTVSPropertyOp40
 70
     1
102
RTVSPropertyOp41
 70
     1
102
RTVSPropertyOp42
 70
     1
102
RTVSPropertyOp43
 70
     1
102
RTVSPropertyOp44
 70
     1
102
RTVSPropertyOp45
 70
     1
102
RTVSPropertyOp46
 70
     1
102
RTVSPropertyOp47
 70
     1
102
RTVSPropertyOp48
 70
     1
102
RTVSPropertyOp49
 70
     1
102
RTVSPropertyOp50
 70
     1
102
RTVSPropertyOp51
 70
     0
102
RTVSPropertyOp52
 70
     0
102
RTVSPropertyOp53
 70
     1
102
RTVSPropertyOp54
 70
     1
102
RTVSPropertyOp55
 70
     1
102
RTVSPropertyOp56
 70
     1
102
RTVSPropertyOp57
 70
     1
102
RTVSPost2010Prop28
280
     0
102
RTVSPost2010PropOp28
 70
     1
102
RTVSPost2010Prop29
280
     1
102
RTVSPost2010PropOp29
 70
     1
102
RTVSPost2010Prop30
280
     1
102
RTVSPost2010PropOp30
 70
     1
102
RTVSPost2010Prop31
280
     0
102
RTVSPost2010PropOp31
 70
     1
102
RTVSPost2010Prop32
280
     0
102
RTVSPost2010PropOp32
 70
     1
102
RTVSPost2010Prop33
280
     0
102
RTVSPost2010PropOp33
 70
     1
102
RTVSPost2010Prop34
280
     0
102
RTVSPost2010PropOp34
 70
     1
102
RTVSPost2010Prop35
280
     0
102
RTVSPost2010PropOp35
 70
     1
102
RTVSPost2010Prop36
280
     0
102
RTVSPost2010PropOp36
 70
     1
102
RTVSPost2010Prop37
 90
       50
102
RTVSPost2010PropOp37
 70
     1
102
RTVSPost2010Prop38
140
0.0
102
RTVSPost2010PropOp38
 70
     1
102
RTVSPost2010Prop39
140
1.0
102
RTVSPost2010PropOp39
 70
     1
102
RTVSPost2010Prop40
 90
        0
102
RTVSPost2010PropOp40
 70
     1
102
RTVSPost2010Prop41ColorIndex
 90
       18
102
RTVSPost2010Prop41ColorRGB
 90
        0
102
RTVSPost2010PropOp41
 70
     1
102
RTVSPost2010Prop42
 90
       50
102
RTVSPost2010PropOp42
 70
     1
102
RTVSPost2010Prop43
 90
        3
102
RTVSPost2010PropOp43
 70
     1
102
RTVSPost2010Prop44ColorIndex
 90
        5
102
RTVSPost2010Prop44ColorRGB
 90
      255
102
RTVSPost2010PropOp44
 70
     1
102
RTVSPost2010Prop45
280
     0
102
RTVSPost2010PropOp45
 70
     1
102
RTVSPost2010Prop46
 90
       50
102
RTVSPost2010PropOp46
 70
     1
102
RTVSPost2010Prop47
 90
       50
102
RTVSPost2010PropOp47
 70
     1
102
RTVSPost2010Prop48
 90
       50
102
RTVSPost2010PropOp48
 70
     1
102
RTVSPost2010Prop49
280
     0
102
RTVSPost2010PropOp49
 70
     1
102
RTVSPost2010Prop50
 90
       50
102
RTVSPost2010PropOp50
 70
     1
102
RTVSPost2010Prop51ColorIndex
 90
      256
102
RTVSPost2010Prop51ColorRGB
 90
-16777216
102
RTVSPost2010PropOp51
 70
     0
102
RTVSPost2010Prop52
140
1.0
102
RTVSPost2010PropOp52
 70
     0
102
RTVSPost2010Prop53
 90
        2
102
RTVSPost2010PropOp53
 70
     1
102
RTVSPost2010Prop54
  1
strokes_ogs.tif
102
RTVSPost2010PropOp54
 70
     1
102
RTVSPost2010Prop55
280
     0
102
RTVSPost2010PropOp55
 70
     1
102
RTVSPost2010Prop56
140
1.0
102
RTVSPost2010PropOp56
 70
     1
102
RTVSPost2010Prop57
140
1.0
102
RTVSPost2010PropOp57
 70
     1
  0
XRECORD
  5
522
102
{ACAD_REACTORS
330
521
102
}
330
521
100
AcDbXrecord
280
     1
102
RTVSPropertyOp0
 70
     0
102
RTVSPropertyOp1
 70
     0
102
RTVSPropertyOp2
 70
     0
102
RTVSPropertyOp3
 70
     0
102
RTVSPropertyOp4
 70
     0
102
RTVSPropertyOp5
 70
     0
102
RTVSPropertyOp6
 70
     0
102
RTVSPropertyOp7
 70
     0
102
RTVSPropertyOp8
 70
     0
102
RTVSPropertyOp9
 70
     0
102
RTVSPropertyOp10
 70
     0
102
RTVSPropertyOp11
 70
     0
102
RTVSPropertyOp12
 70
     0
102
RTVSPropertyOp13
 70
     0
102
RTVSPropertyOp14
 70
     0
102
RTVSPropertyOp15
 70
     0
102
RTVSPropertyOp16
 70
     0
102
RTVSPropertyOp17
 70
     0
102
RTVSPropertyOp18
 70
     0
102
RTVSPropertyOp19
 70
     0
102
RTVSPropertyOp20
 70
     0
102
RTVSPropertyOp21
 70
     0
102
RTVSPropertyOp22
 70
     0
102
RTVSPropertyOp23
 70
     0
102
RTVSPropertyOp24
 70
     0
102
RTVSPropertyOp25
 70
     0
102
RTVSPropertyOp26
 70
     0
102
RTVSPropertyOp27
 70
     0
102
RTVSPropertyOp28
 70
     1
102
RTVSPropertyOp29
 70
     1
102
RTVSPropertyOp30
 70
     1
102
RTVSPropertyOp31
 70
     1
102
RTVSPropertyOp32
 70
     1
102
RTVSPropertyOp33
 70
     1
102
RTVSPropertyOp34
 70
     1
102
RTVSPropertyOp35
 70
     1
102
RTVSPropertyOp36
 70
     1
102
RTVSPropertyOp37
 70
     1
102
RTVSPropertyOp38
 70
     1
102
RTVSPropertyOp39
 70
     1
102
RTVSPropertyOp40
 70
     1
102
RTVSPropertyOp41
 70
     1
102
RTVSPropertyOp42
 70
     1
102
RTVSPropertyOp43
 70
     1
102
RTVSPropertyOp44
 70
     1
102
RTVSPropertyOp45
 70
     1
102
RTVSPropertyOp46
 70
     1
102
RTVSPropertyOp47
 70
     1
102
RTVSPropertyOp48
 70
     1
102
RTVSPropertyOp49
 70
     1
102
RTVSPropertyOp50
 70
     1
102
RTVSPropertyOp51
 70
     0
102
RTVSPropertyOp52
 70
     0
102
RTVSPropertyOp53
 70
     1
102
RTVSPropertyOp54
 70
     1
102
RTVSPropertyOp55
 70
     1
102
RTVSPropertyOp56
 70
     1
102
RTVSPropertyOp57
 70
     1
102
RTVSPost2010Prop28
280
     0
102
RTVSPost2010PropOp28
 70
     1
102
RTVSPost2010Prop29
280
     1
102
RTVSPost2010PropOp29
 70
     1
102
RTVSPost2010Prop30
280
     1
102
RTVSPost2010PropOp30
 70
     1
102
RTVSPost2010Prop31
280
     0
102
RTVSPost2010PropOp31
 70
     1
102
RTVSPost2010Prop32
280
     0
102
RTVSPost2010PropOp32
 70
     1
102
RTVSPost2010Prop33
280
     0
102
RTVSPost2010PropOp33
 70
     1
102
RTVSPost2010Prop34
280
     0
102
RTVSPost2010PropOp34
 70
     1
102
RTVSPost2010Prop35
280
     0
102
RTVSPost2010PropOp35
 70
     1
102
RTVSPost2010Prop36
280
     0
102
RTVSPost2010PropOp36
 70
     1
102
RTVSPost2010Prop37
 90
       50
102
RTVSPost2010PropOp37
 70
     1
102
RTVSPost2010Prop38
140
0.0
102
RTVSPost2010PropOp38
 70
     1
102
RTVSPost2010Prop39
140
1.0
102
RTVSPost2010PropOp39
 70
     1
102
RTVSPost2010Prop40
 90
        0
102
RTVSPost2010PropOp40
 70
     1
102
RTVSPost2010Prop41ColorIndex
 90
       18
102
RTVSPost2010Prop41ColorRGB
 90
        0
102
RTVSPost2010PropOp41
 70
     1
102
RTVSPost2010Prop42
 90
       50
102
RTVSPost2010PropOp42
 70
     1
102
RTVSPost2010Prop43
 90
        3
102
RTVSPost2010PropOp43
 70
     1
102
RTVSPost2010Prop44ColorIndex
 90
        5
102
RTVSPost2010Prop44ColorRGB
 90
      255
102
RTVSPost2010PropOp44
 70
     1
102
RTVSPost2010Prop45
280
     0
102
RTVSPost2010PropOp45
 70
     1
102
RTVSPost2010Prop46
 90
       50
102
RTVSPost2010PropOp46
 70
     1
102
RTVSPost2010Prop47
 90
       50
102
RTVSPost2010PropOp47
 70
     1
102
RTVSPost2010Prop48
 90
       50
102
RTVSPost2010PropOp48
 70
     1
102
RTVSPost2010Prop49
280
     0
102
RTVSPost2010PropOp49
 70
     1
102
RTVSPost2010Prop50
 90
       50
102
RTVSPost2010PropOp50
 70
     1
102
RTVSPost2010Prop51ColorIndex
 90
      256
102
RTVSPost2010Prop51ColorRGB
 90
-16777216
102
RTVSPost2010PropOp51
 70
     0
102
RTVSPost2010Prop52
140
1.0
102
RTVSPost2010PropOp52
 70
     0
102
RTVSPost2010Prop53
 90
        2
102
RTVSPost2010PropOp53
 70
     1
102
RTVSPost2010Prop54
  1
strokes_ogs.tif
102
RTVSPost2010PropOp54
 70
     1
102
RTVSPost2010Prop55
280
     0
102
RTVSPost2010PropOp55
 70
     1
102
RTVSPost2010Prop56
140
1.0
102
RTVSPost2010PropOp56
 70
     1
102
RTVSPost2010Prop57
140
1.0
102
RTVSPost2010PropOp57
 70
     1
  0
XRECORD
  5
510
102
{ACAD_REACTORS
330
50F
102
}
330
50F
100
AcDbXrecord
280
     1
102
RTVSPropertyOp0
 70
     1
102
RTVSPropertyOp1
 70
     1
102
RTVSPropertyOp2
 70
     1
102
RTVSPropertyOp3
 70
     1
102
RTVSPropertyOp4
 70
     1
102
RTVSPropertyOp5
 70
     1
102
RTVSPropertyOp6
 70
     1
102
RTVSPropertyOp7
 70
     1
102
RTVSPropertyOp8
 70
     1
102
RTVSPropertyOp9
 70
     1
102
RTVSPropertyOp10
 70
     1
102
RTVSPropertyOp11
 70
     1
102
RTVSPropertyOp12
 70
     1
102
RTVSPropertyOp13
 70
     1
102
RTVSPropertyOp14
 70
     1
102
RTVSPropertyOp15
 70
     1
102
RTVSPropertyOp16
 70
     1
102
RTVSPropertyOp17
 70
     1
102
RTVSPropertyOp18
 70
     1
102
RTVSPropertyOp19
 70
     1
102
RTVSPropertyOp20
 70
     1
102
RTVSPropertyOp21
 70
     1
102
RTVSPropertyOp22
 70
     1
102
RTVSPropertyOp23
 70
     1
102
RTVSPropertyOp24
 70
     1
102
RTVSPropertyOp25
 70
     1
102
RTVSPropertyOp26
 70
     1
102
RTVSPropertyOp27
 70
     1
102
RTVSPropertyOp28
 70
     1
102
RTVSPropertyOp29
 70
     1
102
RTVSPropertyOp30
 70
     1
102
RTVSPropertyOp31
 70
     1
102
RTVSPropertyOp32
 70
     1
102
RTVSPropertyOp33
 70
     1
102
RTVSPropertyOp34
 70
     1
102
RTVSPropertyOp35
 70
     1
102
RTVSPropertyOp36
 70
     1
102
RTVSPropertyOp37
 70
     1
102
RTVSPropertyOp38
 70
     1
102
RTVSPropertyOp39
 70
     1
102
RTVSPropertyOp40
 70
     1
102
RTVSPropertyOp41
 70
     1
102
RTVSPropertyOp42
 70
     1
102
RTVSPropertyOp43
 70
     1
102
RTVSPropertyOp44
 70
     1
102
RTVSPropertyOp45
 70
     1
102
RTVSPropertyOp46
 70
     1
102
RTVSPropertyOp47
 70
     1
102
RTVSPropertyOp48
 70
     1
102
RTVSPropertyOp49
 70
     1
102
RTVSPropertyOp50
 70
     1
102
RTVSPropertyOp51
 70
     0
102
RTVSPropertyOp52
 70
     0
102
RTVSPropertyOp53
 70
     1
102
RTVSPropertyOp54
 70
     1
102
RTVSPropertyOp55
 70
     1
102
RTVSPropertyOp56
 70
     1
102
RTVSPropertyOp57
 70
     1
102
RTVSPost2010Prop28
280
     0
102
RTVSPost2010PropOp28
 70
     1
102
RTVSPost2010Prop29
280
     1
102
RTVSPost2010PropOp29
 70
     1
102
RTVSPost2010Prop30
280
     1
102
RTVSPost2010PropOp30
 70
     1
102
RTVSPost2010Prop31
280
     0
102
RTVSPost2010PropOp31
 70
     1
102
RTVSPost2010Prop32
280
     0
102
RTVSPost2010PropOp32
 70
     1
102
RTVSPost2010Prop33
280
     0
102
RTVSPost2010PropOp33
 70
     1
102
RTVSPost2010Prop34
280
     0
102
RTVSPost2010PropOp34
 70
     1
102
RTVSPost2010Prop35
280
     0
102
RTVSPost2010PropOp35
 70
     1
102
RTVSPost2010Prop36
280
     0
102
RTVSPost2010PropOp36
 70
     1
102
RTVSPost2010Prop37
 90
       50
102
RTVSPost2010PropOp37
 70
     1
102
RTVSPost2010Prop38
140
0.0
102
RTVSPost2010PropOp38
 70
     1
102
RTVSPost2010Prop39
140
1.0
102
RTVSPost2010PropOp39
 70
     1
102
RTVSPost2010Prop40
 90
        0
102
RTVSPost2010PropOp40
 70
     1
102
RTVSPost2010Prop41ColorIndex
 90
       18
102
RTVSPost2010Prop41ColorRGB
 90
        0
102
RTVSPost2010PropOp41
 70
     1
102
RTVSPost2010Prop42
 90
       50
102
RTVSPost2010PropOp42
 70
     1
102
RTVSPost2010Prop43
 90
        3
102
RTVSPost2010PropOp43
 70
     1
102
RTVSPost2010Prop44ColorIndex
 90
        5
102
RTVSPost2010Prop44ColorRGB
 90
      255
102
RTVSPost2010PropOp44
 70
     1
102
RTVSPost2010Prop45
280
     0
102
RTVSPost2010PropOp45
 70
     1
102
RTVSPost2010Prop46
 90
       50
102
RTVSPost2010PropOp46
 70
     1
102
RTVSPost2010Prop47
 90
       50
102
RTVSPost2010PropOp47
 70
     1
102
RTVSPost2010Prop48
 90
       50
102
RTVSPost2010PropOp48
 70
     1
102
RTVSPost2010Prop49
280
     0
102
RTVSPost2010PropOp49
 70
     1
102
RTVSPost2010Prop50
 90
       50
102
RTVSPost2010PropOp50
 70
     1
102
RTVSPost2010Prop51ColorIndex
 90
      256
102
RTVSPost2010Prop51ColorRGB
 90
-16777216
102
RTVSPost2010PropOp51
 70
     0
102
RTVSPost2010Prop52
140
1.0
102
RTVSPost2010PropOp52
 70
     0
102
RTVSPost2010Prop53
 90
        2
102
RTVSPost2010PropOp53
 70
     1
102
RTVSPost2010Prop54
  1
strokes_ogs.tif
102
RTVSPost2010PropOp54
 70
     1
102
RTVSPost2010Prop55
280
     0
102
RTVSPost2010PropOp55
 70
     1
102
RTVSPost2010Prop56
140
1.0
102
RTVSPost2010PropOp56
 70
     1
102
RTVSPost2010Prop57
140
1.0
102
RTVSPost2010PropOp57
 70
     1
  0
XRECORD
  5
52E
102
{ACAD_REACTORS
330
52D
102
}
330
52D
100
AcDbXrecord
280
     1
102
RTVSPropertyOp0
 70
     1
102
RTVSPropertyOp1
 70
     1
102
RTVSPropertyOp2
 70
     1
102
RTVSPropertyOp3
 70
     1
102
RTVSPropertyOp4
 70
     1
102
RTVSPropertyOp5
 70
     1
102
RTVSPropertyOp6
 70
     1
102
RTVSPropertyOp7
 70
     1
102
RTVSPropertyOp8
 70
     1
102
RTVSPropertyOp9
 70
     1
102
RTVSPropertyOp10
 70
     1
102
RTVSPropertyOp11
 70
     1
102
RTVSPropertyOp12
 70
     1
102
RTVSPropertyOp13
 70
     1
102
RTVSPropertyOp14
 70
     1
102
RTVSPropertyOp15
 70
     1
102
RTVSPropertyOp16
 70
     1
102
RTVSPropertyOp17
 70
     1
102
RTVSPropertyOp18
 70
     1
102
RTVSPropertyOp19
 70
     1
102
RTVSPropertyOp20
 70
     1
102
RTVSPropertyOp21
 70
     1
102
RTVSPropertyOp22
 70
     1
102
RTVSPropertyOp23
 70
     1
102
RTVSPropertyOp24
 70
     1
102
RTVSPropertyOp25
 70
     1
102
RTVSPropertyOp26
 70
     1
102
RTVSPropertyOp27
 70
     1
102
RTVSPropertyOp28
 70
     1
102
RTVSPropertyOp29
 70
     1
102
RTVSPropertyOp30
 70
     1
102
RTVSPropertyOp31
 70
     1
102
RTVSPropertyOp32
 70
     1
102
RTVSPropertyOp33
 70
     1
102
RTVSPropertyOp34
 70
     1
102
RTVSPropertyOp35
 70
     1
102
RTVSPropertyOp36
 70
     1
102
RTVSPropertyOp37
 70
     1
102
RTVSPropertyOp38
 70
     1
102
RTVSPropertyOp39
 70
     1
102
RTVSPropertyOp40
 70
     1
102
RTVSPropertyOp41
 70
     1
102
RTVSPropertyOp42
 70
     1
102
RTVSPropertyOp43
 70
     1
102
RTVSPropertyOp44
 70
     1
102
RTVSPropertyOp45
 70
     1
102
RTVSPropertyOp46
 70
     1
102
RTVSPropertyOp47
 70
     1
102
RTVSPropertyOp48
 70
     1
102
RTVSPropertyOp49
 70
     1
102
RTVSPropertyOp50
 70
     1
102
RTVSPropertyOp51
 70
     0
102
RTVSPropertyOp52
 70
     0
102
RTVSPropertyOp53
 70
     1
102
RTVSPropertyOp54
 70
     1
102
RTVSPropertyOp55
 70
     1
102
RTVSPropertyOp56
 70
     1
102
RTVSPropertyOp57
 70
     1
102
RTVSPost2010Prop28
280
     0
102
RTVSPost2010PropOp28
 70
     1
102
RTVSPost2010Prop29
280
     1
102
RTVSPost2010PropOp29
 70
     1
102
RTVSPost2010Prop30
280
     1
102
RTVSPost2010PropOp30
 70
     1
102
RTVSPost2010Prop31
280
     0
102
RTVSPost2010PropOp31
 70
     1
102
RTVSPost2010Prop32
280
     0
102
RTVSPost2010PropOp32
 70
     1
102
RTVSPost2010Prop33
280
     0
102
RTVSPost2010PropOp33
 70
     1
102
RTVSPost2010Prop34
280
     0
102
RTVSPost2010PropOp34
 70
     1
102
RTVSPost2010Prop35
280
     0
102
RTVSPost2010PropOp35
 70
     1
102
RTVSPost2010Prop36
280
     0
102
RTVSPost2010PropOp36
 70
     1
102
RTVSPost2010Prop37
 90
       50
102
RTVSPost2010PropOp37
 70
     1
102
RTVSPost2010Prop38
140
0.0
102
RTVSPost2010PropOp38
 70
     1
102
RTVSPost2010Prop39
140
1.0
102
RTVSPost2010PropOp39
 70
     1
102
RTVSPost2010Prop40
 90
        0
102
RTVSPost2010PropOp40
 70
     1
102
RTVSPost2010Prop41ColorIndex
 90
       18
102
RTVSPost2010Prop41ColorRGB
 90
        0
102
RTVSPost2010PropOp41
 70
     1
102
RTVSPost2010Prop42
 90
       50
102
RTVSPost2010PropOp42
 70
     1
102
RTVSPost2010Prop43
 90
        3
102
RTVSPost2010PropOp43
 70
     1
102
RTVSPost2010Prop44ColorIndex
 90
        5
102
RTVSPost2010Prop44ColorRGB
 90
      255
102
RTVSPost2010PropOp44
 70
     1
102
RTVSPost2010Prop45
280
     0
102
RTVSPost2010PropOp45
 70
     1
102
RTVSPost2010Prop46
 90
       50
102
RTVSPost2010PropOp46
 70
     1
102
RTVSPost2010Prop47
 90
       50
102
RTVSPost2010PropOp47
 70
     1
102
RTVSPost2010Prop48
 90
       50
102
RTVSPost2010PropOp48
 70
     1
102
RTVSPost2010Prop49
280
     0
102
RTVSPost2010PropOp49
 70
     1
102
RTVSPost2010Prop50
 90
       50
102
RTVSPost2010PropOp50
 70
     1
102
RTVSPost2010Prop51ColorIndex
 90
      256
102
RTVSPost2010Prop51ColorRGB
 90
-16777216
102
RTVSPost2010PropOp51
 70
     0
102
RTVSPost2010Prop52
140
1.0
102
RTVSPost2010PropOp52
 70
     0
102
RTVSPost2010Prop53
 90
        2
102
RTVSPost2010PropOp53
 70
     1
102
RTVSPost2010Prop54
  1
strokes_ogs.tif
102
RTVSPost2010PropOp54
 70
     1
102
RTVSPost2010Prop55
280
     0
102
RTVSPost2010PropOp55
 70
     1
102
RTVSPost2010Prop56
140
1.0
102
RTVSPost2010PropOp56
 70
     1
102
RTVSPost2010Prop57
140
1.0
102
RTVSPost2010PropOp57
 70
     1
  0
XRECORD
  5
52C
102
{ACAD_REACTORS
330
52B
102
}
330
52B
100
AcDbXrecord
280
     1
102
RTVSPropertyOp0
 70
     1
102
RTVSPropertyOp1
 70
     1
102
RTVSPropertyOp2
 70
     1
102
RTVSPropertyOp3
 70
     1
102
RTVSPropertyOp4
 70
     1
102
RTVSPropertyOp5
 70
     1
102
RTVSPropertyOp6
 70
     1
102
RTVSPropertyOp7
 70
     1
102
RTVSPropertyOp8
 70
     1
102
RTVSPropertyOp9
 70
     1
102
RTVSPropertyOp10
 70
     1
102
RTVSPropertyOp11
 70
     1
102
RTVSPropertyOp12
 70
     1
102
RTVSPropertyOp13
 70
     1
102
RTVSPropertyOp14
 70
     1
102
RTVSPropertyOp15
 70
     1
102
RTVSPropertyOp16
 70
     1
102
RTVSPropertyOp17
 70
     1
102
RTVSPropertyOp18
 70
     1
102
RTVSPropertyOp19
 70
     1
102
RTVSPropertyOp20
 70
     1
102
RTVSPropertyOp21
 70
     1
102
RTVSPropertyOp22
 70
     1
102
RTVSPropertyOp23
 70
     1
102
RTVSPropertyOp24
 70
     1
102
RTVSPropertyOp25
 70
     1
102
RTVSPropertyOp26
 70
     1
102
RTVSPropertyOp27
 70
     1
102
RTVSPropertyOp28
 70
     1
102
RTVSPropertyOp29
 70
     1
102
RTVSPropertyOp30
 70
     1
102
RTVSPropertyOp31
 70
     1
102
RTVSPropertyOp32
 70
     1
102
RTVSPropertyOp33
 70
     1
102
RTVSPropertyOp34
 70
     1
102
RTVSPropertyOp35
 70
     1
102
RTVSPropertyOp36
 70
     1
102
RTVSPropertyOp37
 70
     1
102
RTVSPropertyOp38
 70
     1
102
RTVSPropertyOp39
 70
     1
102
RTVSPropertyOp40
 70
     1
102
RTVSPropertyOp41
 70
     1
102
RTVSPropertyOp42
 70
     1
102
RTVSPropertyOp43
 70
     1
102
RTVSPropertyOp44
 70
     1
102
RTVSPropertyOp45
 70
     1
102
RTVSPropertyOp46
 70
     1
102
RTVSPropertyOp47
 70
     1
102
RTVSPropertyOp48
 70
     1
102
RTVSPropertyOp49
 70
     1
102
RTVSPropertyOp50
 70
     1
102
RTVSPropertyOp51
 70
     0
102
RTVSPropertyOp52
 70
     0
102
RTVSPropertyOp53
 70
     1
102
RTVSPropertyOp54
 70
     1
102
RTVSPropertyOp55
 70
     1
102
RTVSPropertyOp56
 70
     1
102
RTVSPropertyOp57
 70
     1
102
RTVSPost2010Prop28
280
     0
102
RTVSPost2010PropOp28
 70
     1
102
RTVSPost2010Prop29
280
     1
102
RTVSPost2010PropOp29
 70
     1
102
RTVSPost2010Prop30
280
     1
102
RTVSPost2010PropOp30
 70
     1
102
RTVSPost2010Prop31
280
     0
102
RTVSPost2010PropOp31
 70
     1
102
RTVSPost2010Prop32
280
     0
102
RTVSPost2010PropOp32
 70
     1
102
RTVSPost2010Prop33
280
     0
102
RTVSPost2010PropOp33
 70
     1
102
RTVSPost2010Prop34
280
     0
102
RTVSPost2010PropOp34
 70
     1
102
RTVSPost2010Prop35
280
     0
102
RTVSPost2010PropOp35
 70
     1
102
RTVSPost2010Prop36
280
     0
102
RTVSPost2010PropOp36
 70
     1
102
RTVSPost2010Prop37
 90
       50
102
RTVSPost2010PropOp37
 70
     1
102
RTVSPost2010Prop38
140
0.0
102
RTVSPost2010PropOp38
 70
     1
102
RTVSPost2010Prop39
140
1.0
102
RTVSPost2010PropOp39
 70
     1
102
RTVSPost2010Prop40
 90
        0
102
RTVSPost2010PropOp40
 70
     1
102
RTVSPost2010Prop41ColorIndex
 90
       18
102
RTVSPost2010Prop41ColorRGB
 90
        0
102
RTVSPost2010PropOp41
 70
     1
102
RTVSPost2010Prop42
 90
       50
102
RTVSPost2010PropOp42
 70
     1
102
RTVSPost2010Prop43
 90
        3
102
RTVSPost2010PropOp43
 70
     1
102
RTVSPost2010Prop44ColorIndex
 90
        5
102
RTVSPost2010Prop44ColorRGB
 90
      255
102
RTVSPost2010PropOp44
 70
     1
102
RTVSPost2010Prop45
280
     0
102
RTVSPost2010PropOp45
 70
     1
102
RTVSPost2010Prop46
 90
       50
102
RTVSPost2010PropOp46
 70
     1
102
RTVSPost2010Prop47
 90
       50
102
RTVSPost2010PropOp47
 70
     1
102
RTVSPost2010Prop48
 90
       50
102
RTVSPost2010PropOp48
 70
     1
102
RTVSPost2010Prop49
280
     0
102
RTVSPost2010PropOp49
 70
     1
102
RTVSPost2010Prop50
 90
       50
102
RTVSPost2010PropOp50
 70
     1
102
RTVSPost2010Prop51ColorIndex
 90
      256
102
RTVSPost2010Prop51ColorRGB
 90
-16777216
102
RTVSPost2010PropOp51
 70
     0
102
RTVSPost2010Prop52
140
1.0
102
RTVSPost2010PropOp52
 70
     0
102
RTVSPost2010Prop53
 90
        2
102
RTVSPost2010PropOp53
 70
     1
102
RTVSPost2010Prop54
  1
strokes_ogs.tif
102
RTVSPost2010PropOp54
 70
     1
102
RTVSPost2010Prop55
280
     0
102
RTVSPost2010PropOp55
 70
     1
102
RTVSPost2010Prop56
140
1.0
102
RTVSPost2010PropOp56
 70
     1
102
RTVSPost2010Prop57
140
1.0
102
RTVSPost2010PropOp57
 70
     1
  0
XRECORD
  5
526
102
{ACAD_REACTORS
330
525
102
}
330
525
100
AcDbXrecord
280
     1
102
RTVSPropertyOp0
 70
     1
102
RTVSPropertyOp1
 70
     1
102
RTVSPropertyOp2
 70
     1
102
RTVSPropertyOp3
 70
     1
102
RTVSPropertyOp4
 70
     1
102
RTVSPropertyOp5
 70
     1
102
RTVSPropertyOp6
 70
     1
102
RTVSPropertyOp7
 70
     1
102
RTVSPropertyOp8
 70
     1
102
RTVSPropertyOp9
 70
     1
102
RTVSPropertyOp10
 70
     1
102
RTVSPropertyOp11
 70
     1
102
RTVSPropertyOp12
 70
     1
102
RTVSPropertyOp13
 70
     1
102
RTVSPropertyOp14
 70
     1
102
RTVSPropertyOp15
 70
     1
102
RTVSPropertyOp16
 70
     1
102
RTVSPropertyOp17
 70
     1
102
RTVSPropertyOp18
 70
     1
102
RTVSPropertyOp19
 70
     1
102
RTVSPropertyOp20
 70
     1
102
RTVSPropertyOp21
 70
     1
102
RTVSPropertyOp22
 70
     1
102
RTVSPropertyOp23
 70
     1
102
RTVSPropertyOp24
 70
     1
102
RTVSPropertyOp25
 70
     1
102
RTVSPropertyOp26
 70
     1
102
RTVSPropertyOp27
 70
     1
102
RTVSPropertyOp28
 70
     1
102
RTVSPropertyOp29
 70
     1
102
RTVSPropertyOp30
 70
     1
102
RTVSPropertyOp31
 70
     1
102
RTVSPropertyOp32
 70
     1
102
RTVSPropertyOp33
 70
     1
102
RTVSPropertyOp34
 70
     1
102
RTVSPropertyOp35
 70
     1
102
RTVSPropertyOp36
 70
     1
102
RTVSPropertyOp37
 70
     1
102
RTVSPropertyOp38
 70
     1
102
RTVSPropertyOp39
 70
     1
102
RTVSPropertyOp40
 70
     1
102
RTVSPropertyOp41
 70
     1
102
RTVSPropertyOp42
 70
     1
102
RTVSPropertyOp43
 70
     1
102
RTVSPropertyOp44
 70
     1
102
RTVSPropertyOp45
 70
     1
102
RTVSPropertyOp46
 70
     1
102
RTVSPropertyOp47
 70
     1
102
RTVSPropertyOp48
 70
     1
102
RTVSPropertyOp49
 70
     1
102
RTVSPropertyOp50
 70
     1
102
RTVSPropertyOp51
 70
     0
102
RTVSPropertyOp52
 70
     0
102
RTVSPropertyOp53
 70
     1
102
RTVSPropertyOp54
 70
     1
102
RTVSPropertyOp55
 70
     1
102
RTVSPropertyOp56
 70
     1
102
RTVSPropertyOp57
 70
     1
102
RTVSPost2010Prop28
280
     0
102
RTVSPost2010PropOp28
 70
     1
102
RTVSPost2010Prop29
280
     1
102
RTVSPost2010PropOp29
 70
     1
102
RTVSPost2010Prop30
280
     1
102
RTVSPost2010PropOp30
 70
     1
102
RTVSPost2010Prop31
280
     0
102
RTVSPost2010PropOp31
 70
     1
102
RTVSPost2010Prop32
280
     0
102
RTVSPost2010PropOp32
 70
     1
102
RTVSPost2010Prop33
280
     0
102
RTVSPost2010PropOp33
 70
     1
102
RTVSPost2010Prop34
280
     0
102
RTVSPost2010PropOp34
 70
     1
102
RTVSPost2010Prop35
280
     0
102
RTVSPost2010PropOp35
 70
     1
102
RTVSPost2010Prop36
280
     0
102
RTVSPost2010PropOp36
 70
     1
102
RTVSPost2010Prop37
 90
       50
102
RTVSPost2010PropOp37
 70
     1
102
RTVSPost2010Prop38
140
0.0
102
RTVSPost2010PropOp38
 70
     1
102
RTVSPost2010Prop39
140
1.0
102
RTVSPost2010PropOp39
 70
     1
102
RTVSPost2010Prop40
 90
        0
102
RTVSPost2010PropOp40
 70
     1
102
RTVSPost2010Prop41ColorIndex
 90
       18
102
RTVSPost2010Prop41ColorRGB
 90
        0
102
RTVSPost2010PropOp41
 70
     1
102
RTVSPost2010Prop42
 90
       50
102
RTVSPost2010PropOp42
 70
     1
102
RTVSPost2010Prop43
 90
        3
102
RTVSPost2010PropOp43
 70
     1
102
RTVSPost2010Prop44ColorIndex
 90
        5
102
RTVSPost2010Prop44ColorRGB
 90
      255
102
RTVSPost2010PropOp44
 70
     1
102
RTVSPost2010Prop45
280
     0
102
RTVSPost2010PropOp45
 70
     1
102
RTVSPost2010Prop46
 90
       50
102
RTVSPost2010PropOp46
 70
     1
102
RTVSPost2010Prop47
 90
       50
102
RTVSPost2010PropOp47
 70
     1
102
RTVSPost2010Prop48
 90
       50
102
RTVSPost2010PropOp48
 70
     1
102
RTVSPost2010Prop49
280
     0
102
RTVSPost2010PropOp49
 70
     1
102
RTVSPost2010Prop50
 90
       50
102
RTVSPost2010PropOp50
 70
     1
102
RTVSPost2010Prop51ColorIndex
 90
      256
102
RTVSPost2010Prop51ColorRGB
 90
-16777216
102
RTVSPost2010PropOp51
 70
     0
102
RTVSPost2010Prop52
140
1.0
102
RTVSPost2010PropOp52
 70
     0
102
RTVSPost2010Prop53
 90
        2
102
RTVSPost2010PropOp53
 70
     1
102
RTVSPost2010Prop54
  1
strokes_ogs.tif
102
RTVSPost2010PropOp54
 70
     1
102
RTVSPost2010Prop55
280
     0
102
RTVSPost2010PropOp55
 70
     1
102
RTVSPost2010Prop56
140
1.0
102
RTVSPost2010PropOp56
 70
     1
102
RTVSPost2010Prop57
140
1.0
102
RTVSPost2010PropOp57
 70
     1
  0
XRECORD
  5
528
102
{ACAD_REACTORS
330
527
102
}
330
527
100
AcDbXrecord
280
     1
102
RTVSPropertyOp0
 70
     1
102
RTVSPropertyOp1
 70
     1
102
RTVSPropertyOp2
 70
     1
102
RTVSPropertyOp3
 70
     1
102
RTVSPropertyOp4
 70
     1
102
RTVSPropertyOp5
 70
     1
102
RTVSPropertyOp6
 70
     1
102
RTVSPropertyOp7
 70
     1
102
RTVSPropertyOp8
 70
     1
102
RTVSPropertyOp9
 70
     1
102
RTVSPropertyOp10
 70
     1
102
RTVSPropertyOp11
 70
     1
102
RTVSPropertyOp12
 70
     1
102
RTVSPropertyOp13
 70
     1
102
RTVSPropertyOp14
 70
     1
102
RTVSPropertyOp15
 70
     1
102
RTVSPropertyOp16
 70
     1
102
RTVSPropertyOp17
 70
     1
102
RTVSPropertyOp18
 70
     1
102
RTVSPropertyOp19
 70
     1
102
RTVSPropertyOp20
 70
     1
102
RTVSPropertyOp21
 70
     1
102
RTVSPropertyOp22
 70
     1
102
RTVSPropertyOp23
 70
     1
102
RTVSPropertyOp24
 70
     1
102
RTVSPropertyOp25
 70
     1
102
RTVSPropertyOp26
 70
     1
102
RTVSPropertyOp27
 70
     1
102
RTVSPropertyOp28
 70
     1
102
RTVSPropertyOp29
 70
     1
102
RTVSPropertyOp30
 70
     1
102
RTVSPropertyOp31
 70
     1
102
RTVSPropertyOp32
 70
     1
102
RTVSPropertyOp33
 70
     1
102
RTVSPropertyOp34
 70
     1
102
RTVSPropertyOp35
 70
     1
102
RTVSPropertyOp36
 70
     1
102
RTVSPropertyOp37
 70
     1
102
RTVSPropertyOp38
 70
     1
102
RTVSPropertyOp39
 70
     1
102
RTVSPropertyOp40
 70
     1
102
RTVSPropertyOp41
 70
     1
102
RTVSPropertyOp42
 70
     1
102
RTVSPropertyOp43
 70
     1
102
RTVSPropertyOp44
 70
     1
102
RTVSPropertyOp45
 70
     1
102
RTVSPropertyOp46
 70
     1
102
RTVSPropertyOp47
 70
     1
102
RTVSPropertyOp48
 70
     1
102
RTVSPropertyOp49
 70
     1
102
RTVSPropertyOp50
 70
     1
102
RTVSPropertyOp51
 70
     0
102
RTVSPropertyOp52
 70
     0
102
RTVSPropertyOp53
 70
     1
102
RTVSPropertyOp54
 70
     1
102
RTVSPropertyOp55
 70
     1
102
RTVSPropertyOp56
 70
     1
102
RTVSPropertyOp57
 70
     1
102
RTVSPost2010Prop28
280
     0
102
RTVSPost2010PropOp28
 70
     1
102
RTVSPost2010Prop29
280
     1
102
RTVSPost2010PropOp29
 70
     1
102
RTVSPost2010Prop30
280
     1
102
RTVSPost2010PropOp30
 70
     1
102
RTVSPost2010Prop31
280
     0
102
RTVSPost2010PropOp31
 70
     1
102
RTVSPost2010Prop32
280
     0
102
RTVSPost2010PropOp32
 70
     1
102
RTVSPost2010Prop33
280
     0
102
RTVSPost2010PropOp33
 70
     1
102
RTVSPost2010Prop34
280
     0
102
RTVSPost2010PropOp34
 70
     1
102
RTVSPost2010Prop35
280
     0
102
RTVSPost2010PropOp35
 70
     1
102
RTVSPost2010Prop36
280
     0
102
RTVSPost2010PropOp36
 70
     1
102
RTVSPost2010Prop37
 90
       50
102
RTVSPost2010PropOp37
 70
     1
102
RTVSPost2010Prop38
140
0.0
102
RTVSPost2010PropOp38
 70
     1
102
RTVSPost2010Prop39
140
1.0
102
RTVSPost2010PropOp39
 70
     1
102
RTVSPost2010Prop40
 90
        0
102
RTVSPost2010PropOp40
 70
     1
102
RTVSPost2010Prop41ColorIndex
 90
       18
102
RTVSPost2010Prop41ColorRGB
 90
        0
102
RTVSPost2010PropOp41
 70
     1
102
RTVSPost2010Prop42
 90
       50
102
RTVSPost2010PropOp42
 70
     1
102
RTVSPost2010Prop43
 90
        3
102
RTVSPost2010PropOp43
 70
     1
102
RTVSPost2010Prop44ColorIndex
 90
        5
102
RTVSPost2010Prop44ColorRGB
 90
      255
102
RTVSPost2010PropOp44
 70
     1
102
RTVSPost2010Prop45
280
     0
102
RTVSPost2010PropOp45
 70
     1
102
RTVSPost2010Prop46
 90
       50
102
RTVSPost2010PropOp46
 70
     1
102
RTVSPost2010Prop47
 90
       50
102
RTVSPost2010PropOp47
 70
     1
102
RTVSPost2010Prop48
 90
       50
102
RTVSPost2010PropOp48
 70
     1
102
RTVSPost2010Prop49
280
     0
102
RTVSPost2010PropOp49
 70
     1
102
RTVSPost2010Prop50
 90
       50
102
RTVSPost2010PropOp50
 70
     1
102
RTVSPost2010Prop51ColorIndex
 90
      256
102
RTVSPost2010Prop51ColorRGB
 90
-16777216
102
RTVSPost2010PropOp51
 70
     0
102
RTVSPost2010Prop52
140
1.0
102
RTVSPost2010PropOp52
 70
     0
102
RTVSPost2010Prop53
 90
        2
102
RTVSPost2010PropOp53
 70
     1
102
RTVSPost2010Prop54
  1
strokes_ogs.tif
102
RTVSPost2010PropOp54
 70
     1
102
RTVSPost2010Prop55
280
     0
102
RTVSPost2010PropOp55
 70
     1
102
RTVSPost2010Prop56
140
1.0
102
RTVSPost2010PropOp56
 70
     1
102
RTVSPost2010Prop57
140
1.0
102
RTVSPost2010PropOp57
 70
     1
  0
XRECORD
  5
518
102
{ACAD_REACTORS
330
517
102
}
330
517
100
AcDbXrecord
280
     1
102
RTVSPropertyOp0
 70
     1
102
RTVSPropertyOp1
 70
     1
102
RTVSPropertyOp2
 70
     1
102
RTVSPropertyOp3
 70
     1
102
RTVSPropertyOp4
 70
     1
102
RTVSPropertyOp5
 70
     1
102
RTVSPropertyOp6
 70
     1
102
RTVSPropertyOp7
 70
     1
102
RTVSPropertyOp8
 70
     1
102
RTVSPropertyOp9
 70
     1
102
RTVSPropertyOp10
 70
     1
102
RTVSPropertyOp11
 70
     1
102
RTVSPropertyOp12
 70
     1
102
RTVSPropertyOp13
 70
     1
102
RTVSPropertyOp14
 70
     1
102
RTVSPropertyOp15
 70
     1
102
RTVSPropertyOp16
 70
     1
102
RTVSPropertyOp17
 70
     1
102
RTVSPropertyOp18
 70
     1
102
RTVSPropertyOp19
 70
     1
102
RTVSPropertyOp20
 70
     1
102
RTVSPropertyOp21
 70
     1
102
RTVSPropertyOp22
 70
     1
102
RTVSPropertyOp23
 70
     1
102
RTVSPropertyOp24
 70
     1
102
RTVSPropertyOp25
 70
     1
102
RTVSPropertyOp26
 70
     1
102
RTVSPropertyOp27
 70
     1
102
RTVSPropertyOp28
 70
     1
102
RTVSPropertyOp29
 70
     1
102
RTVSPropertyOp30
 70
     1
102
RTVSPropertyOp31
 70
     1
102
RTVSPropertyOp32
 70
     1
102
RTVSPropertyOp33
 70
     1
102
RTVSPropertyOp34
 70
     1
102
RTVSPropertyOp35
 70
     1
102
RTVSPropertyOp36
 70
     1
102
RTVSPropertyOp37
 70
     1
102
RTVSPropertyOp38
 70
     1
102
RTVSPropertyOp39
 70
     1
102
RTVSPropertyOp40
 70
     1
102
RTVSPropertyOp41
 70
     1
102
RTVSPropertyOp42
 70
     1
102
RTVSPropertyOp43
 70
     1
102
RTVSPropertyOp44
 70
     1
102
RTVSPropertyOp45
 70
     1
102
RTVSPropertyOp46
 70
     1
102
RTVSPropertyOp47
 70
     1
102
RTVSPropertyOp48
 70
     1
102
RTVSPropertyOp49
 70
     1
102
RTVSPropertyOp50
 70
     1
102
RTVSPropertyOp51
 70
     0
102
RTVSPropertyOp52
 70
     0
102
RTVSPropertyOp53
 70
     1
102
RTVSPropertyOp54
 70
     1
102
RTVSPropertyOp55
 70
     1
102
RTVSPropertyOp56
 70
     1
102
RTVSPropertyOp57
 70
     1
102
RTVSPost2010Prop28
280
     0
102
RTVSPost2010PropOp28
 70
     1
102
RTVSPost2010Prop29
280
     1
102
RTVSPost2010PropOp29
 70
     1
102
RTVSPost2010Prop30
280
     1
102
RTVSPost2010PropOp30
 70
     1
102
RTVSPost2010Prop31
280
     0
102
RTVSPost2010PropOp31
 70
     1
102
RTVSPost2010Prop32
280
     0
102
RTVSPost2010PropOp32
 70
     1
102
RTVSPost2010Prop33
280
     0
102
RTVSPost2010PropOp33
 70
     1
102
RTVSPost2010Prop34
280
     0
102
RTVSPost2010PropOp34
 70
     1
102
RTVSPost2010Prop35
280
     0
102
RTVSPost2010PropOp35
 70
     1
102
RTVSPost2010Prop36
280
     0
102
RTVSPost2010PropOp36
 70
     1
102
RTVSPost2010Prop37
 90
       50
102
RTVSPost2010PropOp37
 70
     1
102
RTVSPost2010Prop38
140
0.0
102
RTVSPost2010PropOp38
 70
     1
102
RTVSPost2010Prop39
140
1.0
102
RTVSPost2010PropOp39
 70
     1
102
RTVSPost2010Prop40
 90
        0
102
RTVSPost2010PropOp40
 70
     1
102
RTVSPost2010Prop41ColorIndex
 90
       18
102
RTVSPost2010Prop41ColorRGB
 90
        0
102
RTVSPost2010PropOp41
 70
     1
102
RTVSPost2010Prop42
 90
       50
102
RTVSPost2010PropOp42
 70
     1
102
RTVSPost2010Prop43
 90
        3
102
RTVSPost2010PropOp43
 70
     1
102
RTVSPost2010Prop44ColorIndex
 90
        5
102
RTVSPost2010Prop44ColorRGB
 90
      255
102
RTVSPost2010PropOp44
 70
     1
102
RTVSPost2010Prop45
280
     0
102
RTVSPost2010PropOp45
 70
     1
102
RTVSPost2010Prop46
 90
       50
102
RTVSPost2010PropOp46
 70
     1
102
RTVSPost2010Prop47
 90
       50
102
RTVSPost2010PropOp47
 70
     1
102
RTVSPost2010Prop48
 90
       50
102
RTVSPost2010PropOp48
 70
     1
102
RTVSPost2010Prop49
280
     0
102
RTVSPost2010PropOp49
 70
     1
102
RTVSPost2010Prop50
 90
       50
102
RTVSPost2010PropOp50
 70
     1
102
RTVSPost2010Prop51ColorIndex
 90
      256
102
RTVSPost2010Prop51ColorRGB
 90
-16777216
102
RTVSPost2010PropOp51
 70
     0
102
RTVSPost2010Prop52
140
1.0
102
RTVSPost2010PropOp52
 70
     0
102
RTVSPost2010Prop53
 90
        2
102
RTVSPost2010PropOp53
 70
     1
102
RTVSPost2010Prop54
  1
strokes_ogs.tif
102
RTVSPost2010PropOp54
 70
     1
102
RTVSPost2010Prop55
280
     0
102
RTVSPost2010PropOp55
 70
     1
102
RTVSPost2010Prop56
140
1.0
102
RTVSPost2010PropOp56
 70
     1
102
RTVSPost2010Prop57
140
1.0
102
RTVSPost2010PropOp57
 70
     1
  0
XRECORD
  5
50A
102
{ACAD_REACTORS
330
509
102
}
330
509
100
AcDbXrecord
280
     1
102
RTVSPropertyOp0
 70
     1
102
RTVSPropertyOp1
 70
     1
102
RTVSPropertyOp2
 70
     1
102
RTVSPropertyOp3
 70
     1
102
RTVSPropertyOp4
 70
     1
102
RTVSPropertyOp5
 70
     1
102
RTVSPropertyOp6
 70
     1
102
RTVSPropertyOp7
 70
     1
102
RTVSPropertyOp8
 70
     1
102
RTVSPropertyOp9
 70
     1
102
RTVSPropertyOp10
 70
     1
102
RTVSPropertyOp11
 70
     1
102
RTVSPropertyOp12
 70
     1
102
RTVSPropertyOp13
 70
     1
102
RTVSPropertyOp14
 70
     1
102
RTVSPropertyOp15
 70
     1
102
RTVSPropertyOp16
 70
     1
102
RTVSPropertyOp17
 70
     1
102
RTVSPropertyOp18
 70
     1
102
RTVSPropertyOp19
 70
     1
102
RTVSPropertyOp20
 70
     1
102
RTVSPropertyOp21
 70
     1
102
RTVSPropertyOp22
 70
     1
102
RTVSPropertyOp23
 70
     1
102
RTVSPropertyOp24
 70
     1
102
RTVSPropertyOp25
 70
     1
102
RTVSPropertyOp26
 70
     1
102
RTVSPropertyOp27
 70
     1
102
RTVSPropertyOp28
 70
     1
102
RTVSPropertyOp29
 70
     1
102
RTVSPropertyOp30
 70
     1
102
RTVSPropertyOp31
 70
     1
102
RTVSPropertyOp32
 70
     1
102
RTVSPropertyOp33
 70
     1
102
RTVSPropertyOp34
 70
     1
102
RTVSPropertyOp35
 70
     1
102
RTVSPropertyOp36
 70
     1
102
RTVSPropertyOp37
 70
     1
102
RTVSPropertyOp38
 70
     1
102
RTVSPropertyOp39
 70
     1
102
RTVSPropertyOp40
 70
     1
102
RTVSPropertyOp41
 70
     1
102
RTVSPropertyOp42
 70
     1
102
RTVSPropertyOp43
 70
     1
102
RTVSPropertyOp44
 70
     1
102
RTVSPropertyOp45
 70
     1
102
RTVSPropertyOp46
 70
     1
102
RTVSPropertyOp47
 70
     1
102
RTVSPropertyOp48
 70
     1
102
RTVSPropertyOp49
 70
     1
102
RTVSPropertyOp50
 70
     1
102
RTVSPropertyOp51
 70
     0
102
RTVSPropertyOp52
 70
     0
102
RTVSPropertyOp53
 70
     1
102
RTVSPropertyOp54
 70
     1
102
RTVSPropertyOp55
 70
     1
102
RTVSPropertyOp56
 70
     1
102
RTVSPropertyOp57
 70
     1
102
RTVSPost2010Prop28
280
     0
102
RTVSPost2010PropOp28
 70
     1
102
RTVSPost2010Prop29
280
     1
102
RTVSPost2010PropOp29
 70
     1
102
RTVSPost2010Prop30
280
     1
102
RTVSPost2010PropOp30
 70
     1
102
RTVSPost2010Prop31
280
     0
102
RTVSPost2010PropOp31
 70
     1
102
RTVSPost2010Prop32
280
     0
102
RTVSPost2010PropOp32
 70
     1
102
RTVSPost2010Prop33
280
     0
102
RTVSPost2010PropOp33
 70
     1
102
RTVSPost2010Prop34
280
     0
102
RTVSPost2010PropOp34
 70
     1
102
RTVSPost2010Prop35
280
     0
102
RTVSPost2010PropOp35
 70
     1
102
RTVSPost2010Prop36
280
     0
102
RTVSPost2010PropOp36
 70
     1
102
RTVSPost2010Prop37
 90
       50
102
RTVSPost2010PropOp37
 70
     1
102
RTVSPost2010Prop38
140
0.0
102
RTVSPost2010PropOp38
 70
     1
102
RTVSPost2010Prop39
140
1.0
102
RTVSPost2010PropOp39
 70
     1
102
RTVSPost2010Prop40
 90
        0
102
RTVSPost2010PropOp40
 70
     1
102
RTVSPost2010Prop41ColorIndex
 90
       18
102
RTVSPost2010Prop41ColorRGB
 90
        0
102
RTVSPost2010PropOp41
 70
     1
102
RTVSPost2010Prop42
 90
       50
102
RTVSPost2010PropOp42
 70
     1
102
RTVSPost2010Prop43
 90
        3
102
RTVSPost2010PropOp43
 70
     1
102
RTVSPost2010Prop44ColorIndex
 90
        5
102
RTVSPost2010Prop44ColorRGB
 90
      255
102
RTVSPost2010PropOp44
 70
     1
102
RTVSPost2010Prop45
280
     0
102
RTVSPost2010PropOp45
 70
     1
102
RTVSPost2010Prop46
 90
       50
102
RTVSPost2010PropOp46
 70
     1
102
RTVSPost2010Prop47
 90
       50
102
RTVSPost2010PropOp47
 70
     1
102
RTVSPost2010Prop48
 90
       50
102
RTVSPost2010PropOp48
 70
     1
102
RTVSPost2010Prop49
280
     0
102
RTVSPost2010PropOp49
 70
     1
102
RTVSPost2010Prop50
 90
       50
102
RTVSPost2010PropOp50
 70
     1
102
RTVSPost2010Prop51ColorIndex
 90
      256
102
RTVSPost2010Prop51ColorRGB
 90
-16777216
102
RTVSPost2010PropOp51
 70
     0
102
RTVSPost2010Prop52
140
1.0
102
RTVSPost2010PropOp52
 70
     0
102
RTVSPost2010Prop53
 90
        2
102
RTVSPost2010PropOp53
 70
     1
102
RTVSPost2010Prop54
  1
strokes_ogs.tif
102
RTVSPost2010PropOp54
 70
     1
102
RTVSPost2010Prop55
280
     0
102
RTVSPost2010PropOp55
 70
     1
102
RTVSPost2010Prop56
140
1.0
102
RTVSPost2010PropOp56
 70
     1
102
RTVSPost2010Prop57
140
1.0
102
RTVSPost2010PropOp57
 70
     1
  0
XRECORD
  5
52A
102
{ACAD_REACTORS
330
529
102
}
330
529
100
AcDbXrecord
280
     1
102
RTVSPropertyOp0
 70
     1
102
RTVSPropertyOp1
 70
     1
102
RTVSPropertyOp2
 70
     1
102
RTVSPropertyOp3
 70
     1
102
RTVSPropertyOp4
 70
     1
102
RTVSPropertyOp5
 70
     1
102
RTVSPropertyOp6
 70
     1
102
RTVSPropertyOp7
 70
     1
102
RTVSPropertyOp8
 70
     1
102
RTVSPropertyOp9
 70
     1
102
RTVSPropertyOp10
 70
     1
102
RTVSPropertyOp11
 70
     1
102
RTVSPropertyOp12
 70
     1
102
RTVSPropertyOp13
 70
     1
102
RTVSPropertyOp14
 70
     1
102
RTVSPropertyOp15
 70
     1
102
RTVSPropertyOp16
 70
     1
102
RTVSPropertyOp17
 70
     1
102
RTVSPropertyOp18
 70
     1
102
RTVSPropertyOp19
 70
     1
102
RTVSPropertyOp20
 70
     1
102
RTVSPropertyOp21
 70
     1
102
RTVSPropertyOp22
 70
     1
102
RTVSPropertyOp23
 70
     1
102
RTVSPropertyOp24
 70
     1
102
RTVSPropertyOp25
 70
     1
102
RTVSPropertyOp26
 70
     1
102
RTVSPropertyOp27
 70
     1
102
RTVSPropertyOp28
 70
     1
102
RTVSPropertyOp29
 70
     1
102
RTVSPropertyOp30
 70
     1
102
RTVSPropertyOp31
 70
     1
102
RTVSPropertyOp32
 70
     1
102
RTVSPropertyOp33
 70
     1
102
RTVSPropertyOp34
 70
     1
102
RTVSPropertyOp35
 70
     1
102
RTVSPropertyOp36
 70
     1
102
RTVSPropertyOp37
 70
     1
102
RTVSPropertyOp38
 70
     1
102
RTVSPropertyOp39
 70
     1
102
RTVSPropertyOp40
 70
     1
102
RTVSPropertyOp41
 70
     1
102
RTVSPropertyOp42
 70
     1
102
RTVSPropertyOp43
 70
     1
102
RTVSPropertyOp44
 70
     1
102
RTVSPropertyOp45
 70
     1
102
RTVSPropertyOp46
 70
     1
102
RTVSPropertyOp47
 70
     1
102
RTVSPropertyOp48
 70
     1
102
RTVSPropertyOp49
 70
     1
102
RTVSPropertyOp50
 70
     1
102
RTVSPropertyOp51
 70
     0
102
RTVSPropertyOp52
 70
     0
102
RTVSPropertyOp53
 70
     1
102
RTVSPropertyOp54
 70
     1
102
RTVSPropertyOp55
 70
     1
102
RTVSPropertyOp56
 70
     1
102
RTVSPropertyOp57
 70
     1
102
RTVSPost2010Prop28
280
     0
102
RTVSPost2010PropOp28
 70
     1
102
RTVSPost2010Prop29
280
     1
102
RTVSPost2010PropOp29
 70
     1
102
RTVSPost2010Prop30
280
     1
102
RTVSPost2010PropOp30
 70
     1
102
RTVSPost2010Prop31
280
     0
102
RTVSPost2010PropOp31
 70
     1
102
RTVSPost2010Prop32
280
     0
102
RTVSPost2010PropOp32
 70
     1
102
RTVSPost2010Prop33
280
     0
102
RTVSPost2010PropOp33
 70
     1
102
RTVSPost2010Prop34
280
     0
102
RTVSPost2010PropOp34
 70
     1
102
RTVSPost2010Prop35
280
     0
102
RTVSPost2010PropOp35
 70
     1
102
RTVSPost2010Prop36
280
     0
102
RTVSPost2010PropOp36
 70
     1
102
RTVSPost2010Prop37
 90
       50
102
RTVSPost2010PropOp37
 70
     1
102
RTVSPost2010Prop38
140
0.0
102
RTVSPost2010PropOp38
 70
     1
102
RTVSPost2010Prop39
140
1.0
102
RTVSPost2010PropOp39
 70
     1
102
RTVSPost2010Prop40
 90
        0
102
RTVSPost2010PropOp40
 70
     1
102
RTVSPost2010Prop41ColorIndex
 90
       18
102
RTVSPost2010Prop41ColorRGB
 90
        0
102
RTVSPost2010PropOp41
 70
     1
102
RTVSPost2010Prop42
 90
       50
102
RTVSPost2010PropOp42
 70
     1
102
RTVSPost2010Prop43
 90
        3
102
RTVSPost2010PropOp43
 70
     1
102
RTVSPost2010Prop44ColorIndex
 90
        5
102
RTVSPost2010Prop44ColorRGB
 90
      255
102
RTVSPost2010PropOp44
 70
     1
102
RTVSPost2010Prop45
280
     0
102
RTVSPost2010PropOp45
 70
     1
102
RTVSPost2010Prop46
 90
       50
102
RTVSPost2010PropOp46
 70
     1
102
RTVSPost2010Prop47
 90
       50
102
RTVSPost2010PropOp47
 70
     1
102
RTVSPost2010Prop48
 90
       50
102
RTVSPost2010PropOp48
 70
     1
102
RTVSPost2010Prop49
280
     0
102
RTVSPost2010PropOp49
 70
     1
102
RTVSPost2010Prop50
 90
       50
102
RTVSPost2010PropOp50
 70
     1
102
RTVSPost2010Prop51ColorIndex
 90
      256
102
RTVSPost2010Prop51ColorRGB
 90
-16777216
102
RTVSPost2010PropOp51
 70
     0
102
RTVSPost2010Prop52
140
1.0
102
RTVSPost2010PropOp52
 70
     0
102
RTVSPost2010Prop53
 90
        2
102
RTVSPost2010PropOp53
 70
     1
102
RTVSPost2010Prop54
  1
strokes_ogs.tif
102
RTVSPost2010PropOp54
 70
     1
102
RTVSPost2010Prop55
280
     0
102
RTVSPost2010PropOp55
 70
     1
102
RTVSPost2010Prop56
140
1.0
102
RTVSPost2010PropOp56
 70
     1
102
RTVSPost2010Prop57
140
1.0
102
RTVSPost2010PropOp57
 70
     1
  0
ENDSEC
  0
EOF
