  0
SECTION
  2
HEADER
  9
$ACADVER
  1
AC1015
  9
$ACADMAINTVER
 70
     6
  9
$DWGCODEPAGE
  3
ANSI_932
  9
$INSBASE
 10
1319.420618522518
 20
362.6863661247615
 30
0.0
  9
$EXTMIN
 10
287.3904067691581
 20
6.984873354026604
 30
0.0
  9
$EXTMAX
 10
1509.222648924382
 20
1110.254444957709
 30
0.0
  9
$LIMMIN
 10
0.0
 20
0.0
  9
$LIMMAX
 10
816.5000000000001
 20
565.0
  9
$ORTHOMODE
 70
     1
  9
$REGENMODE
 70
     1
  9
$FILLMODE
 70
     1
  9
$QTEXTMODE
 70
     0
  9
$MIRRTEXT
 70
     1
  9
$LTSCALE
 40
20.0
  9
$ATTMODE
 70
     1
  9
$TEXTSIZE
 40
12.0
  9
$TRACEWID
 40
0.05
  9
$TEXTSTYLE
  7
KANJI
  9
$CLAYER
  8
2
  9
$CELTYPE
  6
BYLAYER
  9
$CECOLOR
 62
   256
  9
$CELTSCALE
 40
1.0
  9
$DISPSILH
 70
     0
  9
$DIMSCALE
 40
4.0
  9
$DIMASZ
 40
2.0
  9
$DIMEXO
 40
0.5
  9
$DIMDLI
 40
0.0
  9
$DIMRND
 40
0.0
  9
$DIMDLE
 40
0.0
  9
$DIMEXE
 40
1.0
  9
$DIMTP
 40
0.0
  9
$DIMTM
 40
0.0
  9
$DIMTXT
 40
3.0
  9
$DIMCEN
 40
0.09
  9
$DIMTSZ
 40
0.0
  9
$DIMTOL
 70
     0
  9
$DIMLIM
 70
     0
  9
$DIMTIH
 70
     0
  9
$DIMTOH
 70
     0
  9
$DIMSE1
 70
     0
  9
$DIMSE2
 70
     0
  9
$DIMTAD
 70
     0
  9
$DIMZIN
 70
     8
  9
$DIMBLK
  1

  9
$DIMASO
 70
     0
  9
$DIMSHO
 70
     0
  9
$DIMPOST
  1

  9
$DIMAPOST
  1

  9
$DIMALT
 70
     0
  9
$DIMALTD
 70
     2
  9
$DIMALTF
 40
25.4
  9
$DIMLFAC
 40
1.0
  9
$DIMTOFL
 70
     1
  9
$DIMTVP
 40
1.0
  9
$DIMTIX
 70
     1
  9
$DIMSOXD
 70
     1
  9
$DIMSAH
 70
     0
  9
$DIMBLK1
  1

  9
$DIMBLK2
  1

  9
$DIMSTYLE
  2
STANDARD
  9
$DIMCLRD
 70
   256
  9
$DIMCLRE
 70
   256
  9
$DIMCLRT
 70
   256
  9
$DIMTFAC
 40
1.0
  9
$DIMGAP
 40
0.09
  9
$DIMJUST
 70
     0
  9
$DIMSD1
 70
     0
  9
$DIMSD2
 70
     0
  9
$DIMTOLJ
 70
     1
  9
$DIMTZIN
 70
     0
  9
$DIMALTZ
 70
     0
  9
$DIMALTTZ
 70
     0
  9
$DIMUPT
 70
     0
  9
$DIMDEC
 70
     1
  9
$DIMTDEC
 70
     4
  9
$DIMALTU
 70
     2
  9
$DIMALTTD
 70
     2
  9
$DIMTXSTY
  7
STANDARD
  9
$DIMAUNIT
 70
     0
  9
$DIMADEC
 70
     0
  9
$DIMALTRND
 40
0.0
  9
$DIMAZIN
 70
     0
  9
$DIMDSEP
 70
    46
  9
$DIMATFIT
 70
     3
  9
$DIMFRAC
 70
     0
  9
$DIMLDRBLK
  1

  9
$DIMLUNIT
 70
     2
  9
$DIMLWD
 70
    -2
  9
$DIMLWE
 70
    -2
  9
$DIMTMOVE
 70
     0
  9
$LUNITS
 70
     2
  9
$LUPREC
 70
     3
  9
$SKETCHINC
 40
0.1
  9
$FILLETRAD
 40
8.0
  9
$AUNITS
 70
     0
  9
$AUPREC
 70
     3
  9
$MENU
  1
C:\R13\WIN\SUPPORT\ACADFULL
  9
$ELEVATION
 40
0.0
  9
$PELEVATION
 40
0.0
  9
$THICKNESS
 40
0.0
  9
$LIMCHECK
 70
     0
  9
$CHAMFERA
 40
0.0
  9
$CHAMFERB
 40
0.0
  9
$CHAMFERC
 40
0.0
  9
$CHAMFERD
 40
0.0
  9
$SKPOLY
 70
     0
  9
$TDCREATE
 40
2457310.726361111
  9
$TDUCREATE
 40
2457310.351361111
  9
$TDUPDATE
 40
2457871.816936447
  9
$TDUUPDATE
 40
2457871.441936447
  9
$TDINDWG
 40
0.0368220602
  9
$TDUSRTIMER
 40
0.0368210764
  9
$USRTIMER
 70
     1
  9
$ANGBASE
 50
0.0
  9
$ANGDIR
 70
     0
  9
$PDMODE
 70
     0
  9
$PDSIZE
 40
0.0
  9
$PLINEWID
 40
0.0
  9
$SPLFRAME
 70
     0
  9
$SPLINETYPE
 70
     6
  9
$SPLINESEGS
 70
     8
  9
$HANDSEED
  5
5C6
  9
$SURFTAB1
 70
     6
  9
$SURFTAB2
 70
     6
  9
$SURFTYPE
 70
     6
  9
$SURFU
 70
     6
  9
$SURFV
 70
     6
  9
$UCSBASE
  2

  9
$UCSNAME
  2

  9
$UCSORG
 10
0.0
 20
0.0
 30
0.0
  9
$UCSXDIR
 10
1.0
 20
0.0
 30
0.0
  9
$UCSYDIR
 10
0.0
 20
1.0
 30
0.0
  9
$UCSORTHOREF
  2

  9
$UCSORTHOVIEW
 70
     0
  9
$UCSORGTOP
 10
0.0
 20
0.0
 30
0.0
  9
$UCSORGBOTTOM
 10
0.0
 20
0.0
 30
0.0
  9
$UCSORGLEFT
 10
0.0
 20
0.0
 30
0.0
  9
$UCSORGRIGHT
 10
0.0
 20
0.0
 30
0.0
  9
$UCSORGFRONT
 10
0.0
 20
0.0
 30
0.0
  9
$UCSORGBACK
 10
0.0
 20
0.0
 30
0.0
  9
$PUCSBASE
  2

  9
$PUCSNAME
  2

  9
$PUCSORG
 10
0.0
 20
0.0
 30
0.0
  9
$PUCSXDIR
 10
1.0
 20
0.0
 30
0.0
  9
$PUCSYDIR
 10
0.0
 20
1.0
 30
0.0
  9
$PUCSORTHOREF
  2

  9
$PUCSORTHOVIEW
 70
     0
  9
$PUCSORGTOP
 10
0.0
 20
0.0
 30
0.0
  9
$PUCSORGBOTTOM
 10
0.0
 20
0.0
 30
0.0
  9
$PUCSORGLEFT
 10
0.0
 20
0.0
 30
0.0
  9
$PUCSORGRIGHT
 10
0.0
 20
0.0
 30
0.0
  9
$PUCSORGFRONT
 10
0.0
 20
0.0
 30
0.0
  9
$PUCSORGBACK
 10
0.0
 20
0.0
 30
0.0
  9
$USERI1
 70
     0
  9
$USERI2
 70
     0
  9
$USERI3
 70
     0
  9
$USERI4
 70
     0
  9
$USERI5
 70
     0
  9
$USERR1
 40
0.0
  9
$USERR2
 40
0.0
  9
$USERR3
 40
0.0
  9
$USERR4
 40
2448925.372986111
  9
$USERR5
 40
0.04166667
  9
$WORLDVIEW
 70
     1
  9
$SHADEDGE
 70
     3
  9
$SHADEDIF
 70
    70
  9
$TILEMODE
 70
     1
  9
$MAXACTVP
 70
    16
  9
$PINSBASE
 10
0.0
 20
0.0
 30
0.0
  9
$PLIMCHECK
 70
     0
  9
$PEXTMIN
 10
1.000000000000000E+20
 20
1.000000000000000E+20
 30
1.000000000000000E+20
  9
$PEXTMAX
 10
-1.000000000000000E+20
 20
-1.000000000000000E+20
 30
-1.000000000000000E+20
  9
$PLIMMIN
 10
0.0
 20
0.0
  9
$PLIMMAX
 10
12.0
 20
9.0
  9
$UNITMODE
 70
     0
  9
$VISRETAIN
 70
     0
  9
$PLINEGEN
 70
     0
  9
$PSLTSCALE
 70
     0
  9
$TREEDEPTH
 70
  3020
  9
$CMLSTYLE
  2
STANDARD
  9
$CMLJUST
 70
     0
  9
$CMLSCALE
 40
1.0
  9
$PROXYGRAPHICS
 70
     1
  9
$MEASUREMENT
 70
     0
  9
$CELWEIGHT
370
    -1
  9
$ENDCAPS
280
     0
  9
$JOINSTYLE
280
     0
  9
$LWDISPLAY
290
     0
  9
$INSUNITS
 70
     0
  9
$HYPERLINKBASE
  1

  9
$STYLESHEET
  1

  9
$XEDIT
290
     1
  9
$CEPSNTYPE
380
     0
  9
$PSTYLEMODE
290
     1
  9
$FINGERPRINTGUID
  2
{42FF31F4-45C9-45A6-A6C4-C9C3257977B9}
  9
$VERSIONGUID
  2
{2DA633FD-868A-45D1-866E-FF8123E64EC0}
  9
$EXTNAMES
290
     1
  9
$PSVPSCALE
 40
0.0
  9
$OLESTARTUP
290
     0
  0
ENDSEC
  0
SECTION
  2
CLASSES
  0
CLASS
  1
ACDBDICTIONARYWDFLT
  2
AcDbDictionaryWithDefault
  3
ObjectDBX Classes
 90
        0
280
     0
281
     0
  0
CLASS
  1
MATERIAL
  2
AcDbMaterial
  3
ObjectDBX Classes
 90
     1153
280
     0
281
     0
  0
CLASS
  1
SORTENTSTABLE
  2
AcDbSortentsTable
  3
ObjectDBX Classes
 90
        0
280
     0
281
     0
  0
CLASS
  1
SCALE
  2
AcDbScale
  3
ObjectDBX Classes
 90
     1153
280
     0
281
     0
  0
CLASS
  1
DICTIONARYVAR
  2
AcDbDictionaryVar
  3
ObjectDBX Classes
 90
        0
280
     0
281
     0
  0
CLASS
  1
VISUALSTYLE
  2
AcDbVisualStyle
  3
ObjectDBX Classes
 90
     4095
280
     0
281
     0
  0
CLASS
  1
MLEADERSTYLE
  2
AcDbMLeaderStyle
  3
ACDB_MLEADERSTYLE_CLASS
 90
     4095
280
     0
281
     0
  0
CLASS
  1
TABLESTYLE
  2
AcDbTableStyle
  3
ObjectDBX Classes
 90
     4095
280
     0
281
     0
  0
CLASS
  1
ACDBPLACEHOLDER
  2
AcDbPlaceHolder
  3
ObjectDBX Classes
 90
        0
280
     0
281
     0
  0
CLASS
  1
LAYOUT
  2
AcDbLayout
  3
ObjectDBX Classes
 90
        0
280
     0
281
     0
  0
ENDSEC
  0
SECTION
  2
TABLES
  0
TABLE
  2
VPORT
  5
25
102
{ACAD_XDICTIONARY
360
58B
102
}
330
0
100
AcDbSymbolTable
 70
     2
  0
VPORT
  5
2A
330
25
100
AcDbSymbolTableRecord
100
AcDbViewportTableRecord
  2
*ACTIVE
 70
     0
 10
0.0
 20
0.0
 11
1.0
 21
1.0
 12
1826.19425366886
 22
494.7298639660389
 13
0.0
 23
0.0
 14
1.0
 24
1.0
 15
50.0
 25
50.0
 16
0.0
 26
0.0
 36
1.0
 17
0.0
 27
0.0
 37
0.0
 40
1628.510782184873
 41
2.174107142857143
 42
50.0
 43
0.0
 44
0.0
 50
0.0
 51
0.0
 71
     0
 72
  5000
 73
     1
 74
     0
 75
     0
 76
     0
 77
     0
 78
     0
281
     0
 65
     1
110
0.0
120
0.0
130
0.0
111
1.0
121
0.0
131
0.0
112
0.0
122
1.0
132
0.0
 79
     0
146
0.0
  0
ENDTAB
  0
TABLE
  2
LTYPE
  5
B
330
0
100
AcDbSymbolTable
 70
     2
  0
LTYPE
  5
C
330
B
100
AcDbSymbolTableRecord
100
AcDbLinetypeTableRecord
  2
BYBLOCK
 70
     0
  3

 72
    65
 73
     0
 40
0.0
  0
LTYPE
  5
D
330
B
100
AcDbSymbolTableRecord
100
AcDbLinetypeTableRecord
  2
BYLAYER
 70
     0
  3

 72
    65
 73
     0
 40
0.0
  0
LTYPE
  5
A
330
B
100
AcDbSymbolTableRecord
100
AcDbLinetypeTableRecord
  2
CONTINUOUS
 70
     0
  3
Solid line
 72
    65
 73
     0
 40
0.0
  0
LTYPE
  5
52
330
B
100
AcDbSymbolTableRecord
100
AcDbLinetypeTableRecord
  2
CENTER
 70
     0
  3
Center ____ _ ____ _ ____ _ ____ _ ____ _ ____
 72
    65
 73
     4
 40
2.0
 49
1.25
 74
     0
 49
-0.25
 74
     0
 49
0.25
 74
     0
 49
-0.25
 74
     0
  0
ENDTAB
  0
TABLE
  2
LAYER
  5
2
330
0
100
AcDbSymbolTable
 70
     7
  0
LAYER
  5
1B
330
2
100
AcDbSymbolTableRecord
100
AcDbLayerTableRecord
  2
0
 70
     0
 62
     7
  6
CONTINUOUS
370
    -3
390
3
  0
LAYER
  5
106
330
2
100
AcDbSymbolTableRecord
100
AcDbLayerTableRecord
  2
1
 70
     0
 62
     9
  6
CONTINUOUS
370
    -3
390
3
  0
LAYER
  5
1
330
2
100
AcDbSymbolTableRecord
100
AcDbLayerTableRecord
  2
2
 70
     0
 62
     4
  6
CONTINUOUS
370
    -3
390
3
  0
LAYER
  5
9D
330
2
100
AcDbSymbolTableRecord
100
AcDbLayerTableRecord
  2
4
 70
     0
 62
     3
  6
CONTINUOUS
370
    -3
390
3
  0
LAYER
  5
51
330
2
100
AcDbSymbolTableRecord
100
AcDbLayerTableRecord
  2
L-CENTER
 70
     0
 62
     1
  6
CENTER
370
    -3
390
3
  0
LAYER
  5
55
330
2
100
AcDbSymbolTableRecord
100
AcDbLayerTableRecord
  2
3
 70
     0
 62
     2
  6
CONTINUOUS
370
    -3
390
3
  0
LAYER
  5
FE
330
2
100
AcDbSymbolTableRecord
100
AcDbLayerTableRecord
  2
5
 70
     0
 62
     6
  6
CONTINUOUS
370
    -3
390
3
  0
ENDTAB
  0
TABLE
  2
STYLE
  5
F
330
0
100
AcDbSymbolTable
 70
     2
  0
STYLE
  5
13
330
F
100
AcDbSymbolTableRecord
100
AcDbTextStyleTableRecord
  2
STANDARD
 70
     0
 40
0.0
 41
1.0
 50
0.0
 71
     0
 42
7.2
  3
TXT
  4

  0
STYLE
  5
E
330
F
100
AcDbSymbolTableRecord
100
AcDbTextStyleTableRecord
  2
KANJI
 70
     0
 40
0.0
 41
1.0
 50
0.0
 71
     0
 42
12.0
  3
TXT
  4
BIGFONT
  0
ENDTAB
  0
TABLE
  2
VIEW
  5
23
330
0
100
AcDbSymbolTable
 70
     0
  0
ENDTAB
  0
TABLE
  2
UCS
  5
24
330
0
100
AcDbSymbolTable
 70
     0
  0
ENDTAB
  0
TABLE
  2
APPID
  5
9
330
0
100
AcDbSymbolTable
 70
     3
  0
APPID
  5
8
330
9
100
AcDbSymbolTableRecord
100
AcDbRegAppTableRecord
  2
ACAD
 70
     0
  0
APPID
  5
561
330
9
100
AcDbSymbolTableRecord
100
AcDbRegAppTableRecord
  2
ACAD_PSEXT
 70
     0
  0
APPID
  5
567
330
9
100
AcDbSymbolTableRecord
100
AcDbRegAppTableRecord
  2
ACAD_MLEADERVER
 70
     0
  0
ENDTAB
  0
TABLE
  2
DIMSTYLE
  5
12
330
0
100
AcDbSymbolTable
 70
     1
100
AcDbDimStyleTable
  0
DIMSTYLE
105
11
330
12
100
AcDbSymbolTableRecord
100
AcDbDimStyleTableRecord
  2
STANDARD
 70
     0
178
     0
340
13
  0
ENDTAB
  0
TABLE
  2
BLOCK_RECORD
  5
16
330
0
100
AcDbSymbolTable
 70
     0
  0
BLOCK_RECORD
  5
17
102
{ACAD_XDICTIONARY
360
18
102
}
330
16
100
AcDbSymbolTableRecord
100
AcDbBlockTableRecord
  2
*MODEL_SPACE
340
1D
  0
BLOCK_RECORD
  5
1F
330
16
100
AcDbSymbolTableRecord
100
AcDbBlockTableRecord
  2
*PAPER_SPACE
340
22
  0
ENDTAB
  0
ENDSEC
  0
SECTION
  2
BLOCKS
  0
BLOCK
  5
1A
330
17
100
AcDbEntity
  8
0
100
AcDbBlockBegin
  2
*MODEL_SPACE
 70
     0
 10
0.0
 20
0.0
 30
0.0
  3
*MODEL_SPACE
  1

  0
ENDBLK
  5
1C
330
17
100
AcDbEntity
  8
0
100
AcDbBlockEnd
  0
BLOCK
  5
20
330
1F
100
AcDbEntity
 67
     1
  8
0
100
AcDbBlockBegin
  2
*PAPER_SPACE
 70
     0
 10
0.0
 20
0.0
 30
0.0
  3
*PAPER_SPACE
  1

  0
ENDBLK
  5
21
330
1F
100
AcDbEntity
 67
     1
  8
0
100
AcDbBlockEnd
  0
ENDSEC
  0
SECTION
  2
ENTITIES
  0
LINE
  5
50
330
17
100
AcDbEntity
  8
L-CENTER
100
AcDbLine
 10
1230.29853679218
 20
224.0105571381249
 30
0.0
 11
1189.891556792181
 21
224.0105571381249
 31
0.0
  0
LINE
  5
53
330
17
100
AcDbEntity
  8
L-CENTER
100
AcDbLine
 10
1230.29853679218
 20
502.8709131381248
 30
0.0
 11
1189.891556792181
 21
502.8709131381248
 31
0.0
  0
LINE
  5
73
330
17
100
AcDbEntity
  8
L-CENTER
100
AcDbLine
 10
287.3904067691581
 20
230.8672491381247
 30
0.0
 11
327.7973867691578
 21
230.8672491381247
 31
0.0
  0
LINE
  5
74
330
17
100
AcDbEntity
  8
L-CENTER
100
AcDbLine
 10
287.3904067691582
 20
146.0142211381248
 30
0.0
 11
327.7973867691579
 21
146.0142211381248
 31
0.0
  0
LINE
  5
76
330
17
100
AcDbEntity
  8
L-CENTER
100
AcDbLine
 10
374.8261800208121
 20
933.7870015876033
 30
0.0
 11
374.8261800208121
 21
974.8809536254766
 31
0.0
  0
LINE
  5
77
330
17
100
AcDbEntity
  8
L-CENTER
100
AcDbLine
 10
354.2792040018754
 20
954.33397760654
 30
0.0
 11
395.3731560397488
 21
954.33397760654
 31
0.0
  0
LINE
  5
9C
330
17
100
AcDbEntity
  8
4
100
AcDbLine
 10
484.8261800208118
 20
129.2142358300211
 30
0.0
 11
479.8261800208119
 21
126.327484484073
 31
0.0
  0
LINE
  5
9E
330
17
100
AcDbEntity
  8
4
100
AcDbLine
 10
489.8261800208119
 20
120.5539817921767
 30
0.0
 11
484.8261800208119
 21
117.6672304462286
 31
0.0
  0
CIRCLE
  5
9F
330
17
100
AcDbEntity
  8
4
100
AcDbCircle
 10
484.8261800208119
 20
123.4407331381249
 30
0.0
 40
10.0
  0
CIRCLE
  5
A0
330
17
100
AcDbEntity
  8
2
100
AcDbCircle
 10
484.8261800208119
 20
123.4407331381249
 30
0.0
 40
9.0
  0
LINE
  5
1D6
330
17
100
AcDbEntity
  8
4
100
AcDbLine
 10
1477.090294842867
 20
387.4407371381249
 30
0.0
 11
1477.090294842867
 21
397.4407371381249
 31
0.0
  0
LINE
  5
1D7
330
17
100
AcDbEntity
  8
4
100
AcDbLine
 10
1462.090294842867
 20
387.4407371381249
 30
0.0
 11
1462.090294842867
 21
397.4407371381249
 31
0.0
  0
LINE
  5
1D8
330
17
100
AcDbEntity
  8
4
100
AcDbLine
 10
1462.090294842867
 20
397.4407371381249
 30
0.0
 11
1477.090294842867
 21
397.4407371381249
 31
0.0
  0
LINE
  5
1D9
330
17
100
AcDbEntity
  8
4
100
AcDbLine
 10
1462.090294842867
 20
387.4407371381249
 30
0.0
 11
1477.090294842867
 21
387.4407371381249
 31
0.0
  0
LINE
  5
1DE
330
17
100
AcDbEntity
  8
L-CENTER
100
AcDbLine
 10
1469.590294842867
 20
323.8083830566101
 30
0.0
 11
1469.590294842867
 21
403.0730912196397
 31
0.0
  0
LINE
  5
1EE
330
17
100
AcDbEntity
  8
L-CENTER
100
AcDbLine
 10
1509.222648924382
 20
363.4407371381249
 30
0.0
 11
1429.957940761352
 21
363.4407371381249
 31
0.0
  0
ARC
  5
1F1
330
17
100
AcDbEntity
  8
4
100
AcDbCircle
 10
1469.590294842867
 20
363.4407371381249
 30
0.0
 40
29.000036
100
AcDbArc
 50
104.9882154398834
 51
75.01178500000007
  0
LINE
  5
1F6
330
17
100
AcDbEntity
  8
4
100
AcDbLine
 10
1231.262859540527
 20
468.440737138125
 30
0.0
 11
1231.262859540527
 21
508.440737138125
 31
0.0
  0
ARC
  5
1F8
330
17
100
AcDbEntity
  8
4
100
AcDbCircle
 10
1131.362859540526
 20
587.4408067109355
 30
0.0
 40
5.0
100
AcDbArc
 50
0.0
 51
180.0
  0
ARC
  5
1F9
330
17
100
AcDbEntity
  8
4
100
AcDbCircle
 10
1216.662859540526
 20
534.440737138125
 30
0.0
 40
1.0
100
AcDbArc
 50
0.0
 51
90.0
  0
ARC
  5
1FA
330
17
100
AcDbEntity
  8
4
100
AcDbCircle
 10
1216.662859540526
 20
534.440737138125
 30
0.0
 40
1.0
100
AcDbArc
 50
0.0
 51
90.0
  0
LINE
  5
1FB
330
17
100
AcDbEntity
  8
4
100
AcDbLine
 10
1217.662859540526
 20
534.440737138125
 30
0.0
 11
1217.662859540526
 21
513.440737138125
 31
0.0
  0
LINE
  5
1FC
330
17
100
AcDbEntity
  8
4
100
AcDbLine
 10
1205.362859540526
 20
535.4407371381251
 30
0.0
 11
1204.362859540518
 21
535.4407371381251
 31
0.0
  0
ARC
  5
1FD
330
17
100
AcDbEntity
  8
4
100
AcDbCircle
 10
1202.362859540526
 20
536.4407371381249
 30
0.0
 40
1.0
100
AcDbArc
 50
0.0
 51
90.0
  0
ARC
  5
1FE
330
17
100
AcDbEntity
  8
4
100
AcDbCircle
 10
1204.362859540518
 20
536.4407371381251
 30
0.0
 40
1.0
100
AcDbArc
 50
180.0
 51
270.0
  0
LINE
  5
1FF
330
17
100
AcDbEntity
  8
4
100
AcDbLine
 10
1205.662859540526
 20
535.440737138125
 30
0.0
 11
1205.662859540526
 21
516.440737138125
 31
0.0
  0
LINE
  5
200
330
17
100
AcDbEntity
  8
4
100
AcDbLine
 10
1216.662859540526
 20
535.440737138125
 30
0.0
 11
1205.362859540527
 21
535.440737138125
 31
0.0
  0
LINE
  5
201
330
17
100
AcDbEntity
  8
4
100
AcDbLine
 10
1216.662859540526
 20
535.440737138125
 30
0.0
 11
1206.686570398252
 21
535.440737138125
 31
0.0
  0
LINE
  5
202
330
17
100
AcDbEntity
  8
4
100
AcDbLine
 10
1227.162763540526
 20
495.5096972059571
 30
0.0
 11
1227.162763540526
 21
510.2321290702926
 31
0.0
  0
ARC
  5
203
330
17
100
AcDbEntity
  8
4
100
AcDbCircle
 10
1213.383598243067
 20
502.8709131381248
 30
0.0
 40
13.77916529745958
100
AcDbArc
 50
339.1359356360799
 51
20.86406436392003
  0
LINE
  5
204
330
17
100
AcDbEntity
  8
4
100
AcDbLine
 10
1220.162763540526
 20
512.6858677143484
 30
0.0
 11
1220.162763540526
 21
493.0559585619012
 31
0.0
  0
LINE
  5
205
330
17
100
AcDbEntity
  8
4
100
AcDbLine
 10
1217.662763540526
 20
512.6858677143484
 30
0.0
 11
1217.662763540526
 21
493.0559585619012
 31
0.0
  0
LINE
  5
206
330
17
100
AcDbEntity
  8
4
100
AcDbLine
 10
1217.662763540526
 20
493.0559585619012
 30
0.0
 11
1226.259236594674
 21
493.0559585619012
 31
0.0
  0
LINE
  5
207
330
17
100
AcDbEntity
  8
4
100
AcDbLine
 10
1226.259236594674
 20
497.963435850013
 30
0.0
 11
1220.162763540526
 21
497.963435850013
 31
0.0
  0
ARC
  5
208
330
17
100
AcDbEntity
  8
4
100
AcDbCircle
 10
1223.379149611467
 20
495.5096972059571
 30
0.0
 40
3.783613929059507
100
AcDbArc
 50
319.5701031551734
 51
40.42989684482659
  0
ARC
  5
209
330
17
100
AcDbEntity
  8
4
100
AcDbCircle
 10
1223.379149611467
 20
510.2321290702926
 30
0.0
 40
3.783613929059507
100
AcDbArc
 50
319.5701031551734
 51
40.42989684482659
  0
LINE
  5
20A
330
17
100
AcDbEntity
  8
4
100
AcDbLine
 10
1226.259236594674
 20
512.6858677143484
 30
0.0
 11
1217.662763540526
 21
512.6858677143484
 31
0.0
  0
LINE
  5
20B
330
17
100
AcDbEntity
  8
4
100
AcDbLine
 10
1226.259236594674
 20
507.7783904262367
 30
0.0
 11
1220.162763540526
 21
507.7783904262367
 31
0.0
  0
LINE
  5
20C
330
17
100
AcDbEntity
  8
4
100
AcDbLine
 10
1151.281319540526
 20
548.4407371381249
 30
0.0
 11
1151.281319540526
 21
553.4407371381249
 31
0.0
  0
LINE
  5
20D
330
17
100
AcDbEntity
  8
4
100
AcDbLine
 10
1143.862859540526
 20
548.4407371381249
 30
0.0
 11
1154.362859540526
 21
548.4407371381249
 31
0.0
  0
LINE
  5
20F
330
17
100
AcDbEntity
  8
4
100
AcDbLine
 10
1156.362859540526
 20
537.4407371381249
 30
0.0
 11
1156.362859540526
 21
542.4407371381249
 31
0.0
  0
LINE
  5
210
330
17
100
AcDbEntity
  8
4
100
AcDbLine
 10
1151.362859540526
 20
541.4407371381249
 30
0.0
 11
1151.362859540526
 21
539.4407371381249
 31
0.0
  0
LINE
  5
211
330
17
100
AcDbEntity
  8
4
100
AcDbLine
 10
1152.362859540526
 20
542.4407371381249
 30
0.0
 11
1152.362859540526
 21
544.4407371381249
 31
0.0
  0
LINE
  5
212
330
17
100
AcDbEntity
  8
4
100
AcDbLine
 10
1151.362859540526
 20
539.4407371381249
 30
0.0
 11
1151.362859540526
 21
541.4407371381251
 31
0.0
  0
ARC
  5
213
330
17
100
AcDbEntity
  8
4
100
AcDbCircle
 10
1153.362859540526
 20
539.4407371381249
 30
0.0
 40
2.0
100
AcDbArc
 50
180.0
 51
270.0
  0
LINE
  5
214
330
17
100
AcDbEntity
  8
4
100
AcDbLine
 10
1143.862859540526
 20
544.4407371381249
 30
0.0
 11
1154.362859540526
 21
544.4407371381249
 31
0.0
  0
LINE
  5
215
330
17
100
AcDbEntity
  8
4
100
AcDbLine
 10
1143.862859540526
 20
542.4407371381249
 30
0.0
 11
1156.362859540526
 21
542.4407371381249
 31
0.0
  0
LINE
  5
216
330
17
100
AcDbEntity
  8
4
100
AcDbLine
 10
1143.862859540526
 20
541.4408067109355
 30
0.0
 11
1143.862859540526
 21
550.4408067109355
 31
0.0
  0
LINE
  5
217
330
17
100
AcDbEntity
  8
4
100
AcDbLine
 10
1154.362859540526
 20
544.4407371381249
 30
0.0
 11
1154.362859540526
 21
548.4407371381249
 31
0.0
  0
LINE
  5
218
330
17
100
AcDbEntity
  8
4
100
AcDbLine
 10
1111.444159540526
 20
548.4407371381249
 30
0.0
 11
1111.444159540526
 21
553.4407371381249
 31
0.0
  0
LINE
  5
219
330
17
100
AcDbEntity
  8
4
100
AcDbLine
 10
1108.362859540526
 20
548.4407371381249
 30
0.0
 11
1118.862859540526
 21
548.4407371381249
 31
0.0
  0
LINE
  5
21A
330
17
100
AcDbEntity
  8
4
100
AcDbLine
 10
1126.362859540526
 20
553.4407371381249
 30
0.0
 11
1111.444159540526
 21
553.4407371381249
 31
0.0
  0
LINE
  5
21B
330
17
100
AcDbEntity
  8
4
100
AcDbLine
 10
1126.362859540526
 20
551.6405107109354
 30
0.0
 11
1118.862859540526
 21
550.4408067109355
 31
0.0
  0
LINE
  5
21C
330
17
100
AcDbEntity
  8
4
100
AcDbLine
 10
1126.362859540526
 20
550.4408067109355
 30
0.0
 11
1118.862859540526
 21
550.4408067109355
 31
0.0
  0
LINE
  5
21D
330
17
100
AcDbEntity
  8
4
100
AcDbLine
 10
1108.362859540526
 20
544.4407371381249
 30
0.0
 11
1118.862859540526
 21
544.4407371381249
 31
0.0
  0
LINE
  5
21E
330
17
100
AcDbEntity
  8
4
100
AcDbLine
 10
1111.362859540526
 20
541.4407371381249
 30
0.0
 11
1111.362859540526
 21
539.4407371381251
 31
0.0
  0
LINE
  5
21F
330
17
100
AcDbEntity
  8
4
100
AcDbLine
 10
1110.362859540526
 20
542.4407371381249
 30
0.0
 11
1110.362859540526
 21
544.4407371381249
 31
0.0
  0
LINE
  5
220
330
17
100
AcDbEntity
  8
4
100
AcDbLine
 10
1111.362859540526
 20
539.4407371381251
 30
0.0
 11
1111.362859540526
 21
541.4407371381251
 31
0.0
  0
ARC
  5
221
330
17
100
AcDbEntity
  8
4
100
AcDbCircle
 10
1109.362859540526
 20
539.4407371381251
 30
0.0
 40
2.0
100
AcDbArc
 50
270.0
 51
0.0
  0
LINE
  5
222
330
17
100
AcDbEntity
  8
4
100
AcDbLine
 10
1118.862859540526
 20
541.4408067109355
 30
0.0
 11
1118.862859540526
 21
550.4408067109355
 31
0.0
  0
LINE
  5
223
330
17
100
AcDbEntity
  8
4
100
AcDbLine
 10
1108.362859540526
 20
544.4407371381249
 30
0.0
 11
1108.362859540526
 21
548.4407371381249
 31
0.0
  0
LINE
  5
224
330
17
100
AcDbEntity
  8
4
100
AcDbLine
 10
1111.362859540526
 20
541.4407371381249
 30
0.0
 11
1151.362859540526
 21
541.4407371381249
 31
0.0
  0
LINE
  5
225
330
17
100
AcDbEntity
  8
L-CENTER
100
AcDbLine
 10
1143.787565558616
 20
567.4408067109355
 30
0.0
 11
1118.938153522435
 21
567.4408067109355
 31
0.0
  0
LINE
  5
226
330
17
100
AcDbEntity
  8
4
100
AcDbLine
 10
1136.362859540526
 20
551.6405107109354
 30
0.0
 11
1143.862859540526
 21
550.4408067109355
 31
0.0
  0
LINE
  5
227
330
17
100
AcDbEntity
  8
4
100
AcDbLine
 10
1136.362859540526
 20
550.4408067109355
 30
0.0
 11
1143.862859540526
 21
550.4408067109355
 31
0.0
  0
LINE
  5
228
330
17
100
AcDbEntity
  8
4
100
AcDbLine
 10
1136.362859540526
 20
553.4407371381249
 30
0.0
 11
1151.281319540526
 21
553.4407371381249
 31
0.0
  0
LINE
  5
229
330
17
100
AcDbEntity
  8
4
100
AcDbLine
 10
1151.362859540526
 20
541.4407371381249
 30
0.0
 11
1111.362859540526
 21
541.4407371381251
 31
0.0
  0
LINE
  5
22A
330
17
100
AcDbEntity
  8
4
100
AcDbLine
 10
1202.362859540526
 20
537.4407371381249
 30
0.0
 11
1060.362859540538
 21
537.4407371381249
 31
0.0
  0
LINE
  5
22B
330
17
100
AcDbEntity
  8
4
100
AcDbLine
 10
1126.362859540526
 20
550.7900881871074
 30
0.0
 11
1126.362859540526
 21
587.4408067109355
 31
0.0
  0
LINE
  5
22C
330
17
100
AcDbEntity
  8
4
100
AcDbLine
 10
1136.362859540526
 20
550.7900881871074
 30
0.0
 11
1136.362859540526
 21
587.4408067109355
 31
0.0
  0
LINE
  5
22E
330
17
100
AcDbEntity
  8
4
100
AcDbLine
 10
1106.362859540526
 20
537.4407371381249
 30
0.0
 11
1106.362859540526
 21
542.4407371381249
 31
0.0
  0
LINE
  5
22F
330
17
100
AcDbEntity
  8
4
100
AcDbLine
 10
1048.362859540526
 20
535.4407371381249
 30
0.0
 11
1058.362859540526
 21
535.4407371381249
 31
0.0
  0
LINE
  5
230
330
17
100
AcDbEntity
  8
4
100
AcDbLine
 10
1057.362859540527
 20
535.4407371381251
 30
0.0
 11
1058.362859540526
 21
535.4407371381251
 31
0.0
  0
LINE
  5
231
330
17
100
AcDbEntity
  8
4
100
AcDbLine
 10
1059.362859540527
 20
535.4407371381251
 30
0.0
 11
1059.362859540527
 21
535.4407371381249
 31
0.0
  0
ARC
  5
232
330
17
100
AcDbEntity
  8
4
100
AcDbCircle
 10
1058.362859540526
 20
536.4407371381249
 30
0.0
 40
1.0
100
AcDbArc
 50
270.0
 51
0.0
  0
ARC
  5
233
330
17
100
AcDbEntity
  8
4
100
AcDbCircle
 10
1060.362859540538
 20
536.4407371381246
 30
0.0
 40
1.0
100
AcDbArc
 50
90.0
 51
180.0
  0
LINE
  5
234
330
17
100
AcDbEntity
  8
4
100
AcDbLine
 10
1106.362859540526
 20
542.4407371381249
 30
0.0
 11
1118.862859540526
 21
542.4407371381249
 31
0.0
  0
LINE
  5
23B
330
17
100
AcDbEntity
  8
4
100
AcDbLine
 10
1231.262859540527
 20
508.440737138125
 30
0.0
 11
1227.162763540526
 21
508.4407371381249
 31
0.0
  0
LINE
  5
23C
330
17
100
AcDbEntity
  8
4
100
AcDbLine
 10
1370.362859540526
 20
392.4407371381249
 30
0.0
 11
1371.362859540526
 21
391.4407371381249
 31
0.0
  0
LINE
  5
23E
330
17
100
AcDbEntity
  8
4
100
AcDbLine
 10
1371.362859540526
 20
335.4407371381249
 30
0.0
 11
1370.362859540526
 21
334.4407371381249
 31
0.0
  0
LINE
  5
23F
330
17
100
AcDbEntity
  8
4
100
AcDbLine
 10
1370.362859540526
 20
334.4407371381249
 30
0.0
 11
1370.362859540526
 21
392.4407371381249
 31
0.0
  0
LINE
  5
240
330
17
100
AcDbEntity
  8
4
100
AcDbLine
 10
1371.362859540526
 20
335.4407371381249
 30
0.0
 11
1371.362859540526
 21
397.4407371381249
 31
0.0
  0
LINE
  5
243
330
17
100
AcDbEntity
  8
4
100
AcDbLine
 10
1281.362859540526
 20
392.4407371381249
 30
0.0
 11
1281.362859540526
 21
397.4407371381249
 31
0.0
  0
LINE
  5
244
330
17
100
AcDbEntity
  8
4
100
AcDbLine
 10
1262.262615540526
 20
393.4407371381249
 30
0.0
 11
1271.362859540526
 21
393.4407371381249
 31
0.0
  0
LINE
  5
245
330
17
100
AcDbEntity
  8
4
100
AcDbLine
 10
1260.505395165563
 20
416.6301032318657
 30
0.0
 11
1248.629056268953
 21
419.5991879560182
 31
0.0
  0
ARC
  5
246
330
17
100
AcDbEntity
  8
4
100
AcDbCircle
 10
1260.262859540527
 20
415.6599607317204
 30
0.0
 40
1.0
100
AcDbArc
 50
0.0
 51
75.96375653207984
  0
ARC
  5
247
330
17
100
AcDbEntity
  8
4
100
AcDbCircle
 10
1249.114127519026
 20
421.5394729563088
 30
0.0
 40
2.0
100
AcDbArc
 50
198.7669876142554
 51
255.9637565320731
  0
LINE
  5
248
330
17
100
AcDbEntity
  8
4
100
AcDbLine
 10
1262.262615540526
 20
405.9407371381247
 30
0.0
 11
1261.262859540526
 21
405.9407371381247
 31
0.0
  0
LINE
  5
249
330
17
100
AcDbEntity
  8
4
100
AcDbLine
 10
1271.362859540526
 20
333.4407371381249
 30
0.0
 11
1262.262615540526
 21
333.440737138125
 31
0.0
  0
LINE
  5
24A
330
17
100
AcDbEntity
  8
4
100
AcDbLine
 10
1262.262615540526
 20
363.4407371381249
 30
0.0
 11
1262.262615540526
 21
322.4407371381249
 31
0.0
  0
LINE
  5
24B
330
17
100
AcDbEntity
  8
4
100
AcDbLine
 10
1260.505395165563
 20
310.251371044384
 30
0.0
 11
1248.629056268953
 21
307.2822863202317
 31
0.0
  0
ARC
  5
24C
330
17
100
AcDbEntity
  8
4
100
AcDbCircle
 10
1260.262859540527
 20
311.2215135445293
 30
0.0
 40
1.0
100
AcDbArc
 50
284.0362434679201
 51
0.0
  0
ARC
  5
24D
330
17
100
AcDbEntity
  8
4
100
AcDbCircle
 10
1249.114127519026
 20
305.342001319941
 30
0.0
 40
2.0
100
AcDbArc
 50
104.0362434679269
 51
161.2330123857446
  0
LINE
  5
24E
330
17
100
AcDbEntity
  8
4
100
AcDbLine
 10
1262.262615540526
 20
320.9407371381249
 30
0.0
 11
1261.262859540526
 21
320.9407371381249
 31
0.0
  0
LINE
  5
24F
330
17
100
AcDbEntity
  8
4
100
AcDbLine
 10
1271.362859540526
 20
393.4407371381249
 30
0.0
 11
1271.362859540526
 21
333.4407371381249
 31
0.0
  0
LINE
  5
250
330
17
100
AcDbEntity
  8
4
100
AcDbLine
 10
1262.262615540526
 20
320.9407371381249
 30
0.0
 11
1262.262615540526
 21
405.9407371381247
 31
0.0
  0
LINE
  5
251
330
17
100
AcDbEntity
  8
4
100
AcDbLine
 10
1261.262859540527
 20
311.2215135445293
 30
0.0
 11
1261.262859540527
 21
415.6599607317204
 31
0.0
  0
LINE
  5
252
330
17
100
AcDbEntity
  8
4
100
AcDbLine
 10
1247.442966365265
 20
306.4407371381247
 30
0.0
 11
1247.442966365266
 21
420.4407371381249
 31
0.0
  0
LINE
  5
253
330
17
100
AcDbEntity
  8
4
100
AcDbLine
 10
1231.26285954053
 20
258.4407371381246
 30
0.0
 11
1231.262859540531
 21
218.4407371381246
 31
0.0
  0
LINE
  5
254
330
17
100
AcDbEntity
  8
4
100
AcDbLine
 10
1370.362859540526
 20
334.4407371381249
 30
0.0
 11
1271.362859540526
 21
334.4407371381249
 31
0.0
  0
LINE
  5
255
330
17
100
AcDbEntity
  8
4
100
AcDbLine
 10
1271.362859540526
 20
392.4407371381249
 30
0.0
 11
1370.362859540526
 21
392.4407371381249
 31
0.0
  0
LINE
  5
256
330
17
100
AcDbEntity
  8
4
100
AcDbLine
 10
1281.362859540526
 20
397.4407371381249
 30
0.0
 11
1371.362859540526
 21
397.4407371381249
 31
0.0
  0
ARC
  5
257
330
17
100
AcDbEntity
  8
4
100
AcDbCircle
 10
1249.362859540526
 20
113.9407371381249
 30
0.0
 40
2.0
100
AcDbArc
 50
0.0
 51
90.0
  0
LINE
  5
258
330
17
100
AcDbEntity
  8
4
100
AcDbLine
 10
1251.362859540526
 20
113.9407371381249
 30
0.0
 11
1251.362859540526
 21
78.44073713812492
 31
0.0
  0
LINE
  5
259
330
17
100
AcDbEntity
  8
4
100
AcDbLine
 10
1227.162763540526
 20
356.0795212059571
 30
0.0
 11
1227.162763540526
 21
370.8019530702926
 31
0.0
  0
ARC
  5
25A
330
17
100
AcDbEntity
  8
4
100
AcDbCircle
 10
1213.383598243067
 20
363.4407371381249
 30
0.0
 40
13.77916529745958
100
AcDbArc
 50
339.1359356360799
 51
20.86406436392003
  0
LINE
  5
25B
330
17
100
AcDbEntity
  8
4
100
AcDbLine
 10
1220.162763540526
 20
373.2556917143485
 30
0.0
 11
1220.162763540526
 21
353.6257825619012
 31
0.0
  0
LINE
  5
25C
330
17
100
AcDbEntity
  8
4
100
AcDbLine
 10
1217.662763540526
 20
373.2556917143485
 30
0.0
 11
1217.662763540526
 21
353.6257825619012
 31
0.0
  0
LINE
  5
25D
330
17
100
AcDbEntity
  8
4
100
AcDbLine
 10
1217.662763540526
 20
353.6257825619012
 30
0.0
 11
1226.259236594674
 21
353.6257825619012
 31
0.0
  0
LINE
  5
25E
330
17
100
AcDbEntity
  8
4
100
AcDbLine
 10
1226.259236594674
 20
358.533259850013
 30
0.0
 11
1220.162763540526
 21
358.533259850013
 31
0.0
  0
ARC
  5
25F
330
17
100
AcDbEntity
  8
4
100
AcDbCircle
 10
1223.379149611467
 20
356.0795212059571
 30
0.0
 40
3.783613929059507
100
AcDbArc
 50
319.5701031551734
 51
40.42989684482659
  0
ARC
  5
260
330
17
100
AcDbEntity
  8
4
100
AcDbCircle
 10
1223.379149611467
 20
370.8019530702926
 30
0.0
 40
3.783613929059507
100
AcDbArc
 50
319.5701031551734
 51
40.42989684482659
  0
LINE
  5
261
330
17
100
AcDbEntity
  8
4
100
AcDbLine
 10
1226.259236594674
 20
373.2556917143485
 30
0.0
 11
1217.662763540526
 21
373.2556917143485
 31
0.0
  0
LINE
  5
262
330
17
100
AcDbEntity
  8
4
100
AcDbLine
 10
1226.259236594674
 20
368.3482144262367
 30
0.0
 11
1220.162763540526
 21
368.3482144262367
 31
0.0
  0
LINE
  5
263
330
17
100
AcDbEntity
  8
4
100
AcDbLine
 10
1227.162763540526
 20
216.6493412059572
 30
0.0
 11
1227.162763540526
 21
231.3717730702926
 31
0.0
  0
ARC
  5
264
330
17
100
AcDbEntity
  8
4
100
AcDbCircle
 10
1213.383598243067
 20
224.0105571381249
 30
0.0
 40
13.77916529745958
100
AcDbArc
 50
339.1359356360799
 51
20.86406436392014
  0
LINE
  5
265
330
17
100
AcDbEntity
  8
4
100
AcDbLine
 10
1220.162763540526
 20
233.8255117143485
 30
0.0
 11
1220.162763540526
 21
214.1956025619013
 31
0.0
  0
LINE
  5
266
330
17
100
AcDbEntity
  8
4
100
AcDbLine
 10
1217.662763540526
 20
233.8255117143485
 30
0.0
 11
1217.662763540526
 21
214.1956025619013
 31
0.0
  0
LINE
  5
267
330
17
100
AcDbEntity
  8
4
100
AcDbLine
 10
1217.662763540526
 20
214.1956025619013
 30
0.0
 11
1226.259236594674
 21
214.1956025619013
 31
0.0
  0
LINE
  5
268
330
17
100
AcDbEntity
  8
4
100
AcDbLine
 10
1226.259236594674
 20
219.103079850013
 30
0.0
 11
1220.162763540526
 21
219.103079850013
 31
0.0
  0
ARC
  5
269
330
17
100
AcDbEntity
  8
4
100
AcDbCircle
 10
1223.379149611467
 20
216.6493412059572
 30
0.0
 40
3.783613929059507
100
AcDbArc
 50
319.5701031551737
 51
40.42989684482627
  0
ARC
  5
26A
330
17
100
AcDbEntity
  8
4
100
AcDbCircle
 10
1223.379149611467
 20
231.3717730702926
 30
0.0
 40
3.783613929059507
100
AcDbArc
 50
319.5701031551737
 51
40.42989684482627
  0
LINE
  5
26B
330
17
100
AcDbEntity
  8
4
100
AcDbLine
 10
1226.259236594674
 20
233.8255117143485
 30
0.0
 11
1217.662763540526
 21
233.8255117143485
 31
0.0
  0
LINE
  5
26C
330
17
100
AcDbEntity
  8
4
100
AcDbLine
 10
1226.259236594674
 20
228.9180344262368
 30
0.0
 11
1220.162763540526
 21
228.9180344262368
 31
0.0
  0
ARC
  5
26D
330
17
100
AcDbEntity
  8
4
100
AcDbCircle
 10
1216.662859540526
 20
192.4407371381249
 30
0.0
 40
1.0
100
AcDbArc
 50
270.0
 51
0.0
  0
LINE
  5
26E
330
17
100
AcDbEntity
  8
4
100
AcDbLine
 10
1205.362859540526
 20
191.4407371381249
 30
0.0
 11
1204.362859540518
 21
191.4407371381249
 31
0.0
  0
LINE
  5
26F
330
17
100
AcDbEntity
  8
4
100
AcDbLine
 10
1203.362859540526
 20
189.440737138125
 30
0.0
 11
1203.316806908947
 21
189.440737138125
 31
0.0
  0
LINE
  5
270
330
17
100
AcDbEntity
  8
4
100
AcDbLine
 10
1216.662859540526
 20
191.4407371381249
 30
0.0
 11
1205.362859540526
 21
191.4407371381249
 31
0.0
  0
LINE
  5
271
330
17
100
AcDbEntity
  8
4
100
AcDbLine
 10
1180.729622373215
 20
223.9270013450755
 30
0.0
 11
1171.24910563285
 21
221.3867092818565
 31
0.0
  0
LINE
  5
272
330
17
100
AcDbEntity
  8
4
100
AcDbLine
 10
1180.729622373215
 20
223.9270013450755
 30
0.0
 11
1183.269915771753
 21
233.4075053745531
 31
0.0
  0
LINE
  5
273
330
17
100
AcDbEntity
  8
4
100
AcDbLine
 10
1183.269915771753
 20
233.4075053745531
 30
0.0
 11
1176.329693465204
 21
240.347721204515
 31
0.0
  0
LINE
  5
274
330
17
100
AcDbEntity
  8
4
100
AcDbLine
 10
1136.362859540526
 20
209.9407331381249
 30
0.0
 11
1126.362859540526
 21
209.9407331381249
 31
0.0
  0
LINE
  5
275
330
17
100
AcDbEntity
  8
4
100
AcDbLine
 10
1126.362859540526
 20
201.9407331381249
 30
0.0
 11
1136.362859540526
 21
201.9407331381249
 31
0.0
  0
LINE
  5
276
330
17
100
AcDbEntity
  8
4
100
AcDbLine
 10
1126.362859540526
 20
201.9407331381249
 30
0.0
 11
1126.362859540526
 21
209.9407331381249
 31
0.0
  0
LINE
  5
277
330
17
100
AcDbEntity
  8
4
100
AcDbLine
 10
1136.362859540526
 20
201.9407331381249
 30
0.0
 11
1136.362859540526
 21
209.9407331381249
 31
0.0
  0
ARC
  5
278
330
17
100
AcDbEntity
  8
4
100
AcDbCircle
 10
1131.362859540526
 20
188.4407331381249
 30
0.0
 40
17.999924
100
AcDbArc
 50
106.1284659999998
 51
73.87228000000036
  0
LINE
  5
279
330
17
100
AcDbEntity
  8
4
100
AcDbLine
 10
1164.308883326301
 20
228.3269251118184
 30
0.0
 11
1166.849176724839
 21
237.807429141296
 31
0.0
  0
LINE
  5
27A
330
17
100
AcDbEntity
  8
4
100
AcDbLine
 10
1176.329693465204
 20
240.347721204515
 30
0.0
 11
1166.849176724839
 21
237.807429141296
 31
0.0
  0
CIRCLE
  5
27B
330
17
100
AcDbEntity
  8
4
100
AcDbCircle
 10
1173.789400066665
 20
230.8672171750375
 30
0.0
 40
8.5
  0
LINE
  5
27C
330
17
100
AcDbEntity
  8
L-CENTER
100
AcDbLine
 10
1185.530831540525
 20
242.6087051381248
 30
0.0
 11
1162.04780676136
 21
219.1256803589595
 31
0.0
  0
LINE
  5
27D
330
17
100
AcDbEntity
  8
4
100
AcDbLine
 10
1171.24910563285
 20
221.3867092818565
 30
0.0
 11
1164.308883326301
 21
228.3269251118184
 31
0.0
  0
ARC
  5
27E
330
17
100
AcDbEntity
  8
4
100
AcDbCircle
 10
1002.362859540522
 20
415.6209332353986
 30
0.0
 40
1.0
100
AcDbArc
 50
101.309932474024
 51
180.0
  0
LINE
  5
27F
330
17
100
AcDbEntity
  8
4
100
AcDbLine
 10
1021.362859540521
 20
420.4407371381184
 30
0.0
 11
1002.166743405384
 21
416.6015139110895
 31
0.0
  0
LINE
  5
280
330
17
100
AcDbEntity
  8
4
100
AcDbLine
 10
1021.362859540526
 20
306.4407371381251
 30
0.0
 11
1021.362859540526
 21
363.4407371381249
 31
0.0
  0
ARC
  5
281
330
17
100
AcDbEntity
  8
4
100
AcDbCircle
 10
1002.362859540527
 20
311.2605410408432
 30
0.0
 40
1.0
100
AcDbArc
 50
180.0
 51
258.690067525976
  0
LINE
  5
282
330
17
100
AcDbEntity
  8
4
100
AcDbLine
 10
1021.362859540526
 20
306.4407371381251
 30
0.0
 11
1002.166743405388
 21
310.2799603651524
 31
0.0
  0
LINE
  5
283
330
17
100
AcDbEntity
  8
4
100
AcDbLine
 10
1021.362859540526
 20
310.4407371381249
 30
0.0
 11
1021.362859540526
 21
420.4407371381194
 31
0.0
  0
LINE
  5
284
330
17
100
AcDbEntity
  8
4
100
AcDbLine
 10
1001.362859540527
 20
311.2605410408432
 30
0.0
 11
1001.362859540527
 21
415.6209332353986
 31
0.0
  0
LINE
  5
285
330
17
100
AcDbEntity
  8
4
100
AcDbLine
 10
1021.362859540526
 20
320.0811402347877
 30
0.0
 11
1047.362859540526
 21
328.9087279394112
 31
0.0
  0
LINE
  5
286
330
17
100
AcDbEntity
  8
4
100
AcDbLine
 10
1021.362859540526
 20
321.1372063305614
 30
0.0
 11
1047.362859540526
 21
329.9647940351852
 31
0.0
  0
LINE
  5
287
330
17
100
AcDbEntity
  8
4
100
AcDbLine
 10
1021.362859540522
 20
405.7442679456821
 30
0.0
 11
1047.362859540523
 21
396.9166802410606
 31
0.0
  0
LINE
  5
288
330
17
100
AcDbEntity
  8
4
100
AcDbLine
 10
1021.684357035217
 20
406.6911783748699
 30
0.0
 11
1047.362859540523
 21
397.9727463368346
 31
0.0
  0
LINE
  5
289
330
17
100
AcDbEntity
  8
4
100
AcDbLine
 10
1095.876546805702
 20
237.8074297270823
 30
0.0
 11
1086.396030065337
 21
240.3477217903012
 31
0.0
  0
LINE
  5
28A
330
17
100
AcDbEntity
  8
4
100
AcDbLine
 10
1091.47661789769
 20
221.3867098676428
 30
0.0
 11
1081.996101157326
 21
223.9270019308617
 31
0.0
  0
LINE
  5
28B
330
17
100
AcDbEntity
  8
4
100
AcDbLine
 10
1081.996101157326
 20
223.9270019308617
 30
0.0
 11
1079.455807758787
 21
233.4075059603394
 31
0.0
  0
LINE
  5
28C
330
17
100
AcDbEntity
  8
4
100
AcDbLine
 10
1098.41684020424
 20
228.3269256976046
 30
0.0
 11
1091.47661789769
 21
221.3867098676428
 31
0.0
  0
LINE
  5
28D
330
17
100
AcDbEntity
  8
4
100
AcDbLine
 10
1048.362859540526
 20
191.440733138125
 30
0.0
 11
1058.365687964778
 21
191.440733138125
 31
0.0
  0
LINE
  5
28E
330
17
100
AcDbEntity
  8
4
100
AcDbLine
 10
1086.396030065337
 20
240.3477217903012
 30
0.0
 11
1079.455807758787
 21
233.4075059603394
 31
0.0
  0
CIRCLE
  5
28F
330
17
100
AcDbEntity
  8
4
100
AcDbCircle
 10
1088.936323463876
 20
230.8672177608237
 30
0.0
 40
8.5
  0
LINE
  5
290
330
17
100
AcDbEntity
  8
L-CENTER
100
AcDbLine
 10
1077.194891540526
 20
242.6087051381248
 30
0.0
 11
1100.677810841177
 21
219.1257858374736
 31
0.0
  0
LINE
  5
291
330
17
100
AcDbEntity
  8
4
100
AcDbLine
 10
1098.41684020424
 20
228.3269256976046
 30
0.0
 11
1095.876546805702
 21
237.8074297270823
 31
0.0
  0
LINE
  5
292
330
17
100
AcDbEntity
  8
4
100
AcDbLine
 10
1047.362859540527
 20
213.1461919558756
 30
0.0
 11
1019.140350786487
 21
306.8852388889327
 31
0.0
  0
LINE
  5
294
330
17
100
AcDbEntity
  8
4
100
AcDbLine
 10
1021.362859540526
 20
306.9569809395641
 30
0.0
 11
1047.362859540526
 21
221.2905761308667
 31
0.0
  0
LINE
  5
295
330
17
100
AcDbEntity
  8
L-CENTER
100
AcDbLine
 10
1053.291477222056
 20
188.4407331381249
 30
0.0
 11
1209.434241858995
 21
188.4407331381249
 31
0.0
  0
ARC
  5
296
330
17
100
AcDbEntity
  8
4
100
AcDbCircle
 10
1214.362859540525
 20
127.940737138125
 30
0.0
 40
12.0
100
AcDbArc
 50
180.0
 51
270.0
  0
LINE
  5
297
330
17
100
AcDbEntity
  8
4
100
AcDbLine
 10
1180.729622373215
 20
152.9544649311742
 30
0.0
 11
1183.269915771753
 21
143.4739609016966
 31
0.0
  0
LINE
  5
298
330
17
100
AcDbEntity
  8
4
100
AcDbLine
 10
1180.729622373215
 20
152.9544649311742
 30
0.0
 11
1171.24910563285
 21
155.4947569943932
 31
0.0
  0
LINE
  5
299
330
17
100
AcDbEntity
  8
4
100
AcDbLine
 10
1183.269915771753
 20
143.4739609016966
 30
0.0
 11
1176.329693465204
 21
136.5337450717348
 31
0.0
  0
LINE
  5
29A
330
17
100
AcDbEntity
  8
L-CENTER
100
AcDbLine
 10
1226.362859540526
 20
125.4407331381249
 30
0.0
 11
1226.362859540526
 21
68.44073313812487
 31
0.0
  0
LINE
  5
29B
330
17
100
AcDbEntity
  8
4
100
AcDbLine
 10
1164.308883326301
 20
148.5545411644314
 30
0.0
 11
1166.849176724839
 21
139.0740371349538
 31
0.0
  0
LINE
  5
29C
330
17
100
AcDbEntity
  8
L-CENTER
100
AcDbLine
 10
1185.530831540525
 20
134.2727611381249
 30
0.0
 11
1162.04780676136
 21
157.7557859172905
 31
0.0
  0
LINE
  5
29D
330
17
100
AcDbEntity
  8
4
100
AcDbLine
 10
1176.329693465204
 20
136.5337450717348
 30
0.0
 11
1166.849176724839
 21
139.0740371349538
 31
0.0
  0
CIRCLE
  5
29E
330
17
100
AcDbEntity
  8
4
100
AcDbCircle
 10
1173.789400066665
 20
146.0142491012123
 30
0.0
 40
8.5
  0
LINE
  5
29F
330
17
100
AcDbEntity
  8
4
100
AcDbLine
 10
1171.24910563285
 20
155.4947569943932
 30
0.0
 11
1164.308883326301
 21
148.5545411644314
 31
0.0
  0
LINE
  5
2A0
330
17
100
AcDbEntity
  8
4
100
AcDbLine
 10
1098.41684020424
 20
148.5545405786452
 30
0.0
 11
1095.876546805702
 21
139.0740365491674
 31
0.0
  0
LINE
  5
2A1
330
17
100
AcDbEntity
  8
4
100
AcDbLine
 10
1081.996101157326
 20
152.954464345388
 30
0.0
 11
1079.455807758787
 21
143.4739603159103
 31
0.0
  0
LINE
  5
2A2
330
17
100
AcDbEntity
  8
4
100
AcDbLine
 10
1091.47661789769
 20
155.4947564086069
 30
0.0
 11
1081.996101157326
 21
152.954464345388
 31
0.0
  0
LINE
  5
2A3
330
17
100
AcDbEntity
  8
4
100
AcDbLine
 10
1086.396030065337
 20
136.5337444859485
 30
0.0
 11
1079.455807758787
 21
143.4739603159103
 31
0.0
  0
LINE
  5
2A4
330
17
100
AcDbEntity
  8
4
100
AcDbLine
 10
1095.876546805702
 20
139.0740365491674
 30
0.0
 11
1086.396030065337
 21
136.5337444859485
 31
0.0
  0
LINE
  5
2A5
330
17
100
AcDbEntity
  8
4
100
AcDbLine
 10
1098.41684020424
 20
148.5545405786452
 30
0.0
 11
1091.47661789769
 21
155.4947564086069
 31
0.0
  0
LINE
  5
2A6
330
17
100
AcDbEntity
  8
L-CENTER
100
AcDbLine
 10
1077.194891540526
 20
134.2727611381249
 30
0.0
 11
1100.677810841177
 21
157.7556804387762
 31
0.0
  0
CIRCLE
  5
2A7
330
17
100
AcDbEntity
  8
4
100
AcDbCircle
 10
1088.936323463876
 20
146.0142485154261
 30
0.0
 40
8.5
  0
ARC
  5
2A8
330
17
100
AcDbEntity
  8
4
100
AcDbCircle
 10
1048.362859540527
 20
127.9407331381249
 30
0.0
 40
12.0
100
AcDbArc
 50
270.0
 51
0.0
  0
ARC
  5
2A9
330
17
100
AcDbEntity
  8
4
100
AcDbCircle
 10
1013.362859540526
 20
113.940737138125
 30
0.0
 40
2.0
100
AcDbArc
 50
90.0
 51
180.0
  0
LINE
  5
2AA
330
17
100
AcDbEntity
  8
L-CENTER
100
AcDbLine
 10
1036.362859540526
 20
125.4407331381249
 30
0.0
 11
1036.362859540526
 21
68.44073313812487
 31
0.0
  0
LINE
  5
2AB
330
17
100
AcDbEntity
  8
4
100
AcDbLine
 10
1011.362859540526
 20
113.940737138125
 30
0.0
 11
1011.362859540526
 21
78.44073713812497
 31
0.0
  0
CIRCLE
  5
2AC
330
17
100
AcDbEntity
  8
4
100
AcDbCircle
 10
1131.362859540526
 20
188.4407331381249
 30
0.0
 40
70.0
  0
CIRCLE
  5
2AD
330
17
100
AcDbEntity
  8
L-CENTER
100
AcDbCircle
 10
1131.362859540526
 20
188.4407331381249
 30
0.0
 40
60.0
  0
CIRCLE
  5
2AE
330
17
100
AcDbEntity
  8
4
100
AcDbCircle
 10
1131.362859540526
 20
188.4407331381249
 30
0.0
 40
31.0
  0
LINE
  5
2C8
330
17
100
AcDbEntity
  8
L-CENTER
100
AcDbLine
 10
1379.120835402069
 20
363.4407371381249
 30
0.0
 11
990.194490835815
 21
363.4407371381249
 31
0.0
  0
LINE
  5
2C9
330
17
100
AcDbEntity
  8
4
100
AcDbLine
 10
1251.362859540526
 20
78.44073713812492
 30
0.0
 11
1011.362859540526
 21
78.44073713812492
 31
0.0
  0
LINE
  5
2CA
330
17
100
AcDbEntity
  8
4
100
AcDbLine
 10
1249.362859540526
 20
115.940737138125
 30
0.0
 11
1013.362859540526
 21
115.940737138125
 31
0.0
  0
LINE
  5
2CC
330
17
100
AcDbEntity
  8
4
100
AcDbLine
 10
1222.701600008656
 20
233.8255117143485
 30
0.0
 11
1247.22045795032
 21
305.9854417325336
 31
0.0
  0
LINE
  5
2CD
330
17
100
AcDbEntity
  8
4
100
AcDbLine
 10
1231.262859540531
 20
218.4407371381246
 30
0.0
 11
1227.162763540526
 21
218.4407371381245
 31
0.0
  0
LINE
  5
2CE
330
17
100
AcDbEntity
  8
4
100
AcDbLine
 10
1247.442966365266
 20
406.4407371381249
 30
0.0
 11
1217.662859540526
 21
397.624866016329
 31
0.0
  0
LINE
  5
2CF
330
17
100
AcDbEntity
  8
4
100
AcDbLine
 10
1247.442966365266
 20
320.4407371381249
 30
0.0
 11
1217.662859540526
 21
329.2566082599208
 31
0.0
  0
LINE
  5
2D0
330
17
100
AcDbEntity
  8
4
100
AcDbLine
 10
1220.589299073951
 20
233.8255117143485
 30
0.0
 11
1247.442966365266
 21
312.8568743121976
 31
0.0
  0
LINE
  5
2D1
330
17
100
AcDbEntity
  8
4
100
AcDbLine
 10
1247.442966365266
 20
318.3549422536626
 30
0.0
 11
1217.662859540526
 21
327.1708133754582
 31
0.0
  0
LINE
  5
2D2
330
17
100
AcDbEntity
  8
4
100
AcDbLine
 10
1247.442966365266
 20
408.5265320225874
 30
0.0
 11
1217.662859540526
 21
399.7106609007913
 31
0.0
  0
LINE
  5
2D4
330
17
100
AcDbEntity
  8
L-CENTER
100
AcDbLine
 10
1131.362859540526
 20
69.00194160193985
 30
0.0
 11
1131.362859540526
 21
601.5081171381248
 31
0.0
  0
LINE
  5
2D8
330
17
100
AcDbEntity
  8
4
100
AcDbLine
 10
1047.362859540526
 20
192.440733138125
 30
0.0
 11
1047.362859540526
 21
534.4407371381249
 31
0.0
  0
LINE
  5
2D9
330
17
100
AcDbEntity
  8
4
100
AcDbLine
 10
1205.362859540527
 20
535.4407371381249
 30
0.0
 11
1205.362859540526
 21
191.4407371381249
 31
0.0
  0
LINE
  5
2DA
330
17
100
AcDbEntity
  8
4
100
AcDbLine
 10
1203.362859540526
 20
536.4407371381249
 30
0.0
 11
1203.362859540526
 21
189.440737138125
 31
0.0
  0
LINE
  5
2DB
330
17
100
AcDbEntity
  8
4
100
AcDbLine
 10
1202.362859540526
 20
334.1190197935078
 30
0.0
 11
1202.362859540526
 21
127.940737138125
 31
0.0
  0
LINE
  5
2DC
330
17
100
AcDbEntity
  8
4
100
AcDbLine
 10
1021.362859540521
 20
419.9244933366793
 30
0.0
 11
1047.362859540513
 21
505.590898145379
 31
0.0
  0
LINE
  5
2DE
330
17
100
AcDbEntity
  8
4
100
AcDbLine
 10
1047.362859540514
 20
513.7352823203702
 30
0.0
 11
1019.140350786483
 21
419.9962353873107
 31
0.0
  0
LINE
  5
2DF
330
17
100
AcDbEntity
  8
4
100
AcDbLine
 10
1205.662859540526
 20
535.4407371381249
 30
0.0
 11
1205.662859540526
 21
191.4407331381253
 31
0.0
  0
LINE
  5
2E0
330
17
100
AcDbEntity
  8
4
100
AcDbLine
 10
1060.362859540526
 20
127.9407331381249
 30
0.0
 11
1060.362859540526
 21
334.1190197935078
 31
0.0
  0
LINE
  5
2E1
330
17
100
AcDbEntity
  8
4
100
AcDbLine
 10
1222.701601367796
 20
493.0559585619011
 30
0.0
 11
1247.22045795032
 21
420.8960325437163
 31
0.0
  0
LINE
  5
2E2
330
17
100
AcDbEntity
  8
4
100
AcDbLine
 10
1217.662859540526
 20
534.440737138125
 30
0.0
 11
1217.662859540526
 21
192.4407371381249
 31
0.0
  0
LINE
  5
2E3
330
17
100
AcDbEntity
  8
4
100
AcDbLine
 10
1220.58930043309
 20
493.0559585619011
 30
0.0
 11
1247.442966365266
 21
414.0245999640482
 31
0.0
  0
LINE
  5
2E4
330
17
100
AcDbEntity
  8
4
100
AcDbLine
 10
763.8261800208116
 20
877.3339776065404
 30
0.0
 11
763.8261800208116
 21
864.33397760654
 31
0.0
  0
LINE
  5
2E5
330
17
100
AcDbEntity
  8
4
100
AcDbLine
 10
763.8261800208121
 20
877.3339776065404
 30
0.0
 11
764.8261800208121
 21
876.3339776065404
 31
0.0
  0
LINE
  5
2E6
330
17
100
AcDbEntity
  8
4
100
AcDbLine
 10
764.8261800208121
 20
842.3339776065404
 30
0.0
 11
763.8261800208121
 21
841.3339776065404
 31
0.0
  0
LINE
  5
2E7
330
17
100
AcDbEntity
  8
4
100
AcDbLine
 10
764.8261800208121
 20
876.3339776065404
 30
0.0
 11
764.8261800208121
 21
842.3339776065404
 31
0.0
  0
LINE
  5
2E8
330
17
100
AcDbEntity
  8
4
100
AcDbLine
 10
763.8261800208116
 20
854.33397760654
 30
0.0
 11
763.8261800208116
 21
841.33397760654
 31
0.0
  0
LINE
  5
2E9
330
17
100
AcDbEntity
  8
4
100
AcDbLine
 10
694.8261800208116
 20
864.33397760654
 30
0.0
 11
764.8261800208121
 21
864.33397760654
 31
0.0
  0
LINE
  5
2EA
330
17
100
AcDbEntity
  8
4
100
AcDbLine
 10
694.8261800208116
 20
854.33397760654
 30
0.0
 11
764.8261800208121
 21
854.33397760654
 31
0.0
  0
ARC
  5
2EB
330
17
100
AcDbEntity
  8
4
100
AcDbCircle
 10
668.6261800208121
 20
928.33397760654
 30
0.0
 40
1.0
100
AcDbArc
 50
0.0
 51
90.0
  0
ARC
  5
2EC
330
17
100
AcDbEntity
  8
4
100
AcDbCircle
 10
636.8261800208121
 20
971.33397760654
 30
0.0
 40
8.0
100
AcDbArc
 50
0.0
 51
90.0
  0
LINE
  5
2ED
330
17
100
AcDbEntity
  8
4
100
AcDbLine
 10
656.8261800208121
 20
931.3339776065395
 30
0.0
 11
656.8261800208121
 21
933.33397760654
 31
0.0
  0
LINE
  5
2EE
330
17
100
AcDbEntity
  8
4
100
AcDbLine
 10
655.6411345970354
 20
945.63388160654
 30
0.0
 11
655.6411345970354
 21
954.2303546606881
 31
0.0
  0
LINE
  5
2EF
330
17
100
AcDbEntity
  8
4
100
AcDbLine
 10
650.7336573089236
 20
954.2303546606881
 30
0.0
 11
650.7336573089236
 21
948.13388160654
 31
0.0
  0
ARC
  5
2F0
330
17
100
AcDbEntity
  8
4
100
AcDbCircle
 10
653.1873959529796
 20
951.3502676774808
 30
0.0
 40
3.783613929059507
100
AcDbArc
 50
49.57010315517341
 51
130.4298968448266
  0
ARC
  5
2F1
330
17
100
AcDbEntity
  8
4
100
AcDbCircle
 10
655.8261800208121
 20
944.6339776065402
 30
0.0
 40
1.0
100
AcDbArc
 50
0.0
 51
90.0
  0
LINE
  5
2F2
330
17
100
AcDbEntity
  8
4
100
AcDbLine
 10
656.8261800208121
 20
944.6339776065399
 30
0.0
 11
656.8261800208121
 21
933.6339776065399
 31
0.0
  0
LINE
  5
2F3
330
17
100
AcDbEntity
  8
4
100
AcDbLine
 10
636.0112254445881
 20
954.2303546606881
 30
0.0
 11
636.0112254445881
 21
945.63388160654
 31
0.0
  0
LINE
  5
2F4
330
17
100
AcDbEntity
  8
4
100
AcDbLine
 10
640.9187027326999
 20
954.2303546606881
 30
0.0
 11
640.9187027326999
 21
948.13388160654
 31
0.0
  0
ARC
  5
2F5
330
17
100
AcDbEntity
  8
4
100
AcDbCircle
 10
638.4649640886441
 20
951.3502676774808
 30
0.0
 40
3.783613929059507
100
AcDbArc
 50
49.57010315517341
 51
130.4298968448266
  0
ARC
  5
2F6
330
17
100
AcDbEntity
  8
4
100
AcDbCircle
 10
645.8261800208118
 20
941.3547163090809
 30
0.0
 40
13.77916529745958
100
AcDbArc
 50
69.13593563607996
 51
110.8640643639201
  0
LINE
  5
2F7
330
17
100
AcDbEntity
  8
4
100
AcDbLine
 10
653.1873959529795
 20
955.13388160654
 30
0.0
 11
638.464964088644
 21
955.13388160654
 31
0.0
  0
LINE
  5
2F8
330
17
100
AcDbEntity
  8
4
100
AcDbLine
 10
636.0112254445881
 20
948.13388160654
 30
0.0
 11
655.6411345970354
 21
948.13388160654
 31
0.0
  0
LINE
  5
2F9
330
17
100
AcDbEntity
  8
4
100
AcDbLine
 10
636.0112254445881
 20
945.63388160654
 30
0.0
 11
655.6411345970354
 21
945.63388160654
 31
0.0
  0
LINE
  5
2FA
330
17
100
AcDbEntity
  8
4
100
AcDbLine
 10
644.8261800208121
 20
955.13388160654
 30
0.0
 11
644.8261800208121
 21
971.33397760654
 31
0.0
  0
LINE
  5
2FB
330
17
100
AcDbEntity
  8
L-CENTER
100
AcDbLine
 10
645.8261800208116
 20
962.0479456065395
 30
0.0
 11
645.8261800208116
 21
926.44760160654
 31
0.0
  0
LINE
  5
2FC
330
17
100
AcDbEntity
  8
4
100
AcDbLine
 10
668.6261800208121
 20
929.33397760654
 30
0.0
 11
658.8261800208121
 21
929.3339776065402
 31
0.0
  0
LINE
  5
2FD
330
17
100
AcDbEntity
  8
4
100
AcDbLine
 10
575.1411345970354
 20
945.63388160654
 30
0.0
 11
575.1411345970354
 21
954.2303546606881
 31
0.0
  0
LINE
  5
2FE
330
17
100
AcDbEntity
  8
L-CENTER
100
AcDbLine
 10
594.8261800208121
 20
933.7870015876033
 30
0.0
 11
594.8261800208121
 21
974.8809536254766
 31
0.0
  0
ARC
  5
2FF
330
17
100
AcDbEntity
  8
4
100
AcDbCircle
 10
594.8261800208121
 20
954.33397760654
 30
0.0
 40
10.0
100
AcDbArc
 50
357.7560382237725
 51
144.709986547716
  0
LINE
  5
300
330
17
100
AcDbEntity
  8
L-CENTER
100
AcDbLine
 10
574.2792040018754
 20
954.33397760654
 30
0.0
 11
615.3731560397488
 21
954.33397760654
 31
0.0
  0
LINE
  5
301
330
17
100
AcDbEntity
  8
4
100
AcDbLine
 10
679.1261800208118
 20
909.1216004099006
 30
0.0
 11
679.1261800208118
 21
894.3991685455649
 31
0.0
  0
LINE
  5
302
330
17
100
AcDbEntity
  8
4
100
AcDbLine
 10
669.6261800208118
 20
911.5753390539562
 30
0.0
 11
678.22265307496
 21
911.5753390539562
 31
0.0
  0
LINE
  5
303
330
17
100
AcDbEntity
  8
4
100
AcDbLine
 10
678.22265307496
 20
896.852907189621
 30
0.0
 11
672.1261800208118
 21
896.852907189621
 31
0.0
  0
LINE
  5
304
330
17
100
AcDbEntity
  8
4
100
AcDbLine
 10
678.22265307496
 20
906.6678617658445
 30
0.0
 11
672.1261800208118
 21
906.6678617658445
 31
0.0
  0
LINE
  5
305
330
17
100
AcDbEntity
  8
4
100
AcDbLine
 10
678.22265307496
 20
891.9454299015092
 30
0.0
 11
669.6261800208118
 21
891.9454299015092
 31
0.0
  0
LINE
  5
306
330
17
100
AcDbEntity
  8
4
100
AcDbLine
 10
669.6261800208118
 20
891.9454299015092
 30
0.0
 11
669.6261800208118
 21
911.5753390539562
 31
0.0
  0
LINE
  5
307
330
17
100
AcDbEntity
  8
4
100
AcDbLine
 10
672.1261800208118
 20
891.9454299015092
 30
0.0
 11
672.1261800208118
 21
911.5753390539562
 31
0.0
  0
LINE
  5
308
330
17
100
AcDbEntity
  8
4
100
AcDbLine
 10
670.626180020812
 20
890.3339776065397
 30
0.0
 11
669.626180020812
 21
890.33397760654
 31
0.0
  0
ARC
  5
309
330
17
100
AcDbEntity
  8
4
100
AcDbCircle
 10
675.3425660917525
 20
894.3991685455649
 30
0.0
 40
3.783613929059507
100
AcDbArc
 50
319.5701031551723
 51
40.42989684482771
  0
ARC
  5
30A
330
17
100
AcDbEntity
  8
4
100
AcDbCircle
 10
665.3470147233526
 20
901.7603844777327
 30
0.0
 40
13.77916529745958
100
AcDbArc
 50
339.1359356360805
 51
20.86406436391942
  0
ARC
  5
30B
330
17
100
AcDbEntity
  8
4
100
AcDbCircle
 10
675.3425660917525
 20
909.1216004099006
 30
0.0
 40
3.783613929059507
100
AcDbArc
 50
319.5701031551723
 51
40.42989684482771
  0
ARC
  5
30C
330
17
100
AcDbEntity
  8
4
100
AcDbCircle
 10
686.8261800208116
 20
879.3339776065404
 30
0.0
 40
2.0
100
AcDbArc
 50
180.0
 51
270.0
  0
LINE
  5
30D
330
17
100
AcDbEntity
  8
4
100
AcDbLine
 10
670.6261800208121
 20
879.33397760654
 30
0.0
 11
684.8261800208116
 21
879.33397760654
 31
0.0
  0
LINE
  5
30E
330
17
100
AcDbEntity
  8
L-CENTER
100
AcDbLine
 10
649.0989391914733
 20
901.7603844777327
 30
0.0
 11
681.9941582753914
 21
901.7603844777327
 31
0.0
  0
ARC
  5
30F
330
17
100
AcDbEntity
  8
4
100
AcDbCircle
 10
686.8261800208116
 20
839.3339776065404
 30
0.0
 40
2.0
100
AcDbArc
 50
90.0
 51
180.0
  0
LINE
  5
310
330
17
100
AcDbEntity
  8
4
100
AcDbLine
 10
678.22265307496
 20
826.7225253115707
 30
0.0
 11
669.6261800208118
 21
826.7225253115707
 31
0.0
  0
LINE
  5
311
330
17
100
AcDbEntity
  8
4
100
AcDbLine
 10
678.22265307496
 20
821.815048023459
 30
0.0
 11
672.1261800208118
 21
821.815048023459
 31
0.0
  0
LINE
  5
312
330
17
100
AcDbEntity
  8
4
100
AcDbLine
 10
670.626180020812
 20
828.3339776065402
 30
0.0
 11
669.6261800208118
 21
828.33397760654
 31
0.0
  0
ARC
  5
313
330
17
100
AcDbEntity
  8
4
100
AcDbCircle
 10
675.3425660917525
 20
824.2687866675151
 30
0.0
 40
3.783613929059507
100
AcDbArc
 50
319.5701031551723
 51
40.42989684482771
  0
LINE
  5
314
330
17
100
AcDbEntity
  8
4
100
AcDbLine
 10
670.626180020812
 20
839.3339776065407
 30
0.0
 11
684.8261800208116
 21
839.3339776065404
 31
0.0
  0
ARC
  5
315
330
17
100
AcDbEntity
  8
4
100
AcDbCircle
 10
668.626180020812
 20
790.3339776065397
 30
0.0
 40
1.0
100
AcDbArc
 50
270.0
 51
0.0
  0
LINE
  5
316
330
17
100
AcDbEntity
  8
4
100
AcDbLine
 10
678.22265307496
 20
812.0000934472355
 30
0.0
 11
672.1261800208118
 21
812.0000934472355
 31
0.0
  0
LINE
  5
317
330
17
100
AcDbEntity
  8
4
100
AcDbLine
 10
669.6261800208118
 20
807.0926161591237
 30
0.0
 11
678.22265307496
 21
807.0926161591237
 31
0.0
  0
ARC
  5
318
330
17
100
AcDbEntity
  8
4
100
AcDbCircle
 10
675.3425660917525
 20
809.5463548031794
 30
0.0
 40
3.783613929059507
100
AcDbArc
 50
319.5701031551723
 51
40.42989684482771
  0
ARC
  5
319
330
17
100
AcDbEntity
  8
4
100
AcDbCircle
 10
665.3470147233526
 20
816.9075707353472
 30
0.0
 40
13.77916529745958
100
AcDbArc
 50
339.1359356360805
 51
20.86406436391942
  0
LINE
  5
31A
330
17
100
AcDbEntity
  8
4
100
AcDbLine
 10
679.1261800208118
 20
809.5463548031794
 30
0.0
 11
679.1261800208118
 21
824.2687866675151
 31
0.0
  0
LINE
  5
31B
330
17
100
AcDbEntity
  8
4
100
AcDbLine
 10
672.1261800208118
 20
826.7225253115707
 30
0.0
 11
672.1261800208118
 21
807.0926161591237
 31
0.0
  0
LINE
  5
31C
330
17
100
AcDbEntity
  8
4
100
AcDbLine
 10
669.6261800208118
 20
826.7225253115707
 30
0.0
 11
669.6261800208118
 21
807.0926161591237
 31
0.0
  0
LINE
  5
31D
330
17
100
AcDbEntity
  8
4
100
AcDbLine
 10
668.626180020812
 20
789.3339776065397
 30
0.0
 11
658.8261800208121
 21
789.33397760654
 31
0.0
  0
LINE
  5
31E
330
17
100
AcDbEntity
  8
L-CENTER
100
AcDbLine
 10
649.0989391914733
 20
816.9075707353472
 30
0.0
 11
681.9941582753914
 21
816.9075707353472
 31
0.0
  0
LINE
  5
31F
330
17
100
AcDbEntity
  8
4
100
AcDbLine
 10
684.8261800208116
 20
879.3339776065404
 30
0.0
 11
684.8261800208116
 21
839.3339776065404
 31
0.0
  0
LINE
  5
320
330
17
100
AcDbEntity
  8
4
100
AcDbLine
 10
670.626180020812
 20
828.33397760654
 30
0.0
 11
670.6261800208121
 21
890.3339776065402
 31
0.0
  0
LINE
  5
321
330
17
100
AcDbEntity
  8
4
100
AcDbLine
 10
658.8261800208121
 20
787.3339776065402
 30
0.0
 11
658.8261800208121
 21
931.3339776065395
 31
0.0
  0
LINE
  5
322
330
17
100
AcDbEntity
  8
4
100
AcDbLine
 10
669.626180020812
 20
790.3339776065397
 30
0.0
 11
669.6261800208121
 21
928.33397760654
 31
0.0
  0
LINE
  5
323
330
17
100
AcDbEntity
  8
4
100
AcDbLine
 10
686.8261800208116
 20
877.3339776065404
 30
0.0
 11
763.8261800208121
 21
877.3339776065404
 31
0.0
  0
LINE
  5
324
330
17
100
AcDbEntity
  8
4
100
AcDbLine
 10
686.8261800208116
 20
841.3339776065404
 30
0.0
 11
763.8261800208121
 21
841.3339776065404
 31
0.0
  0
ARC
  5
325
330
17
100
AcDbEntity
  8
4
100
AcDbCircle
 10
694.8261800208116
 20
859.33397760654
 30
0.0
 40
5.0
100
AcDbArc
 50
90.0
 51
270.0
  0
LINE
  5
326
330
17
100
AcDbEntity
  8
4
100
AcDbLine
 10
512.8261800208121
 20
1101.23397760654
 30
0.0
 11
513.8261800208121
 21
1100.23397760654
 31
0.0
  0
LINE
  5
327
330
17
100
AcDbEntity
  8
4
100
AcDbLine
 10
455.8261800208121
 20
1100.23397760654
 30
0.0
 11
456.8261800208121
 21
1101.23397760654
 31
0.0
  0
LINE
  5
328
330
17
100
AcDbEntity
  8
4
100
AcDbLine
 10
477.3261800208121
 20
1100.23397760654
 30
0.0
 11
455.8261800208121
 21
1100.23397760654
 31
0.0
  0
LINE
  5
329
330
17
100
AcDbEntity
  8
4
100
AcDbLine
 10
512.8261800208121
 20
1101.23397760654
 30
0.0
 11
456.8261800208121
 21
1101.23397760654
 31
0.0
  0
LINE
  5
32A
330
17
100
AcDbEntity
  8
4
100
AcDbLine
 10
513.8261800208121
 20
1100.23397760654
 30
0.0
 11
492.3261800208121
 21
1100.23397760654
 31
0.0
  0
ARC
  5
32B
330
17
100
AcDbEntity
  8
4
100
AcDbCircle
 10
542.8261800208121
 20
971.33397760654
 30
0.0
 40
8.0
100
AcDbArc
 50
90.0
 51
107.6869049850107
  0
ARC
  5
32C
330
17
100
AcDbEntity
  8
4
100
AcDbCircle
 10
542.9249158389961
 20
977.0852455850404
 30
0.0
 40
2.0
100
AcDbArc
 50
194.0362434679273
 51
251.2330123857446
  0
ARC
  5
32D
330
17
100
AcDbEntity
  8
4
100
AcDbCircle
 10
565.3261800208118
 20
941.3547163090809
 30
0.0
 40
13.77916529745958
100
AcDbArc
 50
69.13593563607996
 51
110.8640643639201
  0
LINE
  5
32E
330
17
100
AcDbEntity
  8
4
100
AcDbLine
 10
570.2336573089236
 20
954.2303546606881
 30
0.0
 11
570.2336573089236
 21
948.13388160654
 31
0.0
  0
ARC
  5
32F
330
17
100
AcDbEntity
  8
4
100
AcDbCircle
 10
557.9649640886441
 20
951.3502676774808
 30
0.0
 40
3.783613929059507
100
AcDbArc
 50
49.57010315517341
 51
130.4298968448266
  0
LINE
  5
330
330
17
100
AcDbEntity
  8
4
100
AcDbLine
 10
560.4187027326999
 20
954.2303546606881
 30
0.0
 11
560.4187027326999
 21
948.13388160654
 31
0.0
  0
LINE
  5
331
330
17
100
AcDbEntity
  8
4
100
AcDbLine
 10
555.5112254445881
 20
954.2303546606881
 30
0.0
 11
555.5112254445881
 21
945.63388160654
 31
0.0
  0
LINE
  5
332
330
17
100
AcDbEntity
  8
L-CENTER
100
AcDbLine
 10
565.3261800208116
 20
962.0479456065395
 30
0.0
 11
565.3261800208116
 21
926.44760160654
 31
0.0
  0
LINE
  5
333
330
17
100
AcDbEntity
  8
4
100
AcDbLine
 10
527.326180020812
 20
989.2339776065401
 30
0.0
 11
527.326180020812
 21
990.2337336065398
 31
0.0
  0
ARC
  5
334
330
17
100
AcDbEntity
  8
4
100
AcDbCircle
 10
537.0454036144077
 20
988.2339776065405
 30
0.0
 40
1.0
100
AcDbArc
 50
14.03624346792014
 51
90.0
  0
LINE
  5
335
330
17
100
AcDbEntity
  8
4
100
AcDbLine
 10
527.8261800208121
 20
975.4140844312794
 30
0.0
 11
519.0103088990162
 21
945.6339776065399
 31
0.0
  0
LINE
  5
336
330
17
100
AcDbEntity
  8
4
100
AcDbLine
 10
529.9119749052744
 20
975.4140844312799
 30
0.0
 11
521.0961037834787
 21
945.6339776065399
 31
0.0
  0
LINE
  5
337
330
17
100
AcDbEntity
  8
4
100
AcDbLine
 10
538.0155461145531
 20
988.4765132315763
 30
0.0
 11
540.9846308387054
 21
976.6001743349673
 31
0.0
  0
LINE
  5
338
330
17
100
AcDbEntity
  8
4
100
AcDbLine
 10
514.8261800208121
 20
1001.23397760654
 30
0.0
 11
514.8261800208121
 21
990.2337336065398
 31
0.0
  0
ARC
  5
339
330
17
100
AcDbEntity
  8
4
100
AcDbCircle
 10
484.8261800208122
 20
1018.73397760654
 30
0.0
 40
7.5
100
AcDbArc
 50
180.0
 51
0.0
  0
LINE
  5
33A
330
17
100
AcDbEntity
  8
4
100
AcDbLine
 10
504.8261800208122
 20
945.6339776065399
 30
0.0
 11
504.8261800208122
 21
959.2339776065442
 31
0.0
  0
LINE
  5
33B
330
17
100
AcDbEntity
  8
4
100
AcDbLine
 10
464.8261800208121
 20
945.6339776065399
 30
0.0
 11
464.8261800208121
 21
959.2339776065439
 31
0.0
  0
LINE
  5
33C
330
17
100
AcDbEntity
  8
4
100
AcDbLine
 10
504.8261800208122
 20
959.2339776065442
 30
0.0
 11
464.8261800208121
 21
959.2339776065439
 31
0.0
  0
LINE
  5
33D
330
17
100
AcDbEntity
  8
4
100
AcDbLine
 10
454.8261800208121
 20
990.2337336065398
 30
0.0
 11
454.8261800208121
 21
1001.23397760654
 31
0.0
  0
LINE
  5
33E
330
17
100
AcDbEntity
  8
4
100
AcDbLine
 10
454.8261800208121
 20
1001.23397760654
 30
0.0
 11
514.8261800208121
 21
1001.23397760654
 31
0.0
  0
LINE
  5
33F
330
17
100
AcDbEntity
  8
4
100
AcDbLine
 10
484.8261800208121
 20
990.2337336065398
 30
0.0
 11
527.326180020812
 21
990.2337336065398
 31
0.0
  0
ARC
  5
340
330
17
100
AcDbEntity
  8
4
100
AcDbCircle
 10
464.8261800208126
 20
859.33397760654
 30
0.0
 40
5.0
100
AcDbArc
 50
90.0
 51
270.0
  0
LINE
  5
341
330
17
100
AcDbEntity
  8
4
100
AcDbLine
 10
464.8261800208126
 20
864.33397760654
 30
0.0
 11
504.8261800208126
 21
864.33397760654
 31
0.0
  0
LINE
  5
342
330
17
100
AcDbEntity
  8
4
100
AcDbLine
 10
464.8261800208126
 20
854.33397760654
 30
0.0
 11
504.8261800208126
 21
854.33397760654
 31
0.0
  0
ARC
  5
343
330
17
100
AcDbEntity
  8
4
100
AcDbCircle
 10
484.8261800208126
 20
859.33397760654
 30
0.0
 40
12.5
100
AcDbArc
 50
23.57817847820185
 51
156.4218215217982
  0
ARC
  5
344
330
17
100
AcDbEntity
  8
4
100
AcDbCircle
 10
484.8261800208126
 20
859.33397760654
 30
0.0
 40
11.0
100
AcDbArc
 50
27.03569178941222
 51
152.9643082105878
  0
ARC
  5
345
330
17
100
AcDbEntity
  8
4
100
AcDbCircle
 10
484.8261800208121
 20
859.33397760654
 30
0.0
 40
20.0
100
AcDbArc
 50
14.47751218592994
 51
165.5224878140701
  0
ARC
  5
346
330
17
100
AcDbEntity
  8
4
100
AcDbCircle
 10
484.8261800208121
 20
859.33397760654
 30
0.0
 40
20.0
100
AcDbArc
 50
194.47751218593
 51
345.5224878140701
  0
ARC
  5
347
330
17
100
AcDbEntity
  8
4
100
AcDbCircle
 10
484.8261800208126
 20
859.33397760654
 30
0.0
 40
11.0
100
AcDbArc
 50
207.0356917894136
 51
332.9643082105864
  0
ARC
  5
348
330
17
100
AcDbEntity
  8
4
100
AcDbCircle
 10
484.8261800208126
 20
859.33397760654
 30
0.0
 40
12.5
100
AcDbArc
 50
203.5781784782029
 51
336.4218215217971
  0
ARC
  5
349
330
17
100
AcDbEntity
  8
4
100
AcDbCircle
 10
504.8261800208126
 20
859.33397760654
 30
0.0
 40
5.0
100
AcDbArc
 50
270.0
 51
90.0
  0
LINE
  5
34A
330
17
100
AcDbEntity
  8
4
100
AcDbLine
 10
442.3261800208122
 20
989.2339776065401
 30
0.0
 11
442.3261800208121
 21
990.2337336065398
 31
0.0
  0
ARC
  5
34B
330
17
100
AcDbEntity
  8
4
100
AcDbCircle
 10
426.8261800208121
 20
971.33397760654
 30
0.0
 40
8.0
100
AcDbArc
 50
72.3130861620651
 51
90.0
  0
ARC
  5
34C
330
17
100
AcDbEntity
  8
4
100
AcDbCircle
 10
426.7274442026281
 20
977.0852455850404
 30
0.0
 40
2.0
100
AcDbArc
 50
288.7669876142554
 51
345.9637565320731
  0
LINE
  5
34D
330
17
100
AcDbEntity
  8
4
100
AcDbLine
 10
431.6368139270711
 20
988.4765132315763
 30
0.0
 11
428.6677292029188
 21
976.6001743349673
 31
0.0
  0
ARC
  5
34E
330
17
100
AcDbEntity
  8
4
100
AcDbCircle
 10
432.6069564272165
 20
988.2339776065405
 30
0.0
 40
1.0
100
AcDbArc
 50
90.0
 51
165.9637565320799
  0
LINE
  5
34F
330
17
100
AcDbEntity
  8
4
100
AcDbLine
 10
409.8261800208121
 20
969.2301495089866
 30
0.0
 11
409.8261800208121
 21
972.2339776065401
 31
0.0
  0
LINE
  5
350
330
17
100
AcDbEntity
  8
4
100
AcDbLine
 10
414.1411345970361
 20
954.2303546606881
 30
0.0
 11
414.1411345970361
 21
945.63388160654
 31
0.0
  0
LINE
  5
351
330
17
100
AcDbEntity
  8
4
100
AcDbLine
 10
409.2336573089243
 20
954.2303546606881
 30
0.0
 11
409.2336573089243
 21
948.13388160654
 31
0.0
  0
ARC
  5
352
330
17
100
AcDbEntity
  8
4
100
AcDbCircle
 10
411.6873959529801
 20
951.3502676774808
 30
0.0
 40
3.783613929059507
100
AcDbArc
 50
49.57010315517341
 51
130.4298968448266
  0
LINE
  5
353
330
17
100
AcDbEntity
  8
4
100
AcDbLine
 10
394.5112254445888
 20
945.63388160654
 30
0.0
 11
394.5112254445888
 21
954.2303546606881
 31
0.0
  0
LINE
  5
354
330
17
100
AcDbEntity
  8
4
100
AcDbLine
 10
399.4187027327006
 20
954.2303546606881
 30
0.0
 11
399.4187027327006
 21
948.13388160654
 31
0.0
  0
ARC
  5
355
330
17
100
AcDbEntity
  8
4
100
AcDbCircle
 10
396.9649640886446
 20
951.3502676774808
 30
0.0
 40
3.783613929059507
100
AcDbArc
 50
49.57010315517341
 51
130.4298968448266
  0
ARC
  5
356
330
17
100
AcDbEntity
  8
4
100
AcDbCircle
 10
404.3261800208124
 20
941.3547163090809
 30
0.0
 40
13.77916529745958
100
AcDbArc
 50
69.13593563607996
 51
110.8640643639201
  0
LINE
  5
357
330
17
100
AcDbEntity
  8
4
100
AcDbLine
 10
396.9649640886447
 20
955.13388160654
 30
0.0
 11
411.6873959529802
 21
955.13388160654
 31
0.0
  0
LINE
  5
358
330
17
100
AcDbEntity
  8
4
100
AcDbLine
 10
414.1411345970361
 20
948.13388160654
 30
0.0
 11
394.5112254445888
 21
948.13388160654
 31
0.0
  0
LINE
  5
359
330
17
100
AcDbEntity
  8
4
100
AcDbLine
 10
414.1411345970361
 20
945.63388160654
 30
0.0
 11
394.5112254445888
 21
945.63388160654
 31
0.0
  0
LINE
  5
35A
330
17
100
AcDbEntity
  8
L-CENTER
100
AcDbLine
 10
404.3261800208126
 20
962.0479456065395
 30
0.0
 11
404.3261800208126
 21
926.44760160654
 31
0.0
  0
LINE
  5
35B
330
17
100
AcDbEntity
  8
4
100
AcDbLine
 10
359.8261800208121
 20
952.2409021971575
 30
0.0
 11
359.8261800208121
 21
972.2339776065403
 31
0.0
  0
ARC
  5
35C
330
17
100
AcDbEntity
  8
4
100
AcDbCircle
 10
331.1873959529801
 20
951.3502676774808
 30
0.0
 40
3.783613929059507
100
AcDbArc
 50
49.57010315517341
 51
130.4298968448266
  0
LINE
  5
35D
330
17
100
AcDbEntity
  8
4
100
AcDbLine
 10
328.7336573089243
 20
954.2303546606881
 30
0.0
 11
328.7336573089243
 21
948.13388160654
 31
0.0
  0
LINE
  5
35E
330
17
100
AcDbEntity
  8
4
100
AcDbLine
 10
333.6411345970361
 20
954.2303546606881
 30
0.0
 11
333.6411345970361
 21
945.63388160654
 31
0.0
  0
LINE
  5
35F
330
17
100
AcDbEntity
  8
4
100
AcDbLine
 10
324.8261800208117
 20
955.13388160654
 30
0.0
 11
324.8261800208116
 21
971.33397760654
 31
0.0
  0
LINE
  5
360
330
17
100
AcDbEntity
  8
L-CENTER
100
AcDbLine
 10
323.8261800208126
 20
962.0479456065395
 30
0.0
 11
323.8261800208126
 21
926.44760160654
 31
0.0
  0
LINE
  5
361
330
17
100
AcDbEntity
  8
4
100
AcDbLine
 10
332.8261800208116
 20
979.33397760654
 30
0.0
 11
426.8261800208121
 21
979.33397760654
 31
0.0
  0
LINE
  5
362
330
17
100
AcDbEntity
  8
4
100
AcDbLine
 10
346.5983319195537
 20
945.6339776065402
 30
0.0
 11
434.2423171948889
 21
975.4140844312794
 31
0.0
  0
LINE
  5
363
330
17
100
AcDbEntity
  8
4
100
AcDbLine
 10
340.3817500547536
 20
945.6339776065399
 30
0.0
 11
427.3708846152207
 21
975.191576016334
 31
0.0
  0
LINE
  5
364
330
17
100
AcDbEntity
  8
4
100
AcDbLine
 10
409.8261800208121
 20
972.2339776065401
 30
0.0
 11
359.8261800208121
 21
972.2339776065401
 31
0.0
  0
LINE
  5
365
330
17
100
AcDbEntity
  8
L-CENTER
100
AcDbLine
 10
384.8261800208126
 20
893.0636119839455
 30
0.0
 11
384.8261800208126
 21
825.6043432291344
 31
0.0
  0
CIRCLE
  5
366
330
17
100
AcDbEntity
  8
4
100
AcDbCircle
 10
384.8261800208126
 20
859.33397760654
 30
0.0
 40
25.0
  0
CIRCLE
  5
367
330
17
100
AcDbEntity
  8
4
100
AcDbCircle
 10
384.8261800208126
 20
859.33397760654
 30
0.0
 40
23.0
  0
LWPOLYLINE
  5
368
330
17
100
AcDbEntity
  8
4
100
AcDbPolyline
 90
        6
 70
     1
 43
0.0
 10
407.8261800208126
 20
859.33397760654
 10
396.3261800208126
 20
879.252561893582
 10
373.3261800208126
 20
879.252561893582
 10
361.8261800208126
 20
859.33397760654
 10
373.3261800208126
 20
839.415393319498
 10
396.3261800208126
 20
839.415393319498
  0
LINE
  5
369
330
17
100
AcDbEntity
  8
4
100
AcDbLine
 10
484.8261800208121
 20
990.2337336065398
 30
0.0
 11
442.3261800208121
 21
990.2337336065398
 31
0.0
  0
LINE
  5
36A
330
17
100
AcDbEntity
  8
4
100
AcDbLine
 10
541.8261800208123
 20
975.414084431279
 30
0.0
 11
427.8261800208121
 21
975.4140844312794
 31
0.0
  0
LINE
  5
36B
330
17
100
AcDbEntity
  8
4
100
AcDbLine
 10
537.0454036144077
 20
989.2339776065403
 30
0.0
 11
432.6069564272165
 21
989.2339776065403
 31
0.0
  0
LINE
  5
36C
330
17
100
AcDbEntity
  8
4
100
AcDbLine
 10
441.8261800208121
 20
975.4140844312794
 30
0.0
 11
450.642051142608
 21
945.6339776065399
 31
0.0
  0
LINE
  5
36D
330
17
100
AcDbEntity
  8
4
100
AcDbLine
 10
439.7403851363496
 20
975.4140844312799
 30
0.0
 11
448.5562562581457
 21
945.6339776065399
 31
0.0
  0
LINE
  5
36E
330
17
100
AcDbEntity
  8
4
100
AcDbLine
 10
455.8261800208121
 20
1001.23397760654
 30
0.0
 11
455.8261800208121
 21
1100.23397760654
 31
0.0
  0
LINE
  5
36F
330
17
100
AcDbEntity
  8
4
100
AcDbLine
 10
513.8261800208121
 20
1100.23397760654
 30
0.0
 11
513.8261800208121
 21
1001.23397760654
 31
0.0
  0
LINE
  5
370
330
17
100
AcDbEntity
  8
4
100
AcDbLine
 10
477.3261800208121
 20
1101.23397760654
 30
0.0
 11
477.3261800208121
 21
1018.73397760654
 31
0.0
  0
LINE
  5
371
330
17
100
AcDbEntity
  8
4
100
AcDbLine
 10
492.3261800208121
 20
1101.23397760654
 30
0.0
 11
492.3261800208121
 21
1018.73397760654
 31
0.0
  0
LINE
  5
372
330
17
100
AcDbEntity
  8
4
100
AcDbLine
 10
542.8261800208121
 20
979.33397760654
 30
0.0
 11
636.8261800208121
 21
979.33397760654
 31
0.0
  0
LINE
  5
373
330
17
100
AcDbEntity
  8
4
100
AcDbLine
 10
555.5112254445881
 20
945.63388160654
 30
0.0
 11
575.1411345970354
 21
945.63388160654
 31
0.0
  0
LINE
  5
374
330
17
100
AcDbEntity
  8
4
100
AcDbLine
 10
555.5112254445881
 20
948.13388160654
 30
0.0
 11
575.1411345970354
 21
948.13388160654
 31
0.0
  0
LINE
  5
375
330
17
100
AcDbEntity
  8
4
100
AcDbLine
 10
572.6873959529795
 20
955.13388160654
 30
0.0
 11
557.964964088644
 21
955.13388160654
 31
0.0
  0
ARC
  5
376
330
17
100
AcDbEntity
  8
4
100
AcDbCircle
 10
572.6873959529796
 20
951.3502676774808
 30
0.0
 40
3.783613929059507
100
AcDbArc
 50
49.57010315517341
 51
130.4298968448266
  0
LINE
  5
377
330
17
100
AcDbEntity
  8
4
100
AcDbLine
 10
623.0540281220731
 20
945.6339776065399
 30
0.0
 11
535.4100428467394
 21
975.4140844312794
 31
0.0
  0
LINE
  5
378
330
17
100
AcDbEntity
  8
4
100
AcDbLine
 10
629.2706099868694
 20
945.6339776065402
 30
0.0
 11
542.2814754264035
 21
975.191576016334
 31
0.0
  0
ARC
  5
379
330
17
100
AcDbEntity
  8
4
100
AcDbCircle
 10
636.8261800208121
 20
747.33397760654
 30
0.0
 40
8.0
100
AcDbArc
 50
270.0
 51
0.0
  0
LINE
  5
37A
330
17
100
AcDbEntity
  8
4
100
AcDbLine
 10
644.8261800208121
 20
747.33397760654
 30
0.0
 11
644.8261800208121
 21
775.3339776065402
 31
0.0
  0
LINE
  5
37B
330
17
100
AcDbEntity
  8
L-CENTER
100
AcDbLine
 10
594.8261800208121
 20
784.8809536254766
 30
0.0
 11
594.8261800208121
 21
743.7870015876033
 31
0.0
  0
ARC
  5
37C
330
17
100
AcDbEntity
  8
4
100
AcDbCircle
 10
594.8261800208121
 20
764.33397760654
 30
0.0
 40
10.0
100
AcDbArc
 50
205.7018258444683
 51
11.16807027348779
  0
LINE
  5
37D
330
17
100
AcDbEntity
  8
L-CENTER
100
AcDbLine
 10
574.2792040018754
 20
764.33397760654
 30
0.0
 11
615.3731560397488
 21
764.33397760654
 31
0.0
  0
ARC
  5
37E
330
17
100
AcDbEntity
  8
4
100
AcDbCircle
 10
631.5737400208119
 20
510.1880491381248
 30
0.0
 40
4.999924
100
AcDbArc
 50
17.2440440000004
 51
72.75328899999964
  0
LINE
  5
37F
330
17
100
AcDbEntity
  8
4
100
AcDbLine
 10
544.8261800208116
 20
750.8579776065396
 30
0.0
 11
544.8261800208116
 21
770.4619776065397
 31
0.0
  0
ARC
  5
380
330
17
100
AcDbEntity
  8
4
100
AcDbCircle
 10
542.8261800208121
 20
747.33397760654
 30
0.0
 40
8.0
100
AcDbArc
 50
252.4875573610567
 51
270.0
  0
LINE
  5
381
330
17
100
AcDbEntity
  8
4
100
AcDbLine
 10
537.8261800208115
 20
752.9049776065399
 30
0.0
 11
537.8261800208115
 21
768.4439776065396
 31
0.0
  0
LINE
  5
382
330
17
100
AcDbEntity
  8
4
100
AcDbLine
 10
519.4501800208122
 20
770.4619776065397
 30
0.0
 11
517.8261800208121
 21
775.33397760654
 31
0.0
  0
LINE
  5
383
330
17
100
AcDbEntity
  8
4
100
AcDbLine
 10
514.8261800208114
 20
754.6589776065398
 30
0.0
 11
521.8261800208114
 21
754.65897760654
 31
0.0
  0
LINE
  5
384
330
17
100
AcDbEntity
  8
4
100
AcDbLine
 10
509.8261800208116
 20
764.7048109215398
 30
0.0
 11
509.8261800208116
 21
762.6956442585399
 31
0.0
  0
LINE
  5
385
330
17
100
AcDbEntity
  8
4
100
AcDbLine
 10
523.1595133541449
 20
764.70481092154
 30
0.0
 11
509.8261800208116
 21
764.7048109215398
 31
0.0
  0
LINE
  5
386
330
17
100
AcDbEntity
  8
4
100
AcDbLine
 10
514.8261800208112
 20
754.6589776065396
 30
0.0
 11
523.1595133541449
 21
764.70481092154
 31
0.0
  0
LINE
  5
387
330
17
100
AcDbEntity
  8
4
100
AcDbLine
 10
521.8261800208114
 20
754.6589776065398
 30
0.0
 11
531.8261800208114
 21
766.7139775845399
 31
0.0
  0
LINE
  5
388
330
17
100
AcDbEntity
  8
4
100
AcDbLine
 10
527.8261800208121
 20
745.33397760654
 30
0.0
 11
525.9848466874789
 21
750.8579776065396
 31
0.0
  0
LINE
  5
389
330
17
100
AcDbEntity
  8
4
100
AcDbLine
 10
537.8261800208121
 20
729.33397760654
 30
0.0
 11
541.8261800208121
 21
745.33397760654
 31
0.0
  0
LINE
  5
38A
330
17
100
AcDbEntity
  8
4
100
AcDbLine
 10
544.8261800208116
 20
750.8579776065396
 30
0.0
 11
525.9848466874789
 21
750.8579776065396
 31
0.0
  0
LINE
  5
38B
330
17
100
AcDbEntity
  8
4
100
AcDbLine
 10
544.8261800208116
 20
770.4619776065397
 30
0.0
 11
519.4501800208122
 21
770.4619776065397
 31
0.0
  0
LINE
  5
38C
330
17
100
AcDbEntity
  8
4
100
AcDbLine
 10
502.8261800208114
 20
766.7139775845399
 30
0.0
 11
502.8261800208114
 21
762.6956442585399
 31
0.0
  0
LINE
  5
38D
330
17
100
AcDbEntity
  8
4
100
AcDbLine
 10
500.8261800208112
 20
761.6910609270401
 30
0.0
 11
500.8261800208112
 21
759.6818942640398
 31
0.0
  0
LINE
  5
38E
330
17
100
AcDbEntity
  8
4
100
AcDbLine
 10
483.5685212308766
 20
754.6589776065398
 30
0.0
 11
490.8261800208114
 21
754.65897760654
 31
0.0
  0
LINE
  5
38F
330
17
100
AcDbEntity
  8
4
100
AcDbLine
 10
491.8261800208116
 20
761.6910609270401
 30
0.0
 11
491.8261800208114
 21
759.6818942640398
 31
0.0
  0
LINE
  5
390
330
17
100
AcDbEntity
  8
4
100
AcDbLine
 10
479.3261800208114
 20
766.7139775845399
 30
0.0
 11
490.8261800208114
 21
754.65897760654
 31
0.0
  0
LINE
  5
391
330
17
100
AcDbEntity
  8
4
100
AcDbLine
 10
480.6935212308764
 20
757.6727276010397
 30
0.0
 11
483.5685212308766
 21
754.6589776065398
 31
0.0
  0
LINE
  5
392
330
17
100
AcDbEntity
  8
4
100
AcDbLine
 10
500.8261800208116
 20
759.68189426404
 30
0.0
 11
491.8261800208116
 21
759.6818942640398
 31
0.0
  0
LINE
  5
393
330
17
100
AcDbEntity
  8
4
100
AcDbLine
 10
500.8261800208112
 20
761.6910609270401
 30
0.0
 11
491.8261800208116
 21
761.6910609270401
 31
0.0
  0
LINE
  5
394
330
17
100
AcDbEntity
  8
4
100
AcDbLine
 10
470.958838810746
 20
757.6727276010402
 30
0.0
 11
468.0838388107458
 21
754.6589776065398
 31
0.0
  0
LINE
  5
395
330
17
100
AcDbEntity
  8
4
100
AcDbLine
 10
472.8755054774123
 20
759.6818942640398
 30
0.0
 11
475.8261800208114
 21
762.7749709210625
 31
0.0
  0
LINE
  5
396
330
17
100
AcDbEntity
  8
4
100
AcDbLine
 10
450.2021800208121
 20
770.4619776065399
 30
0.0
 11
451.8261800208121
 21
775.33397760654
 31
0.0
  0
LINE
  5
397
330
17
100
AcDbEntity
  8
4
100
AcDbLine
 10
459.8261800208114
 20
756.6681442695399
 30
0.0
 11
459.8261800208114
 21
754.6589776065398
 31
0.0
  0
LINE
  5
398
330
17
100
AcDbEntity
  8
4
100
AcDbLine
 10
460.8261800208114
 20
754.6589776065398
 30
0.0
 11
468.0838388107458
 21
754.6589776065398
 31
0.0
  0
LINE
  5
399
330
17
100
AcDbEntity
  8
4
100
AcDbLine
 10
472.3261800208114
 20
766.7139775845399
 30
0.0
 11
460.8261800208114
 21
754.6589776065398
 31
0.0
  0
LINE
  5
39A
330
17
100
AcDbEntity
  8
4
100
AcDbLine
 10
472.3261800208114
 20
766.7139775845399
 30
0.0
 11
479.3261800208114
 21
766.7139775845399
 31
0.0
  0
LINE
  5
39B
330
17
100
AcDbEntity
  8
4
100
AcDbLine
 10
480.6935212308766
 20
757.6727276010402
 30
0.0
 11
470.958838810746
 21
757.6727276010402
 31
0.0
  0
LINE
  5
39C
330
17
100
AcDbEntity
  8
4
100
AcDbLine
 10
478.7768545642106
 20
759.6818942640398
 30
0.0
 11
472.875505477412
 21
759.6818942640398
 31
0.0
  0
LINE
  5
39D
330
17
100
AcDbEntity
  8
4
100
AcDbLine
 10
475.8261800208114
 20
762.7749709210625
 30
0.0
 11
478.7768545642101
 21
759.6818942640398
 31
0.0
  0
LINE
  5
39E
330
17
100
AcDbEntity
  8
4
100
AcDbLine
 10
502.8261800208114
 20
766.7139775845399
 30
0.0
 11
531.8261800208114
 21
766.7139775845399
 31
0.0
  0
LINE
  5
39F
330
17
100
AcDbEntity
  8
4
100
AcDbLine
 10
509.8261800208114
 20
762.6956442585397
 30
0.0
 11
502.8261800208114
 21
762.6956442585399
 31
0.0
  0
LINE
  5
3A0
330
17
100
AcDbEntity
  8
4
100
AcDbLine
 10
431.8261800208123
 20
752.9049776065399
 30
0.0
 11
431.8261800208123
 21
768.4439776065399
 31
0.0
  0
LINE
  5
3A1
330
17
100
AcDbEntity
  8
4
100
AcDbLine
 10
437.8261800208114
 20
766.7139775845399
 30
0.0
 11
437.8261800208114
 21
754.65897760654
 31
0.0
  0
LINE
  5
3A2
330
17
100
AcDbEntity
  8
4
100
AcDbLine
 10
444.8261800208114
 20
766.7139775845399
 30
0.0
 11
444.8261800208114
 21
756.6681442695399
 31
0.0
  0
LINE
  5
3A3
330
17
100
AcDbEntity
  8
4
100
AcDbLine
 10
437.8261800208114
 20
766.7139775845399
 30
0.0
 11
444.8261800208114
 21
766.7139775845399
 31
0.0
  0
LINE
  5
3A4
330
17
100
AcDbEntity
  8
4
100
AcDbLine
 10
424.8261800208123
 20
750.8579776065399
 30
0.0
 11
424.8261800208123
 21
770.4619776065401
 31
0.0
  0
LINE
  5
3A5
330
17
100
AcDbEntity
  8
4
100
AcDbLine
 10
443.6675133541454
 20
750.8579776065399
 30
0.0
 11
424.8261800208123
 21
750.8579776065399
 31
0.0
  0
ARC
  5
3A6
330
17
100
AcDbEntity
  8
4
100
AcDbCircle
 10
426.8261800208121
 20
747.33397760654
 30
0.0
 40
8.0
100
AcDbArc
 50
270.0
 51
287.5124426389433
  0
LINE
  5
3A7
330
17
100
AcDbEntity
  8
4
100
AcDbLine
 10
431.8261800208121
 20
729.33397760654
 30
0.0
 11
427.8261800208121
 21
745.33397760654
 31
0.0
  0
LINE
  5
3A8
330
17
100
AcDbEntity
  8
4
100
AcDbLine
 10
441.8261800208121
 20
745.33397760654
 30
0.0
 11
443.6675133541454
 21
750.8579776065399
 31
0.0
  0
ARC
  5
3A9
330
17
100
AcDbEntity
  8
4
100
AcDbCircle
 10
374.8261800208121
 20
764.33397760654
 30
0.0
 40
10.0
100
AcDbArc
 50
168.8319246276206
 51
334.2981777265351
  0
LINE
  5
3AA
330
17
100
AcDbEntity
  8
L-CENTER
100
AcDbLine
 10
374.8261800208121
 20
784.8809536254766
 30
0.0
 11
374.8261800208121
 21
743.7870015876033
 31
0.0
  0
LINE
  5
3AB
330
17
100
AcDbEntity
  8
4
100
AcDbLine
 10
324.8261800208121
 20
747.33397760654
 30
0.0
 11
324.826180020812
 21
775.3339776065395
 31
0.0
  0
LINE
  5
3AC
330
17
100
AcDbEntity
  8
L-CENTER
100
AcDbLine
 10
354.2792040018754
 20
764.33397760654
 30
0.0
 11
395.3731560397488
 21
764.33397760654
 31
0.0
  0
LINE
  5
3AD
330
17
100
AcDbEntity
  8
4
100
AcDbLine
 10
434.1508880208122
 20
745.33397760654
 30
0.0
 11
344.1508880208122
 21
775.33397760654
 31
0.0
  0
LINE
  5
3AE
330
17
100
AcDbEntity
  8
4
100
AcDbLine
 10
337.8261800208121
 20
775.33397760654
 30
0.0
 11
427.8261800208121
 21
745.33397760654
 31
0.0
  0
LINE
  5
3AF
330
17
100
AcDbEntity
  8
4
100
AcDbLine
 10
332.8261800208121
 20
739.33397760654
 30
0.0
 11
426.8261800208121
 21
739.33397760654
 31
0.0
  0
LINE
  5
3B0
330
17
100
AcDbEntity
  8
4
100
AcDbLine
 10
541.8261800208121
 20
745.3339776065397
 30
0.0
 11
427.8261800208121
 21
745.33397760654
 31
0.0
  0
LINE
  5
3B1
330
17
100
AcDbEntity
  8
4
100
AcDbLine
 10
537.8261800208121
 20
729.33397760654
 30
0.0
 11
431.8261800208126
 21
729.33397760654
 31
0.0
  0
LINE
  5
3B2
330
17
100
AcDbEntity
  8
4
100
AcDbLine
 10
537.8261800208115
 20
752.9049776065399
 30
0.0
 11
431.8261800208123
 21
752.9049776065399
 31
0.0
  0
LINE
  5
3B3
330
17
100
AcDbEntity
  8
4
100
AcDbLine
 10
537.8261800208115
 20
768.4439776065396
 30
0.0
 11
431.8261800208123
 21
768.4439776065399
 31
0.0
  0
LINE
  5
3B4
330
17
100
AcDbEntity
  8
4
100
AcDbLine
 10
450.2021800208121
 20
770.4619776065399
 30
0.0
 11
424.8261800208123
 21
770.4619776065401
 31
0.0
  0
LINE
  5
3B5
330
17
100
AcDbEntity
  8
4
100
AcDbLine
 10
437.8261800208114
 20
754.65897760654
 30
0.0
 11
459.8261800208114
 21
754.6589776065398
 31
0.0
  0
LINE
  5
3B6
330
17
100
AcDbEntity
  8
4
100
AcDbLine
 10
444.8261800208114
 20
756.6681442695399
 30
0.0
 11
459.8261800208114
 21
756.6681442695399
 31
0.0
  0
ARC
  5
3B7
330
17
100
AcDbEntity
  8
4
100
AcDbCircle
 10
542.826180020811
 20
498.4407371381239
 30
0.0
 40
2.0
100
AcDbArc
 50
0.0
 51
90.0
  0
ARC
  5
3B8
330
17
100
AcDbEntity
  8
4
100
AcDbCircle
 10
535.826180020811
 20
491.4407371381244
 30
0.0
 40
2.0
100
AcDbArc
 50
0.0
 51
90.0
  0
LINE
  5
3B9
330
17
100
AcDbEntity
  8
4
100
AcDbLine
 10
509.8261800208119
 20
480.4407371381251
 30
0.0
 11
523.1595133541449
 21
480.4407371381251
 31
0.0
  0
ARC
  5
3BA
330
17
100
AcDbEntity
  8
4
100
AcDbCircle
 10
521.2834985471144
 20
505.848124326682
 30
0.0
 40
3.0
100
AcDbArc
 50
75.64027551684302
 51
186.3877093326676
  0
LINE
  5
3BB
330
17
100
AcDbEntity
  8
4
100
AcDbLine
 10
518.3021231237516
 20
505.5143570650089
 30
0.0
 11
518.870118759757
 21
500.4407371381244
 31
0.0
  0
ARC
  5
3BC
330
17
100
AcDbEntity
  8
4
100
AcDbCircle
 10
484.8261800208119
 20
363.4407371381249
 30
0.0
 40
150.0
100
AcDbArc
 50
75.64027551684158
 51
75.64027551684158
  0
LINE
  5
3BD
330
17
100
AcDbEntity
  8
4
100
AcDbLine
 10
514.8261800208119
 20
445.4407371381251
 30
0.0
 11
521.8261800208119
 21
445.4407371381253
 31
0.0
  0
LINE
  5
3BE
330
17
100
AcDbEntity
  8
4
100
AcDbLine
 10
523.1595133541449
 20
480.4407371381251
 30
0.0
 11
514.8261800208119
 21
445.4407371381251
 31
0.0
  0
LINE
  5
3BF
330
17
100
AcDbEntity
  8
4
100
AcDbLine
 10
531.8261800208119
 20
487.4407371381251
 30
0.0
 11
521.8261800208119
 21
445.4407371381251
 31
0.0
  0
LINE
  5
3C0
330
17
100
AcDbEntity
  8
4
100
AcDbLine
 10
509.8261800208119
 20
480.4407371381251
 30
0.0
 11
509.8261800208119
 21
473.4407371381251
 31
0.0
  0
LINE
  5
3C1
330
17
100
AcDbEntity
  8
4
100
AcDbLine
 10
518.870118759757
 20
500.4407371381242
 30
0.0
 11
542.826180020811
 21
500.4407371381239
 31
0.0
  0
LINE
  5
3C2
330
17
100
AcDbEntity
  8
4
100
AcDbLine
 10
497.3261800208119
 20
550.4407371381249
 30
0.0
 11
484.8261800208119
 21
552.4407371381249
 31
0.0
  0
ARC
  5
3C3
330
17
100
AcDbEntity
  8
4
100
AcDbCircle
 10
507.8261800208119
 20
539.9146131381249
 30
0.0
 40
2.999984
100
AcDbArc
 50
180.0
 51
267.3785950000004
  0
ARC
  5
3C4
330
17
100
AcDbEntity
  8
4
100
AcDbCircle
 10
498.726084020812
 20
544.9964011381248
 30
0.0
 40
1.399916
100
AcDbArc
 50
121.7691610000011
 51
180.0
  0
LINE
  5
3C5
330
17
100
AcDbEntity
  8
4
100
AcDbLine
 10
504.8261800208119
 20
541.4407371381249
 30
0.0
 11
504.8261800208119
 21
539.9146131381249
 31
0.0
  0
LINE
  5
3C6
330
17
100
AcDbEntity
  8
4
100
AcDbLine
 10
504.8261800208119
 20
541.4407371381249
 30
0.0
 11
484.8261800208119
 21
541.4407371381249
 31
0.0
  0
LINE
  5
3C7
330
17
100
AcDbEntity
  8
4
100
AcDbLine
 10
497.3261800208119
 20
541.4407371381249
 30
0.0
 11
497.3261800208119
 21
550.4407371381249
 31
0.0
  0
LINE
  5
3C8
330
17
100
AcDbEntity
  8
4
100
AcDbLine
 10
464.8261800208119
 20
541.4407371381249
 30
0.0
 11
464.8261800208119
 21
539.9146131381249
 31
0.0
  0
ARC
  5
3C9
330
17
100
AcDbEntity
  8
4
100
AcDbCircle
 10
470.9260360208119
 20
544.9964011381248
 30
0.0
 40
1.399916
100
AcDbArc
 50
0.0
 51
58.23083899999887
  0
ARC
  5
3CA
330
17
100
AcDbEntity
  8
4
100
AcDbCircle
 10
461.8261800208119
 20
539.9146131381249
 30
0.0
 40
2.999984
100
AcDbArc
 50
272.6214049999996
 51
0.0
  0
LINE
  5
3CB
330
17
100
AcDbEntity
  8
4
100
AcDbLine
 10
472.3261800208119
 20
541.4407371381249
 30
0.0
 11
472.3261800208119
 21
550.4407371381249
 31
0.0
  0
CIRCLE
  5
3CC
330
17
100
AcDbEntity
  8
4
100
AcDbCircle
 10
484.8261800208119
 20
567.4407371381249
 30
0.0
 40
15.0
  0
LINE
  5
3CD
330
17
100
AcDbEntity
  8
4
100
AcDbLine
 10
464.8261800208119
 20
541.4407371381249
 30
0.0
 11
484.8261800208119
 21
541.4407371381249
 31
0.0
  0
LINE
  5
3CE
330
17
100
AcDbEntity
  8
4
100
AcDbLine
 10
497.3261800208119
 20
541.4407371381249
 30
0.0
 11
472.3261800208119
 21
541.4407371381249
 31
0.0
  0
LINE
  5
3CF
330
17
100
AcDbEntity
  8
4
100
AcDbLine
 10
472.3261800208119
 20
550.4407371381249
 30
0.0
 11
497.3261800208119
 21
550.4407371381249
 31
0.0
  0
LINE
  5
3D0
330
17
100
AcDbEntity
  8
4
100
AcDbLine
 10
484.8261800208119
 20
552.4407371381249
 30
0.0
 11
472.3261800208119
 21
550.4407371381249
 31
0.0
  0
LINE
  5
3D1
330
17
100
AcDbEntity
  8
4
100
AcDbLine
 10
500.8261800208119
 20
469.9407371381251
 30
0.0
 11
500.8261800208119
 21
462.9407371381249
 31
0.0
  0
LINE
  5
3D2
330
17
100
AcDbEntity
  8
4
100
AcDbLine
 10
491.826180020811
 20
469.9407371381251
 30
0.0
 11
491.826180020811
 21
462.9407371381249
 31
0.0
  0
LINE
  5
3D3
330
17
100
AcDbEntity
  8
4
100
AcDbLine
 10
483.5685212308766
 20
445.4407371381251
 30
0.0
 11
480.6935212308771
 21
455.9407371381249
 31
0.0
  0
LINE
  5
3D4
330
17
100
AcDbEntity
  8
4
100
AcDbLine
 10
483.5685212308766
 20
445.4407371381251
 30
0.0
 11
490.8261800208114
 21
445.4407371381253
 31
0.0
  0
LINE
  5
3D5
330
17
100
AcDbEntity
  8
4
100
AcDbLine
 10
491.826180020811
 20
462.9407371381249
 30
0.0
 11
500.8261800208119
 21
462.9407371381249
 31
0.0
  0
LINE
  5
3D6
330
17
100
AcDbEntity
  8
4
100
AcDbLine
 10
491.826180020811
 20
469.9407371381251
 30
0.0
 11
500.8261800208119
 21
469.9407371381251
 31
0.0
  0
LINE
  5
3D7
330
17
100
AcDbEntity
  8
4
100
AcDbLine
 10
502.8261800208119
 20
487.4407371381251
 30
0.0
 11
502.826180020811
 21
473.4407371381251
 31
0.0
  0
LINE
  5
3D8
330
17
100
AcDbEntity
  8
4
100
AcDbLine
 10
490.8261800208114
 20
445.4407371381251
 30
0.0
 11
479.3261800208114
 21
487.4407371381251
 31
0.0
  0
LINE
  5
3D9
330
17
100
AcDbEntity
  8
4
100
AcDbLine
 10
451.3502369178722
 20
505.5143570650089
 30
0.0
 11
450.7822412818667
 21
500.4407371381244
 31
0.0
  0
ARC
  5
3DA
330
17
100
AcDbEntity
  8
4
100
AcDbCircle
 10
484.8261800208119
 20
363.4407371381249
 30
0.0
 40
150.0
100
AcDbArc
 50
104.3597244831584
 51
104.3597244831584
  0
ARC
  5
3DB
330
17
100
AcDbEntity
  8
4
100
AcDbCircle
 10
448.3688614945094
 20
505.848124326682
 30
0.0
 40
3.0
100
AcDbArc
 50
353.6122906673324
 51
104.359724483158
  0
LINE
  5
3DC
330
17
100
AcDbEntity
  8
4
100
AcDbLine
 10
470.9588388107458
 20
455.9407371381249
 30
0.0
 11
468.0838388107458
 21
445.4407371381251
 31
0.0
  0
LINE
  5
3DD
330
17
100
AcDbEntity
  8
4
100
AcDbLine
 10
475.8261800208114
 20
473.7171137314083
 30
0.0
 11
472.8755054774123
 21
462.9407371381249
 31
0.0
  0
LINE
  5
3DE
330
17
100
AcDbEntity
  8
4
100
AcDbLine
 10
459.8261800208114
 20
452.4407371381251
 30
0.0
 11
459.8261800208114
 21
445.4407371381251
 31
0.0
  0
LINE
  5
3DF
330
17
100
AcDbEntity
  8
4
100
AcDbLine
 10
460.8261800208114
 20
445.4407371381251
 30
0.0
 11
468.0838388107458
 21
445.4407371381251
 31
0.0
  0
LINE
  5
3E0
330
17
100
AcDbEntity
  8
4
100
AcDbLine
 10
472.3261800208114
 20
487.4407371381251
 30
0.0
 11
460.8261800208114
 21
445.4407371381251
 31
0.0
  0
LINE
  5
3E1
330
17
100
AcDbEntity
  8
4
100
AcDbLine
 10
470.9588388107458
 20
455.9407371381249
 30
0.0
 11
480.6935212308771
 21
455.9407371381249
 31
0.0
  0
LINE
  5
3E2
330
17
100
AcDbEntity
  8
4
100
AcDbLine
 10
472.8755054774123
 20
462.9407371381249
 30
0.0
 11
478.7768545642101
 21
462.9407371381249
 31
0.0
  0
LINE
  5
3E3
330
17
100
AcDbEntity
  8
4
100
AcDbLine
 10
478.7768545642101
 20
462.9407371381249
 30
0.0
 11
475.8261800208114
 21
473.7171137314083
 31
0.0
  0
LINE
  5
3E4
330
17
100
AcDbEntity
  8
4
100
AcDbLine
 10
472.3261800208114
 20
487.4407371381251
 30
0.0
 11
479.3261800208114
 21
487.4407371381251
 31
0.0
  0
LINE
  5
3E5
330
17
100
AcDbEntity
  8
L-CENTER
100
AcDbLine
 10
450.7588000208119
 20
567.4407371381249
 30
0.0
 11
518.8935600208118
 21
567.4407371381249
 31
0.0
  0
LINE
  5
3E6
330
17
100
AcDbEntity
  8
4
100
AcDbLine
 10
502.8261800208119
 20
487.4407371381251
 30
0.0
 11
531.8261800208119
 21
487.4407371381251
 31
0.0
  0
LINE
  5
3E7
330
17
100
AcDbEntity
  8
4
100
AcDbLine
 10
502.826180020811
 20
473.4407371381251
 30
0.0
 11
509.8261800208119
 21
473.4407371381251
 31
0.0
  0
ARC
  5
3E8
330
17
100
AcDbEntity
  8
4
100
AcDbCircle
 10
484.8261800208119
 20
567.4407371381249
 30
0.0
 40
25.000016
100
AcDbArc
 50
300.0
 51
238.228535
  0
LINE
  5
3E9
330
17
100
AcDbEntity
  8
4
100
AcDbLine
 10
406.8261800208119
 20
540.4407371381249
 30
0.0
 11
406.8261800208119
 21
538.4407371381249
 31
0.0
  0
LINE
  5
3EA
330
17
100
AcDbEntity
  8
4
100
AcDbLine
 10
409.8261800208119
 20
538.4407371381249
 30
0.0
 11
409.8261800208119
 21
537.5657371381249
 31
0.0
  0
ARC
  5
3EB
330
17
100
AcDbEntity
  8
4
100
AcDbCircle
 10
414.8261800208119
 20
537.5657371381249
 30
0.0
 40
4.999984
100
AcDbArc
 50
180.0
 51
277.9710580000001
  0
LINE
  5
3EC
330
17
100
AcDbEntity
  8
4
100
AcDbLine
 10
396.3261800208119
 20
544.4407371381249
 30
0.0
 11
396.3261800208119
 21
549.4407371381249
 31
0.0
  0
LINE
  5
3ED
330
17
100
AcDbEntity
  8
4
100
AcDbLine
 10
407.8261800208119
 20
540.4407371381249
 30
0.0
 11
407.8261800208119
 21
549.4407371381249
 31
0.0
  0
LINE
  5
3EE
330
17
100
AcDbEntity
  8
4
100
AcDbLine
 10
437.8261800208114
 20
487.4407371381251
 30
0.0
 11
444.8261800208114
 21
487.4407371381251
 31
0.0
  0
ARC
  5
3EF
330
17
100
AcDbEntity
  8
4
100
AcDbCircle
 10
426.8261800208128
 20
498.4407371381239
 30
0.0
 40
2.0
100
AcDbArc
 50
90.0
 51
180.0
  0
ARC
  5
3F0
330
17
100
AcDbEntity
  8
4
100
AcDbCircle
 10
433.8261800208128
 20
491.4407371381244
 30
0.0
 40
2.0
100
AcDbArc
 50
90.0
 51
180.0
  0
LINE
  5
3F1
330
17
100
AcDbEntity
  8
4
100
AcDbLine
 10
437.8261800208114
 20
487.4407371381251
 30
0.0
 11
437.8261800208114
 21
445.4407371381253
 31
0.0
  0
LINE
  5
3F2
330
17
100
AcDbEntity
  8
4
100
AcDbLine
 10
444.8261800208114
 20
487.4407371381251
 30
0.0
 11
444.8261800208114
 21
452.4407371381251
 31
0.0
  0
LINE
  5
3F3
330
17
100
AcDbEntity
  8
4
100
AcDbLine
 10
359.8261800208119
 20
538.4407371381249
 30
0.0
 11
359.8261800208119
 21
525.4212051381248
 31
0.0
  0
ARC
  5
3F4
330
17
100
AcDbEntity
  8
4
100
AcDbCircle
 10
354.8261800208119
 20
525.4212051381248
 30
0.0
 40
5.000032
100
AcDbArc
 50
284.9176830000003
 51
0.0
  0
LINE
  5
3F5
330
17
100
AcDbEntity
  8
4
100
AcDbLine
 10
362.8261800208119
 20
540.4407371381249
 30
0.0
 11
362.8261800208119
 21
538.4407371381249
 31
0.0
  0
LINE
  5
3F6
330
17
100
AcDbEntity
  8
4
100
AcDbLine
 10
361.8261800208119
 20
540.4407371381249
 30
0.0
 11
361.8261800208119
 21
549.4407371381249
 31
0.0
  0
LINE
  5
3F7
330
17
100
AcDbEntity
  8
4
100
AcDbLine
 10
373.3261800208119
 20
544.4407371381249
 30
0.0
 11
373.3261800208119
 21
549.4407371381249
 31
0.0
  0
ARC
  5
3F8
330
17
100
AcDbEntity
  8
4
100
AcDbCircle
 10
338.0786240208118
 20
510.1880491381248
 30
0.0
 40
4.999992
100
AcDbArc
 50
107.2462179999999
 51
162.7535469999998
  0
LINE
  5
3F9
330
17
100
AcDbEntity
  8
L-CENTER
100
AcDbLine
 10
384.8261800208119
 20
553.6619102716262
 30
0.0
 11
384.8261800208119
 21
501.5889102716262
 31
0.0
  0
LINE
  5
3FA
330
17
100
AcDbEntity
  8
4
100
AcDbLine
 10
361.8261800208119
 20
544.4407371381249
 30
0.0
 11
407.8261800208119
 21
544.4407371381249
 31
0.0
  0
LINE
  5
3FB
330
17
100
AcDbEntity
  8
4
100
AcDbLine
 10
361.8261800208119
 20
540.4407371381249
 30
0.0
 11
407.8261800208119
 21
540.4407371381249
 31
0.0
  0
LINE
  5
3FC
330
17
100
AcDbEntity
  8
4
100
AcDbLine
 10
359.8261800208119
 20
538.4407371381249
 30
0.0
 11
409.8261800208119
 21
538.4407371381249
 31
0.0
  0
LINE
  5
3FD
330
17
100
AcDbEntity
  8
4
100
AcDbLine
 10
362.8261800208119
 20
538.4407371381249
 30
0.0
 11
406.8261800208119
 21
538.4407371381249
 31
0.0
  0
LINE
  5
3FE
330
17
100
AcDbEntity
  8
4
100
AcDbLine
 10
361.8261800208119
 20
549.4407371381249
 30
0.0
 11
407.8261800208119
 21
549.4407371381249
 31
0.0
  0
ARC
  5
3FF
330
17
100
AcDbEntity
  8
4
100
AcDbCircle
 10
484.8261800208119
 20
37.44073313812487
 30
0.0
 40
499.999948
100
AcDbArc
 50
89.999972
 51
107.24523
  0
LINE
  5
400
330
17
100
AcDbEntity
  8
4
100
AcDbLine
 10
433.8261800208128
 20
493.4407371381254
 30
0.0
 11
535.826180020811
 21
493.4407371381244
 31
0.0
  0
LINE
  5
401
330
17
100
AcDbEntity
  8
4
100
AcDbLine
 10
450.7822412818667
 20
500.4407371381242
 30
0.0
 11
426.8261800208128
 21
500.4407371381239
 31
0.0
  0
LINE
  5
402
330
17
100
AcDbEntity
  8
4
100
AcDbLine
 10
437.8261800208114
 20
445.4407371381253
 30
0.0
 11
459.8261800208114
 21
445.4407371381251
 31
0.0
  0
LINE
  5
403
330
17
100
AcDbEntity
  8
4
100
AcDbLine
 10
444.8261800208114
 20
452.4407371381251
 30
0.0
 11
459.8261800208114
 21
452.4407371381251
 31
0.0
  0
LINE
  5
404
330
17
100
AcDbEntity
  8
4
100
AcDbLine
 10
631.8261840208121
 20
775.33397760654
 30
0.0
 11
541.8261800208121
 21
745.33397760654
 31
0.0
  0
LINE
  5
405
330
17
100
AcDbEntity
  8
4
100
AcDbLine
 10
535.501476020812
 20
745.33397760654
 30
0.0
 11
625.501476020812
 21
775.33397760654
 31
0.0
  0
ARC
  5
406
330
17
100
AcDbEntity
  8
4
100
AcDbCircle
 10
484.8261800208119
 20
37.44073313812487
 30
0.0
 40
499.999968
100
AcDbArc
 50
72.75419100000002
 51
89.999972
  0
LINE
  5
407
330
17
100
AcDbEntity
  8
4
100
AcDbLine
 10
542.8261800208121
 20
739.33397760654
 30
0.0
 11
636.8261800208121
 21
739.33397760654
 31
0.0
  0
LINE
  5
408
330
17
100
AcDbEntity
  8
L-CENTER
100
AcDbLine
 10
484.8261800208121
 20
717.7285582686336
 30
0.0
 11
484.8261800208121
 21
1110.254444957709
 31
0.0
  0
LINE
  5
409
330
17
100
AcDbEntity
  8
4
100
AcDbLine
 10
656.8261800208121
 20
775.3339776065402
 30
0.0
 11
656.8261800208121
 21
787.3339776065404
 31
0.0
  0
LINE
  5
40A
330
17
100
AcDbEntity
  8
4
100
AcDbLine
 10
312.826180020812
 20
931.33397760654
 30
0.0
 11
312.8261800208121
 21
933.33397760654
 31
0.0
  0
ARC
  5
40B
330
17
100
AcDbEntity
  8
4
100
AcDbCircle
 10
316.4649640886446
 20
951.3502676774808
 30
0.0
 40
3.783613929059507
100
AcDbArc
 50
49.57010315517341
 51
130.4298968448266
  0
LINE
  5
40C
330
17
100
AcDbEntity
  8
4
100
AcDbLine
 10
318.9187027327006
 20
954.2303546606881
 30
0.0
 11
318.9187027327006
 21
948.13388160654
 31
0.0
  0
LINE
  5
40D
330
17
100
AcDbEntity
  8
4
100
AcDbLine
 10
314.0112254445888
 20
945.63388160654
 30
0.0
 11
314.0112254445888
 21
954.2303546606881
 31
0.0
  0
ARC
  5
40E
330
17
100
AcDbEntity
  8
4
100
AcDbCircle
 10
313.826180020812
 20
944.6339776065402
 30
0.0
 40
1.0
100
AcDbArc
 50
90.0
 51
180.0
  0
ARC
  5
40F
330
17
100
AcDbEntity
  8
4
100
AcDbCircle
 10
313.826180020812
 20
944.6339776065402
 30
0.0
 40
1.0
100
AcDbArc
 50
90.0
 51
180.0
  0
LINE
  5
410
330
17
100
AcDbEntity
  8
4
100
AcDbLine
 10
312.8261800208119
 20
944.6339776065399
 30
0.0
 11
312.8261800208119
 21
933.6339776065399
 31
0.0
  0
LINE
  5
411
330
17
100
AcDbEntity
  8
4
100
AcDbLine
 10
312.8261800208119
 20
944.6339776065399
 30
0.0
 11
312.8261800208119
 21
934.6576884642657
 31
0.0
  0
ARC
  5
412
330
17
100
AcDbEntity
  8
4
100
AcDbCircle
 10
301.0261800208121
 20
928.33397760654
 30
0.0
 40
1.0
100
AcDbArc
 50
90.0
 51
180.0
  0
LINE
  5
413
330
17
100
AcDbEntity
  8
4
100
AcDbLine
 10
310.8261800208116
 20
929.33397760654
 30
0.0
 11
301.0261800208121
 21
929.33397760654
 31
0.0
  0
LINE
  5
414
330
17
100
AcDbEntity
  8
4
100
AcDbLine
 10
297.5261800208124
 20
891.9454299015092
 30
0.0
 11
297.5261800208124
 21
911.5753390539562
 31
0.0
  0
LINE
  5
415
330
17
100
AcDbEntity
  8
4
100
AcDbLine
 10
300.0261800208124
 20
891.9454299015092
 30
0.0
 11
300.0261800208124
 21
911.5753390539562
 31
0.0
  0
ARC
  5
416
330
17
100
AcDbEntity
  8
4
100
AcDbCircle
 10
294.3097939498717
 20
909.1216004099006
 30
0.0
 40
3.783613929059507
100
AcDbArc
 50
139.5701031551729
 51
220.4298968448271
  0
LINE
  5
417
330
17
100
AcDbEntity
  8
4
100
AcDbLine
 10
290.5261800208124
 20
909.1216004099006
 30
0.0
 11
290.5261800208124
 21
894.3991685455649
 31
0.0
  0
ARC
  5
418
330
17
100
AcDbEntity
  8
4
100
AcDbCircle
 10
304.3053453182716
 20
901.7603844777327
 30
0.0
 40
13.77916529745958
100
AcDbArc
 50
159.1359356360806
 51
200.8640643639194
  0
ARC
  5
419
330
17
100
AcDbEntity
  8
4
100
AcDbCircle
 10
294.3097939498717
 20
894.3991685455649
 30
0.0
 40
3.783613929059507
100
AcDbArc
 50
139.5701031551729
 51
220.4298968448271
  0
LINE
  5
41A
330
17
100
AcDbEntity
  8
L-CENTER
100
AcDbLine
 10
320.5534208501509
 20
901.7603844777327
 30
0.0
 11
287.6582017662328
 21
901.7603844777327
 31
0.0
  0
LINE
  5
41B
330
17
100
AcDbEntity
  8
4
100
AcDbLine
 10
291.4297069666642
 20
891.9454299015092
 30
0.0
 11
300.0261800208124
 21
891.9454299015092
 31
0.0
  0
LINE
  5
41C
330
17
100
AcDbEntity
  8
4
100
AcDbLine
 10
291.4297069666642
 20
906.6678617658445
 30
0.0
 11
297.5261800208124
 21
906.6678617658445
 31
0.0
  0
LINE
  5
41D
330
17
100
AcDbEntity
  8
4
100
AcDbLine
 10
291.4297069666642
 20
896.852907189621
 30
0.0
 11
297.5261800208124
 21
896.852907189621
 31
0.0
  0
LINE
  5
41E
330
17
100
AcDbEntity
  8
4
100
AcDbLine
 10
300.0261800208124
 20
911.5753390539562
 30
0.0
 11
291.4297069666642
 21
911.5753390539562
 31
0.0
  0
ARC
  5
41F
330
17
100
AcDbEntity
  8
4
100
AcDbCircle
 10
301.0261800208121
 20
790.33397760654
 30
0.0
 40
1.0
100
AcDbArc
 50
180.0
 51
270.0
  0
LINE
  5
420
330
17
100
AcDbEntity
  8
4
100
AcDbLine
 10
310.8261800208116
 20
789.33397760654
 30
0.0
 11
301.0261800208121
 21
789.33397760654
 31
0.0
  0
LINE
  5
421
330
17
100
AcDbEntity
  8
4
100
AcDbLine
 10
300.0261800208124
 20
826.7225253115707
 30
0.0
 11
300.0261800208124
 21
807.0926161591237
 31
0.0
  0
LINE
  5
422
330
17
100
AcDbEntity
  8
4
100
AcDbLine
 10
297.5261800208124
 20
826.7225253115707
 30
0.0
 11
297.5261800208124
 21
807.0926161591237
 31
0.0
  0
ARC
  5
423
330
17
100
AcDbEntity
  8
4
100
AcDbCircle
 10
294.3097939498717
 20
824.2687866675151
 30
0.0
 40
3.783613929059507
100
AcDbArc
 50
139.5701031551729
 51
220.4298968448271
  0
ARC
  5
424
330
17
100
AcDbEntity
  8
4
100
AcDbCircle
 10
294.3097939498717
 20
809.5463548031794
 30
0.0
 40
3.783613929059507
100
AcDbArc
 50
139.5701031551729
 51
220.4298968448271
  0
LINE
  5
425
330
17
100
AcDbEntity
  8
4
100
AcDbLine
 10
290.5261800208124
 20
809.5463548031794
 30
0.0
 11
290.5261800208124
 21
824.2687866675151
 31
0.0
  0
ARC
  5
426
330
17
100
AcDbEntity
  8
4
100
AcDbCircle
 10
304.3053453182716
 20
816.9075707353472
 30
0.0
 40
13.77916529745958
100
AcDbArc
 50
159.1359356360806
 51
200.8640643639194
  0
LINE
  5
427
330
17
100
AcDbEntity
  8
L-CENTER
100
AcDbLine
 10
320.5534208501509
 20
816.9075707353472
 30
0.0
 11
287.6582017662328
 21
816.9075707353472
 31
0.0
  0
LINE
  5
428
330
17
100
AcDbEntity
  8
4
100
AcDbLine
 10
300.0261800208124
 20
807.0926161591237
 30
0.0
 11
291.4297069666642
 21
807.0926161591237
 31
0.0
  0
LINE
  5
429
330
17
100
AcDbEntity
  8
4
100
AcDbLine
 10
291.4297069666642
 20
821.815048023459
 30
0.0
 11
297.5261800208124
 21
821.815048023459
 31
0.0
  0
LINE
  5
42A
330
17
100
AcDbEntity
  8
4
100
AcDbLine
 10
291.4297069666642
 20
812.0000934472355
 30
0.0
 11
297.5261800208124
 21
812.0000934472355
 31
0.0
  0
LINE
  5
42B
330
17
100
AcDbEntity
  8
4
100
AcDbLine
 10
291.4297069666642
 20
826.7225253115707
 30
0.0
 11
300.0261800208124
 21
826.7225253115707
 31
0.0
  0
LINE
  5
42C
330
17
100
AcDbEntity
  8
4
100
AcDbLine
 10
310.8261800208116
 20
787.33397760654
 30
0.0
 11
310.8261800208116
 21
931.33397760654
 31
0.0
  0
LINE
  5
42D
330
17
100
AcDbEntity
  8
4
100
AcDbLine
 10
300.0261800208121
 20
790.33397760654
 30
0.0
 11
300.0261800208121
 21
928.33397760654
 31
0.0
  0
LINE
  5
42E
330
17
100
AcDbEntity
  8
4
100
AcDbLine
 10
312.8261800208121
 20
775.3339776065397
 30
0.0
 11
312.826180020812
 21
787.3339776065402
 31
0.0
  0
LINE
  5
42F
330
17
100
AcDbEntity
  8
L-CENTER
100
AcDbLine
 10
783.0402682014052
 20
859.33397760654
 30
0.0
 11
294.4972675483107
 21
859.33397760654
 31
0.0
  0
ARC
  5
430
330
17
100
AcDbEntity
  8
4
100
AcDbCircle
 10
332.8261800208121
 20
747.33397760654
 30
0.0
 40
8.0
100
AcDbArc
 50
180.0
 51
270.0
  0
ARC
  5
431
330
17
100
AcDbEntity
  8
4
100
AcDbCircle
 10
332.8261800208116
 20
971.33397760654
 30
0.0
 40
8.0
100
AcDbArc
 50
90.0
 51
180.0
  0
LINE
  5
433
330
17
100
AcDbEntity
  8
4
100
AcDbLine
 10
312.8261800208121
 20
775.3339776065397
 30
0.0
 11
656.8261800208121
 21
775.3339776065402
 31
0.0
  0
LINE
  5
434
330
17
100
AcDbEntity
  8
4
100
AcDbLine
 10
310.8261800208116
 20
787.33397760654
 30
0.0
 11
658.8261800208121
 21
787.3339776065402
 31
0.0
  0
LINE
  5
435
330
17
100
AcDbEntity
  8
4
100
AcDbLine
 10
310.8261800208116
 20
931.33397760654
 30
0.0
 11
658.8261800208121
 21
931.3339776065395
 31
0.0
  0
LINE
  5
436
330
17
100
AcDbEntity
  8
4
100
AcDbLine
 10
312.8261800208121
 20
933.33397760654
 30
0.0
 11
656.8261800208121
 21
933.33397760654
 31
0.0
  0
LINE
  5
437
330
17
100
AcDbEntity
  8
4
100
AcDbLine
 10
312.8261800208121
 20
933.6339776065399
 30
0.0
 11
656.8261840208116
 21
933.6339776065397
 31
0.0
  0
LINE
  5
438
330
17
100
AcDbEntity
  8
4
100
AcDbLine
 10
333.6411345970361
 20
945.63388160654
 30
0.0
 11
314.0112254445888
 21
945.63388160654
 31
0.0
  0
LINE
  5
439
330
17
100
AcDbEntity
  8
4
100
AcDbLine
 10
333.6411345970361
 20
948.13388160654
 30
0.0
 11
314.0112254445888
 21
948.13388160654
 31
0.0
  0
LINE
  5
43A
330
17
100
AcDbEntity
  8
4
100
AcDbLine
 10
316.4649640886447
 20
955.13388160654
 30
0.0
 11
331.1873959529802
 21
955.13388160654
 31
0.0
  0
ARC
  5
43B
330
17
100
AcDbEntity
  8
4
100
AcDbCircle
 10
323.8261800208124
 20
941.3547163090809
 30
0.0
 40
13.77916529745958
100
AcDbArc
 50
69.13593563607996
 51
110.8640643639201
  0
LINE
  5
43C
330
17
100
AcDbEntity
  8
4
100
AcDbLine
 10
313.8261800208119
 20
945.6339776065399
 30
0.0
 11
655.8261800208121
 21
945.6339776065399
 31
0.0
  0
LINE
  5
43D
330
17
100
AcDbEntity
  8
4
100
AcDbLine
 10
313.8261800208119
 20
945.6339776065399
 30
0.0
 11
334.8261800208119
 21
945.6339776065399
 31
0.0
  0
LINE
  5
43F
330
17
100
AcDbEntity
  8
4
100
AcDbLine
 10
763.8261840208121
 20
206.4407331381249
 30
0.0
 11
764.8261840208121
 21
205.4407331381249
 31
0.0
  0
LINE
  5
440
330
17
100
AcDbEntity
  8
4
100
AcDbLine
 10
763.8261840208121
 20
170.4407331381249
 30
0.0
 11
764.8261840208121
 21
171.4407331381249
 31
0.0
  0
LINE
  5
441
330
17
100
AcDbEntity
  8
4
100
AcDbLine
 10
763.8261840208121
 20
206.4407331381249
 30
0.0
 11
763.8261840208121
 21
170.4407331381249
 31
0.0
  0
LINE
  5
442
330
17
100
AcDbEntity
  8
4
100
AcDbLine
 10
764.8261840208121
 20
171.4407331381249
 30
0.0
 11
764.8261840208121
 21
209.9407331381249
 31
0.0
  0
ARC
  5
446
330
17
100
AcDbEntity
  8
4
100
AcDbCircle
 10
627.237804020812
 20
399.8816531381249
 30
0.0
 40
3.0001
100
AcDbArc
 50
263.8240599999992
 51
14.35174199999991
  0
ARC
  5
447
330
17
100
AcDbEntity
  8
4
100
AcDbCircle
 10
627.237804020812
 20
326.9998171381249
 30
0.0
 40
2.99998
100
AcDbArc
 50
345.6471020000006
 51
96.17594000000018
  0
LINE
  5
449
330
17
100
AcDbEntity
  8
4
100
AcDbLine
 10
678.2226530749598
 20
235.7746172974296
 30
0.0
 11
672.1261800208116
 21
235.7746172974296
 31
0.0
  0
LINE
  5
44A
330
17
100
AcDbEntity
  8
4
100
AcDbLine
 10
669.6261800208116
 20
240.6820945855413
 30
0.0
 11
678.2226530749598
 21
240.6820945855413
 31
0.0
  0
ARC
  5
44B
330
17
100
AcDbEntity
  8
4
100
AcDbCircle
 10
668.6260840208118
 20
257.4407371381249
 30
0.0
 40
1.0
100
AcDbArc
 50
0.0
 51
90.0
  0
ARC
  5
44C
330
17
100
AcDbEntity
  8
4
100
AcDbCircle
 10
675.3425660917522
 20
238.2283559414857
 30
0.0
 40
3.783613929059507
100
AcDbArc
 50
319.5701031551723
 51
40.42989684482771
  0
LINE
  5
44E
330
17
100
AcDbEntity
  8
4
100
AcDbLine
 10
657.8261800208116
 20
258.4407371381249
 30
0.0
 11
655.6412345228357
 21
258.4407371381249
 31
0.0
  0
LINE
  5
44F
330
17
100
AcDbEntity
  8
4
100
AcDbLine
 10
657.8261800208116
 20
258.4407371381249
 30
0.0
 11
668.6260840208118
 21
258.4407371381249
 31
0.0
  0
LINE
  5
450
330
17
100
AcDbEntity
  8
4
100
AcDbLine
 10
689.8261800208116
 20
206.4407331381249
 30
0.0
 11
689.8261800208116
 21
209.9407331381249
 31
0.0
  0
LINE
  5
451
330
17
100
AcDbEntity
  8
4
100
AcDbLine
 10
669.726084020812
 20
219.4407331381249
 30
0.0
 11
670.726084020812
 21
219.4407331381249
 31
0.0
  0
LINE
  5
452
330
17
100
AcDbEntity
  8
4
100
AcDbLine
 10
678.2226530749598
 20
221.0521854330943
 30
0.0
 11
669.6261800208116
 21
221.0521854330943
 31
0.0
  0
LINE
  5
453
330
17
100
AcDbEntity
  8
4
100
AcDbLine
 10
678.2226530749598
 20
225.9596627212061
 30
0.0
 11
672.1261800208116
 21
225.9596627212061
 31
0.0
  0
LINE
  5
454
330
17
100
AcDbEntity
  8
4
100
AcDbLine
 10
670.726084020812
 20
208.4407331381249
 30
0.0
 11
684.8261800208116
 21
208.4407331381249
 31
0.0
  0
ARC
  5
455
330
17
100
AcDbEntity
  8
4
100
AcDbCircle
 10
675.3425660917522
 20
223.50592407715
 30
0.0
 40
3.783613929059507
100
AcDbArc
 50
319.5701031551723
 51
40.42989684482771
  0
LINE
  5
456
330
17
100
AcDbEntity
  8
4
100
AcDbLine
 10
684.8261800208116
 20
168.4407331381249
 30
0.0
 11
670.726084020812
 21
168.4407331381249
 31
0.0
  0
LINE
  5
457
330
17
100
AcDbEntity
  8
4
100
AcDbLine
 10
684.8261800208116
 20
208.4407331381249
 30
0.0
 11
684.8261800208116
 21
168.4407331381249
 31
0.0
  0
ARC
  5
458
330
17
100
AcDbEntity
  8
4
100
AcDbCircle
 10
631.5739840208122
 20
216.6934211381249
 30
0.0
 40
4.99996
100
AcDbArc
 50
287.2467110000002
 51
342.7532859999994
  0
LINE
  5
459
330
17
100
AcDbEntity
  8
L-CENTER
100
AcDbLine
 10
682.2619532724658
 20
230.8672491381249
 30
0.0
 11
641.854973272466
 21
230.8672491381249
 31
0.0
  0
LINE
  5
45B
330
17
100
AcDbEntity
  8
4
100
AcDbLine
 10
672.1261800208116
 20
221.0521854330943
 30
0.0
 11
672.1261800208116
 21
240.6820945855413
 31
0.0
  0
LINE
  5
45C
330
17
100
AcDbEntity
  8
4
100
AcDbLine
 10
669.6261800208116
 20
221.0521854330943
 30
0.0
 11
669.6261800208116
 21
240.6820945855413
 31
0.0
  0
LINE
  5
45D
330
17
100
AcDbEntity
  8
4
100
AcDbLine
 10
679.1261800208116
 20
238.2283559414857
 30
0.0
 11
679.1261800208116
 21
223.50592407715
 31
0.0
  0
ARC
  5
45E
330
17
100
AcDbEntity
  8
4
100
AcDbCircle
 10
665.3470147233523
 20
230.8671400093178
 30
0.0
 40
13.77916529745958
100
AcDbArc
 50
339.1359356360801
 51
20.86406436391987
  0
LINE
  5
45F
330
17
100
AcDbEntity
  8
4
100
AcDbLine
 10
689.8261800208116
 20
209.9407331381249
 30
0.0
 11
764.8261840208121
 21
209.9407331381249
 31
0.0
  0
LINE
  5
460
330
17
100
AcDbEntity
  8
4
100
AcDbLine
 10
763.8261840208121
 20
206.4407331381249
 30
0.0
 11
684.8261800208116
 21
206.4407331381249
 31
0.0
  0
LINE
  5
461
330
17
100
AcDbEntity
  8
4
100
AcDbLine
 10
763.8261840208121
 20
170.4407331381249
 30
0.0
 11
684.8261800208116
 21
170.4407331381249
 31
0.0
  0
LINE
  5
467
330
17
100
AcDbEntity
  8
4
100
AcDbLine
 10
679.1261800208116
 20
138.6531103347645
 30
0.0
 11
679.1261800208116
 21
153.3755421991002
 31
0.0
  0
LINE
  5
468
330
17
100
AcDbEntity
  8
4
100
AcDbLine
 10
669.726084020812
 20
157.4407331381249
 30
0.0
 11
670.726084020812
 21
157.4407331381249
 31
0.0
  0
LINE
  5
469
330
17
100
AcDbEntity
  8
4
100
AcDbLine
 10
669.6261800208116
 20
155.8292808431559
 30
0.0
 11
669.6261800208116
 21
136.1993716907089
 31
0.0
  0
LINE
  5
46A
330
17
100
AcDbEntity
  8
4
100
AcDbLine
 10
672.1261800208116
 20
155.8292808431559
 30
0.0
 11
672.1261800208116
 21
136.1993716907089
 31
0.0
  0
LINE
  5
46B
330
17
100
AcDbEntity
  8
4
100
AcDbLine
 10
669.6261800208116
 20
136.1993716907089
 30
0.0
 11
678.2226530749598
 21
136.1993716907089
 31
0.0
  0
LINE
  5
46C
330
17
100
AcDbEntity
  8
4
100
AcDbLine
 10
678.2226530749598
 20
150.9218035550441
 30
0.0
 11
672.1261800208116
 21
150.9218035550441
 31
0.0
  0
LINE
  5
46D
330
17
100
AcDbEntity
  8
4
100
AcDbLine
 10
678.2226530749598
 20
141.1068489788206
 30
0.0
 11
672.1261800208116
 21
141.1068489788206
 31
0.0
  0
LINE
  5
46E
330
17
100
AcDbEntity
  8
4
100
AcDbLine
 10
678.2226530749598
 20
155.8292808431559
 30
0.0
 11
669.6261800208116
 21
155.8292808431559
 31
0.0
  0
ARC
  5
46F
330
17
100
AcDbEntity
  8
4
100
AcDbCircle
 10
675.3425660917522
 20
153.3755421991002
 30
0.0
 40
3.783613929059507
100
AcDbArc
 50
319.5701031551723
 51
40.42989684482771
  0
ARC
  5
470
330
17
100
AcDbEntity
  8
4
100
AcDbCircle
 10
665.3470147233523
 20
146.0143262669324
 30
0.0
 40
13.77916529745958
100
AcDbArc
 50
339.1359356360805
 51
20.86406436391942
  0
ARC
  5
471
330
17
100
AcDbEntity
  8
4
100
AcDbCircle
 10
675.3425660917522
 20
138.6531103347645
 30
0.0
 40
3.783613929059507
100
AcDbArc
 50
319.5701031551716
 51
40.42989684482771
  0
ARC
  5
472
330
17
100
AcDbEntity
  8
4
100
AcDbCircle
 10
668.6260840208118
 20
119.4407331381249
 30
0.0
 40
1.0
100
AcDbArc
 50
270.0
 51
0.0
  0
LINE
  5
473
330
17
100
AcDbEntity
  8
4
100
AcDbLine
 10
657.8261800208116
 20
118.4407331381249
 30
0.0
 11
652.9480080208119
 21
118.4407331381249
 31
0.0
  0
ARC
  5
474
330
17
100
AcDbEntity
  8
4
100
AcDbCircle
 10
639.8261800208116
 20
110.4407331381249
 30
0.0
 40
5.0
100
AcDbArc
 50
0.0
 51
90.0
  0
LINE
  5
476
330
17
100
AcDbEntity
  8
L-CENTER
100
AcDbLine
 10
682.2619532724658
 20
146.0142211381249
 30
0.0
 11
641.854973272466
 21
146.0142211381249
 31
0.0
  0
LINE
  5
477
330
17
100
AcDbEntity
  8
4
100
AcDbLine
 10
657.8261800208116
 20
118.4407331381249
 30
0.0
 11
668.6260840208118
 21
118.4407331381249
 31
0.0
  0
LINE
  5
478
330
17
100
AcDbEntity
  8
4
100
AcDbLine
 10
644.8261800208116
 20
78.44073313812487
 30
0.0
 11
644.8261800208116
 21
110.4407331381249
 31
0.0
  0
LINE
  5
47A
330
17
100
AcDbEntity
  8
L-CENTER
100
AcDbLine
 10
594.8261800208116
 20
125.4407331381249
 30
0.0
 11
594.8261800208116
 21
68.44073313812487
 31
0.0
  0
LINE
  5
47B
330
17
100
AcDbEntity
  8
4
100
AcDbLine
 10
584.8261800208116
 20
115.4407331381249
 30
0.0
 11
584.8261800208116
 21
78.44073313812487
 31
0.0
  0
LINE
  5
47C
330
17
100
AcDbEntity
  8
4
100
AcDbLine
 10
604.8261800208116
 20
115.4407331381249
 30
0.0
 11
604.8261800208116
 21
78.44073313812487
 31
0.0
  0
TEXT
  5
480
330
17
100
AcDbEntity
  8
3
100
AcDbText
 10
875.3646309921926
 20
6.984873354026604
 30
0.0
 40
12.49214398022076
  1
LA7-00
  7
KANJI
100
AcDbText
  0
LINE
  5
482
330
17
100
AcDbEntity
  8
4
100
AcDbLine
 10
634.8261800208116
 20
115.4866331381247
 30
0.0
 11
634.8261800208116
 21
168.575501138125
 31
0.0
  0
LINE
  5
483
330
17
100
AcDbEntity
  8
4
100
AcDbLine
 10
657.8261800208116
 20
118.4407331381249
 30
0.0
 11
657.8261800208116
 21
258.4407371381249
 31
0.0
  0
LINE
  5
485
330
17
100
AcDbEntity
  8
4
100
AcDbLine
 10
669.6260840208118
 20
257.4407371381249
 30
0.0
 11
669.6260840208118
 21
119.4407331381249
 31
0.0
  0
LINE
  5
486
330
17
100
AcDbEntity
  8
4
100
AcDbLine
 10
657.8261800208116
 20
118.4407331381249
 30
0.0
 11
657.8261800208116
 21
258.4407371381249
 31
0.0
  0
LINE
  5
487
330
17
100
AcDbEntity
  8
4
100
AcDbLine
 10
670.726084020812
 20
219.4407331381249
 30
0.0
 11
670.726084020812
 21
157.4407331381249
 31
0.0
  0
LINE
  5
488
330
17
100
AcDbEntity
  8
4
100
AcDbLine
 10
658.1261800208116
 20
118.4407331381249
 30
0.0
 11
658.1261800208116
 21
258.4407371381249
 31
0.0
  0
ARC
  5
489
330
17
100
AcDbEntity
  8
4
100
AcDbCircle
 10
542.8261800208119
 20
434.4407371381239
 30
0.0
 40
2.0
100
AcDbArc
 50
270.0
 51
0.0
  0
ARC
  5
48A
330
17
100
AcDbEntity
  8
4
100
AcDbCircle
 10
531.1421000208119
 20
409.7568971381249
 30
0.0
 40
7.000103999999999
100
AcDbArc
 50
9.094378999999924
 51
80.90562100000004
  0
ARC
  5
48B
330
17
100
AcDbEntity
  8
4
100
AcDbCircle
 10
535.8261800208119
 20
441.4407371381237
 30
0.0
 40
2.0
100
AcDbArc
 50
269.9999999999968
 51
0.0
  0
LINE
  5
48C
330
17
100
AcDbEntity
  8
4
100
AcDbLine
 10
526.4827708316533
 20
432.4407371381242
 30
0.0
 11
527.583324502434
 21
422.6100435892383
 31
0.0
  0
ARC
  5
48D
330
17
100
AcDbEntity
  8
4
100
AcDbCircle
 10
534.5398671569491
 20
423.3888338664756
 30
0.0
 40
7.0
100
AcDbArc
 50
186.3877093326664
 51
260.6808392632593
  0
ARC
  5
48E
330
17
100
AcDbEntity
  8
4
100
AcDbCircle
 10
534.5398671569491
 20
423.3888338664756
 30
0.0
 40
7.0
100
AcDbArc
 50
186.3877093326683
 51
260.6808392632584
  0
ARC
  5
48F
330
17
100
AcDbEntity
  8
4
100
AcDbCircle
 10
527.6757920208119
 20
406.2905891381249
 30
0.0
 40
7.00006
100
AcDbArc
 50
8.409027999999804
 51
81.59097200000016
  0
ARC
  5
490
330
17
100
AcDbEntity
  8
4
100
AcDbCircle
 10
544.828380020812
 20
412.8215931381249
 30
0.0
 40
7.000075999999999
100
AcDbArc
 50
189.2543659999997
 51
263.8233340000001
  0
LINE
  5
491
330
17
100
AcDbEntity
  8
4
100
AcDbLine
 10
526.4827708316533
 20
432.4407371381242
 30
0.0
 11
542.8261800208119
 21
432.4407371381239
 31
0.0
  0
ARC
  5
492
330
17
100
AcDbEntity
  8
4
100
AcDbCircle
 10
527.6757920208119
 20
320.5908811381248
 30
0.0
 40
7.00006
100
AcDbArc
 50
278.4090279999999
 51
351.5909720000002
  0
ARC
  5
493
330
17
100
AcDbEntity
  8
4
100
AcDbCircle
 10
531.1421000208119
 20
317.1245731381248
 30
0.0
 40
7.000103999999999
100
AcDbArc
 50
279.0943789999999
 51
350.9056210000001
  0
ARC
  5
494
330
17
100
AcDbEntity
  8
4
100
AcDbCircle
 10
544.8286240208118
 20
314.0598771381249
 30
0.0
 40
7.000096000000001
100
AcDbArc
 50
96.17667399999955
 51
170.7436640000003
  0
ARC
  5
495
330
17
100
AcDbEntity
  8
4
100
AcDbCircle
 10
241.8259360208118
 20
363.4404931381249
 30
0.0
 40
299.999988
100
AcDbArc
 50
350.904796
 51
9.094206999999985
  0
ARC
  5
496
330
17
100
AcDbEntity
  8
4
100
AcDbCircle
 10
237.8259360208118
 20
363.4404931381249
 30
0.0
 40
300.000008
100
AcDbArc
 50
351.5906620000001
 51
8.408447999999977
  0
ARC
  5
497
330
17
100
AcDbEntity
  8
4
100
AcDbCircle
 10
484.8261800208119
 20
610.4407371381249
 30
0.0
 40
300.000044
100
AcDbArc
 50
269.998415
 51
278.408678
  0
ARC
  5
498
330
17
100
AcDbEntity
  8
4
100
AcDbCircle
 10
484.8261800208119
 20
606.4407371381249
 30
0.0
 40
299.999972
100
AcDbArc
 50
269.998415
 51
279.094353
  0
ARC
  5
499
330
17
100
AcDbEntity
  8
4
100
AcDbCircle
 10
484.8261800208119
 20
120.4407331381249
 30
0.0
 40
299.999952
100
AcDbArc
 50
80.90451300000001
 51
90.0
  0
ARC
  5
49A
330
17
100
AcDbEntity
  8
4
100
AcDbCircle
 10
484.8261800208119
 20
116.4407331381249
 30
0.0
 40
300.00004
100
AcDbArc
 50
81.59037899999998
 51
90.0
  0
ARC
  5
49B
330
17
100
AcDbEntity
  8
4
100
AcDbCircle
 10
521.2668560208118
 20
221.0291131381248
 30
0.0
 40
3.0001
100
AcDbArc
 50
173.8240599999993
 51
284.3517419999999
  0
LINE
  5
49C
330
17
100
AcDbEntity
  8
4
100
AcDbLine
 10
518.2841880208119
 20
221.3518691381248
 30
0.0
 11
527.247324020812
 21
304.1912251381248
 31
0.0
  0
LINE
  5
49D
330
17
100
AcDbEntity
  8
4
100
AcDbLine
 10
500.4148040208119
 20
169.4407331381249
 30
0.0
 11
500.4148040208119
 21
187.4407331381249
 31
0.0
  0
LINE
  5
49E
330
17
100
AcDbEntity
  8
4
100
AcDbLine
 10
504.8261800208119
 20
193.4407331381249
 30
0.0
 11
504.8261800208119
 21
178.4407331381249
 31
0.0
  0
LINE
  5
49F
330
17
100
AcDbEntity
  8
4
100
AcDbLine
 10
484.8261800208119
 20
196.4407331381249
 30
0.0
 11
500.4148040208119
 21
187.4407331381249
 31
0.0
  0
ARC
  5
4A0
330
17
100
AcDbEntity
  8
4
100
AcDbCircle
 10
484.8261800208119
 20
178.4407331381249
 30
0.0
 40
25.000024
100
AcDbArc
 50
36.86911499999997
 51
90.0
  0
ARC
  5
4A1
330
17
100
AcDbEntity
  8
4
100
AcDbCircle
 10
448.3855080208119
 20
221.0291131381248
 30
0.0
 40
2.99998
100
AcDbArc
 50
255.6471020000007
 51
6.175940000000334
  0
LINE
  5
4A2
330
17
100
AcDbEntity
  8
4
100
AcDbLine
 10
469.237804020812
 20
169.4407331381249
 30
0.0
 11
469.237804020812
 21
187.4407331381249
 31
0.0
  0
LINE
  5
4A3
330
17
100
AcDbEntity
  8
4
100
AcDbLine
 10
464.8261800208119
 20
193.4407331381249
 30
0.0
 11
464.8261800208119
 21
178.4407331381249
 31
0.0
  0
ARC
  5
4A4
330
17
100
AcDbEntity
  8
4
100
AcDbCircle
 10
484.8261800208119
 20
178.4407331381249
 30
0.0
 40
25.0
100
AcDbArc
 50
90.0
 51
143.130102
  0
LINE
  5
4A5
330
17
100
AcDbEntity
  8
4
100
AcDbLine
 10
469.237804020812
 20
187.4407331381249
 30
0.0
 11
484.8261800208119
 21
196.4407331381249
 31
0.0
  0
LINE
  5
4A6
330
17
100
AcDbEntity
  8
L-CENTER
100
AcDbLine
 10
511.5745236723036
 20
178.4407331381249
 30
0.0
 11
458.0778363693202
 21
178.4407331381249
 31
0.0
  0
ARC
  5
4A7
330
17
100
AcDbEntity
  8
4
100
AcDbCircle
 10
534.206796020812
 20
303.4380491381248
 30
0.0
 40
7.000096000000001
100
AcDbArc
 50
99.25633600000062
 51
173.8233260000005
  0
ARC
  5
4A8
330
17
100
AcDbEntity
  8
4
100
AcDbCircle
 10
435.1124928846747
 20
423.3888338664756
 30
0.0
 40
7.0
100
AcDbArc
 50
279.3191607367416
 51
353.6122906673318
  0
LINE
  5
4A9
330
17
100
AcDbEntity
  8
4
100
AcDbLine
 10
443.1695892099705
 20
432.4407371381242
 30
0.0
 11
442.0690355391897
 21
422.6100435892383
 31
0.0
  0
ARC
  5
4AA
330
17
100
AcDbEntity
  8
4
100
AcDbCircle
 10
426.8261800208119
 20
434.4407371381239
 30
0.0
 40
2.0
100
AcDbArc
 50
180.0
 51
270.0
  0
ARC
  5
4AB
330
17
100
AcDbEntity
  8
4
100
AcDbCircle
 10
438.5102640208119
 20
409.7568971381249
 30
0.0
 40
7.000103999999999
100
AcDbArc
 50
99.09437899999995
 51
170.9056210000001
  0
ARC
  5
4AC
330
17
100
AcDbEntity
  8
4
100
AcDbCircle
 10
433.8261800208119
 20
441.4407371381237
 30
0.0
 40
2.0
100
AcDbArc
 50
180.0
 51
270.0000000000016
  0
LINE
  5
4AD
330
17
100
AcDbEntity
  8
4
100
AcDbLine
 10
443.1695892099705
 20
432.4407371381242
 30
0.0
 11
426.8261800208119
 21
432.4407371381239
 31
0.0
  0
ARC
  5
4AE
330
17
100
AcDbEntity
  8
4
100
AcDbCircle
 10
441.9765720208119
 20
406.2905891381249
 30
0.0
 40
7.00006
100
AcDbArc
 50
98.40903600000007
 51
171.5909740000003
  0
ARC
  5
4AF
330
17
100
AcDbEntity
  8
4
100
AcDbCircle
 10
424.823984020812
 20
412.8215931381249
 30
0.0
 40
7.000083999999999
100
AcDbArc
 50
276.1746890000001
 51
350.7436619999996
  0
ARC
  5
4B0
330
17
100
AcDbEntity
  8
4
100
AcDbCircle
 10
441.9765720208119
 20
320.5908811381248
 30
0.0
 40
7.00006
100
AcDbArc
 50
188.4070510000003
 51
261.5889889999999
  0
ARC
  5
4B1
330
17
100
AcDbEntity
  8
4
100
AcDbCircle
 10
424.8237400208119
 20
314.0598771381249
 30
0.0
 40
7.000075999999999
100
AcDbArc
 50
9.254365999999791
 51
83.82332600000005
  0
ARC
  5
4B2
330
17
100
AcDbEntity
  8
4
100
AcDbCircle
 10
438.5102640208119
 20
317.1245731381248
 30
0.0
 40
6.999984
100
AcDbArc
 50
189.0924069999996
 51
260.9033329999997
  0
ARC
  5
4B3
330
17
100
AcDbEntity
  8
4
100
AcDbCircle
 10
731.8264240208119
 20
363.4404931381249
 30
0.0
 40
299.999996
100
AcDbArc
 50
171.590708
 51
188.407505
  0
ARC
  5
4B4
330
17
100
AcDbEntity
  8
4
100
AcDbCircle
 10
727.8264240208119
 20
363.4404931381249
 30
0.0
 40
299.999988
100
AcDbArc
 50
170.904843
 51
189.0930729999999
  0
ARC
  5
4B5
330
17
100
AcDbEntity
  8
4
100
AcDbCircle
 10
342.4145600208118
 20
399.8816531381249
 30
0.0
 40
3.000032
100
AcDbArc
 50
165.6476089999994
 51
276.1750669999998
  0
ARC
  5
4B6
330
17
100
AcDbEntity
  8
4
100
AcDbCircle
 10
342.4145600208118
 20
326.9998171381249
 30
0.0
 40
3.000052
100
AcDbArc
 50
83.82318600000005
 51
194.3522490000006
  0
LINE
  5
4B7
330
17
100
AcDbEntity
  8
4
100
AcDbLine
 10
342.7373160208118
 20
329.9824851381248
 30
0.0
 11
425.5769160208121
 21
321.0193491381249
 31
0.0
  0
LINE
  5
4B8
330
17
100
AcDbEntity
  8
4
100
AcDbLine
 10
342.7373160208118
 20
396.8989891381249
 30
0.0
 11
425.5769160208121
 21
405.8621211381248
 31
0.0
  0
ARC
  5
4B9
330
17
100
AcDbEntity
  8
4
100
AcDbCircle
 10
338.078380020812
 20
216.6934211381249
 30
0.0
 40
4.999976
100
AcDbArc
 50
197.2437309999998
 51
252.7527969999999
  0
ARC
  5
4BA
330
17
100
AcDbEntity
  8
4
100
AcDbCircle
 10
435.4455680208119
 20
303.4380491381248
 30
0.0
 40
7.000083999999999
100
AcDbArc
 50
6.174688000000431
 51
80.74366399999992
  0
ARC
  5
4BB
330
17
100
AcDbEntity
  8
4
100
AcDbCircle
 10
484.8261800208119
 20
689.4407371381249
 30
0.0
 40
499.999996
100
AcDbArc
 50
252.753667
 51
267.707137
  0
LINE
  5
4BC
330
17
100
AcDbEntity
  8
4
100
AcDbLine
 10
451.368172020812
 20
221.3518691381248
 30
0.0
 11
442.405040020812
 21
304.1912251381248
 31
0.0
  0
ARC
  5
4BD
330
17
100
AcDbEntity
  8
4
100
AcDbCircle
 10
484.8261800208119
 20
606.4407371381249
 30
0.0
 40
300.000052
100
AcDbArc
 50
260.903386
 51
269.998321
  0
ARC
  5
4BE
330
17
100
AcDbEntity
  8
4
100
AcDbCircle
 10
484.8261800208119
 20
610.4407371381249
 30
0.0
 40
300.00004
100
AcDbArc
 50
261.589106
 51
269.998321
  0
ARC
  5
4BF
330
17
100
AcDbEntity
  8
4
100
AcDbCircle
 10
484.8261800208119
 20
120.4407331381249
 30
0.0
 40
299.999996
100
AcDbArc
 50
90.0
 51
99.095296
  0
ARC
  5
4C0
330
17
100
AcDbEntity
  8
4
100
AcDbCircle
 10
484.8261800208119
 20
116.4407331381249
 30
0.0
 40
299.999984
100
AcDbArc
 50
90.0
 51
98.40948300000001
  0
LINE
  5
4C1
330
17
100
AcDbEntity
  8
4
100
AcDbLine
 10
433.8261800208118
 20
439.4407371381255
 30
0.0
 11
535.8261800208119
 21
439.4407371381237
 31
0.0
  0
ARC
  5
4C2
330
17
100
AcDbEntity
  8
4
100
AcDbCircle
 10
539.8261800208119
 20
110.4407331381249
 30
0.0
 40
5.0
100
AcDbArc
 50
90.0
 51
180.0
  0
ARC
  5
4C3
330
17
100
AcDbEntity
  8
4
100
AcDbCircle
 10
541.8261800208119
 20
90.44073313812487
 30
0.0
 40
3.0
100
AcDbArc
 50
0.0
 51
90.0
  0
LINE
  5
4C4
330
17
100
AcDbEntity
  8
4
100
AcDbLine
 10
539.8261800208119
 20
90.44073313812487
 30
0.0
 11
539.8261800208119
 21
78.44073313812487
 31
0.0
  0
LINE
  5
4C5
330
17
100
AcDbEntity
  8
4
100
AcDbLine
 10
544.8261800208119
 20
90.44073313812487
 30
0.0
 11
544.8261800208119
 21
78.44073313812487
 31
0.0
  0
ARC
  5
4C6
330
17
100
AcDbEntity
  8
4
100
AcDbCircle
 10
536.8261800208119
 20
90.44073313812487
 30
0.0
 40
3.0
100
AcDbArc
 50
0.0
 51
90.0
  0
LINE
  5
4C7
330
17
100
AcDbEntity
  8
4
100
AcDbLine
 10
534.8261800208119
 20
110.4407331381249
 30
0.0
 11
534.8261800208119
 21
93.44073313812487
 31
0.0
  0
LINE
  5
4C8
330
17
100
AcDbEntity
  8
L-CENTER
100
AcDbLine
 10
460.8594647709419
 20
123.4407331381249
 30
0.0
 11
508.7928952706818
 21
123.4407331381249
 31
0.0
  0
CIRCLE
  5
4C9
330
17
100
AcDbEntity
  8
4
100
AcDbCircle
 10
484.8261800208119
 20
123.4407331381249
 30
0.0
 40
15.0
  0
LINE
  5
4CA
330
17
100
AcDbEntity
  8
4
100
AcDbLine
 10
499.8261800208119
 20
165.2119731381249
 30
0.0
 11
499.8261800208119
 21
93.44073313812487
 31
0.0
  0
LINE
  5
4CB
330
17
100
AcDbEntity
  8
4
100
AcDbLine
 10
469.8261800208119
 20
165.2119731381249
 30
0.0
 11
469.8261800208119
 21
93.44073313812487
 31
0.0
  0
LINE
  5
4CC
330
17
100
AcDbEntity
  8
4
100
AcDbLine
 10
541.8261800208119
 20
93.44073313812487
 30
0.0
 11
484.8261800208119
 21
93.44073313812487
 31
0.0
  0
ARC
  5
4CD
330
17
100
AcDbEntity
  8
4
100
AcDbCircle
 10
429.8261800208119
 20
110.4407331381249
 30
0.0
 40
5.0
100
AcDbArc
 50
0.0
 51
90.0
  0
LINE
  5
4CE
330
17
100
AcDbEntity
  8
4
100
AcDbLine
 10
424.8261800208119
 20
90.44073313812487
 30
0.0
 11
424.8261800208119
 21
78.44073313812487
 31
0.0
  0
LINE
  5
4CF
330
17
100
AcDbEntity
  8
4
100
AcDbLine
 10
429.8261800208119
 20
90.44073313812487
 30
0.0
 11
429.8261800208119
 21
78.44073313812487
 31
0.0
  0
ARC
  5
4D0
330
17
100
AcDbEntity
  8
4
100
AcDbCircle
 10
427.8261800208119
 20
90.44073313812487
 30
0.0
 40
3.0
100
AcDbArc
 50
90.0
 51
180.0
  0
ARC
  5
4D1
330
17
100
AcDbEntity
  8
4
100
AcDbCircle
 10
432.8261800208119
 20
90.44073313812487
 30
0.0
 40
3.0
100
AcDbArc
 50
90.0
 51
180.0
  0
ARC
  5
4D2
330
17
100
AcDbEntity
  8
4
100
AcDbCircle
 10
329.8261800208119
 20
110.4407331381249
 30
0.0
 40
5.0
100
AcDbArc
 50
90.0
 51
180.0
  0
LINE
  5
4D3
330
17
100
AcDbEntity
  8
4
100
AcDbLine
 10
324.8261800208119
 20
78.44073313812487
 30
0.0
 11
324.8261800208119
 21
110.4407331381249
 31
0.0
  0
LINE
  5
4D4
330
17
100
AcDbEntity
  8
L-CENTER
100
AcDbLine
 10
374.8261800208119
 20
125.4407331381249
 30
0.0
 11
374.8261800208119
 21
68.44073313812487
 31
0.0
  0
LINE
  5
4D5
330
17
100
AcDbEntity
  8
4
100
AcDbLine
 10
429.8261800208119
 20
115.4407331381249
 30
0.0
 11
329.8261800208119
 21
115.4407331381249
 31
0.0
  0
LINE
  5
4D6
330
17
100
AcDbEntity
  8
4
100
AcDbLine
 10
429.8261800208119
 20
78.44073313812487
 30
0.0
 11
324.8261800208119
 21
78.44073313812487
 31
0.0
  0
LINE
  5
4D7
330
17
100
AcDbEntity
  8
4
100
AcDbLine
 10
427.8261800208119
 20
93.44073313812487
 30
0.0
 11
484.8261800208119
 21
93.44073313812487
 31
0.0
  0
LINE
  5
4D8
330
17
100
AcDbEntity
  8
4
100
AcDbLine
 10
554.8261800208119
 20
120.171693138125
 30
0.0
 11
554.8261800208119
 21
169.8101211381247
 31
0.0
  0
LINE
  5
4D9
330
17
100
AcDbEntity
  8
4
100
AcDbLine
 10
414.8261800208119
 20
120.171693138125
 30
0.0
 11
414.8261800208119
 21
169.8101211381247
 31
0.0
  0
LINE
  5
4DA
330
17
100
AcDbEntity
  8
4
100
AcDbLine
 10
334.8261800208119
 20
115.4866331381247
 30
0.0
 11
334.8261800208119
 21
168.575501138125
 31
0.0
  0
LINE
  5
4DB
330
17
100
AcDbEntity
  8
4
100
AcDbLine
 10
544.8261800208119
 20
191.940737138125
 30
0.0
 11
544.8261800208119
 21
115.4407331381249
 31
0.0
  0
LINE
  5
4DC
330
17
100
AcDbEntity
  8
4
100
AcDbLine
 10
424.8261800208119
 20
191.940737138125
 30
0.0
 11
424.8261800208119
 21
115.4407331381249
 31
0.0
  0
LINE
  5
4DD
330
17
100
AcDbEntity
  8
4
100
AcDbLine
 10
534.8261800208119
 20
191.940737138125
 30
0.0
 11
534.8261800208119
 21
103.4407331381249
 31
0.0
  0
LINE
  5
4DE
330
17
100
AcDbEntity
  8
4
100
AcDbLine
 10
434.8261800208119
 20
191.940737138125
 30
0.0
 11
434.8261800208119
 21
93.44073313812487
 31
0.0
  0
ARC
  5
4DF
330
17
100
AcDbEntity
  8
4
100
AcDbCircle
 10
374.8261800208119
 20
188.4407331381249
 30
0.0
 40
39.999984
100
AcDbArc
 50
184.773408
 51
355.6780840000001
  0
ARC
  5
4E0
330
17
100
AcDbEntity
  8
4
100
AcDbCircle
 10
484.8261800208119
 20
178.4407331381249
 30
0.0
 40
20.0
100
AcDbArc
 50
269.9986020000001
 51
359.9993010002331
  0
LINE
  5
4E1
330
17
100
AcDbEntity
  8
4
100
AcDbLine
 10
484.8261800208119
 20
160.4407331381249
 30
0.0
 11
469.237804020812
 21
169.4407331381249
 31
0.0
  0
ARC
  5
4E2
330
17
100
AcDbEntity
  8
4
100
AcDbCircle
 10
484.8261800208119
 20
178.4407331381249
 30
0.0
 40
20.0
100
AcDbArc
 50
180.0
 51
269.9986020000001
  0
CIRCLE
  5
4E3
330
17
100
AcDbEntity
  8
4
100
AcDbCircle
 10
484.8261800208119
 20
178.4407331381249
 30
0.0
 40
18.0
  0
LINE
  5
4E4
330
17
100
AcDbEntity
  8
4
100
AcDbLine
 10
500.4148040208119
 20
169.4407331381249
 30
0.0
 11
484.8261800208119
 21
160.4407331381249
 31
0.0
  0
ARC
  5
4E5
330
17
100
AcDbEntity
  8
4
100
AcDbCircle
 10
594.8261800208116
 20
188.4407331381249
 30
0.0
 40
39.999904
100
AcDbArc
 50
184.320173
 51
355.224829
  0
LINE
  5
4E6
330
17
100
AcDbEntity
  8
4
100
AcDbLine
 10
539.8261800208119
 20
78.44073313812487
 30
0.0
 11
644.8261800208116
 21
78.44073313812487
 31
0.0
  0
LINE
  5
4E7
330
17
100
AcDbEntity
  8
4
100
AcDbLine
 10
539.8261800208119
 20
115.4407331381249
 30
0.0
 11
639.8261800208116
 21
115.4407331381249
 31
0.0
  0
LWPOLYLINE
  5
4E8
330
17
100
AcDbEntity
  8
4
100
AcDbPolyline
 90
       30
 70
     0
 43
0.0
 10
567.3205680208117
 20
115.4117291381249
 10
568.0370720208117
 20
114.5524571381249
 10
568.7307200208121
 20
113.6958691381249
 10
569.378656020812
 20
112.8446451381249
 10
570.8196160208118
 20
110.3500211381249
 10
571.0561320208118
 20
109.5471011381248
 10
571.1326480208119
 20
108.7629691381248
 10
571.026316020812
 20
108.0003051381249
 10
570.7718840208119
 20
107.3515211381249
 10
570.3850960208121
 20
106.7182851381249
 10
569.8912840208119
 20
106.0976331381248
 10
568.0210000208118
 20
104.2815411381249
 10
566.0993720208118
 20
102.4719891381249
 10
565.5656240208119
 20
101.8564211381249
 10
565.1274880208117
 20
101.2297211381249
 10
564.8102960208122
 20
100.5889291381249
 10
564.605560020812
 20
99.7248091381249
 10
564.621776020812
 20
98.83421713812481
 10
564.8288920208121
 20
97.9199651381249
 10
566.2951360208118
 20
95.0632891381249
 10
568.3975880208119
 20
92.0946771381249
 10
570.3248240208119
 20
89.08990113812479
 10
570.788048020812
 20
88.09337313812489
 10
571.1115960208118
 20
87.10404913812488
 10
571.2654080208118
 20
86.12474113812482
 10
571.113668020812
 20
84.5537451381249
 10
570.5371080208121
 20
83.0100131381248
 10
569.6419360208121
 20
81.48672513812483
 10
568.5343520208122
 20
79.97706913812488
 10
567.3205680208117
 20
78.47422913812488
  0
ARC
  5
4E9
330
17
100
AcDbEntity
  8
4
100
AcDbCircle
 10
484.8261800208119
 20
689.4407371381249
 30
0.0
 40
499.999972
100
AcDbArc
 50
272.291603
 51
287.244694
  0
LINE
  5
4EA
330
17
100
AcDbEntity
  8
4
100
AcDbLine
 10
626.9150480208119
 20
329.9824851381248
 30
0.0
 11
544.0754480208119
 21
321.0193491381249
 31
0.0
  0
LINE
  5
4EB
330
17
100
AcDbEntity
  8
4
100
AcDbLine
 10
626.9150480208119
 20
396.8989891381249
 30
0.0
 11
544.0754480208119
 21
405.8621211381248
 31
0.0
  0
ARC
  5
4EE
330
17
100
AcDbEntity
  8
4
100
AcDbCircle
 10
301.0262800208118
 20
257.4407371381249
 30
0.0
 40
1.0
100
AcDbArc
 50
90.0
 51
180.0
  0
LINE
  5
4EF
330
17
100
AcDbEntity
  8
4
100
AcDbLine
 10
311.8261800208119
 20
258.4407371381249
 30
0.0
 11
301.0262800208118
 21
258.4407371381249
 31
0.0
  0
ARC
  5
4F0
330
17
100
AcDbEntity
  8
4
100
AcDbCircle
 10
294.3097939498715
 20
238.2283559414857
 30
0.0
 40
3.783613929059507
100
AcDbArc
 50
139.5701031551729
 51
220.4298968448271
  0
LINE
  5
4F1
330
17
100
AcDbEntity
  8
4
100
AcDbLine
 10
300.0261800208121
 20
240.6820945855413
 30
0.0
 11
291.429706966664
 21
240.6820945855413
 31
0.0
  0
LINE
  5
4F2
330
17
100
AcDbEntity
  8
4
100
AcDbLine
 10
291.429706966664
 20
235.7746172974296
 30
0.0
 11
297.5261800208121
 21
235.7746172974296
 31
0.0
  0
ARC
  5
4F3
330
17
100
AcDbEntity
  8
4
100
AcDbCircle
 10
294.3097939498715
 20
223.50592407715
 30
0.0
 40
3.783613929059507
100
AcDbArc
 50
139.5701031551729
 51
220.4298968448271
  0
LINE
  5
4F4
330
17
100
AcDbEntity
  8
4
100
AcDbLine
 10
291.429706966664
 20
225.9596627212061
 30
0.0
 11
297.5261800208121
 21
225.9596627212061
 31
0.0
  0
LINE
  5
4F5
330
17
100
AcDbEntity
  8
4
100
AcDbLine
 10
291.429706966664
 20
221.0521854330943
 30
0.0
 11
300.0261800208121
 21
221.0521854330943
 31
0.0
  0
LINE
  5
4F6
330
17
100
AcDbEntity
  8
4
100
AcDbLine
 10
290.5261800208121
 20
238.2283559414857
 30
0.0
 11
290.5261800208121
 21
223.50592407715
 31
0.0
  0
ARC
  5
4F7
330
17
100
AcDbEntity
  8
4
100
AcDbCircle
 10
304.3053453182714
 20
230.8671400093178
 30
0.0
 40
13.77916529745958
100
AcDbArc
 50
159.1359356360801
 51
200.8640643639199
  0
LINE
  5
4F8
330
17
100
AcDbEntity
  8
4
100
AcDbLine
 10
300.0261800208121
 20
221.0521854330943
 30
0.0
 11
300.0261800208121
 21
240.6820945855413
 31
0.0
  0
LINE
  5
4F9
330
17
100
AcDbEntity
  8
4
100
AcDbLine
 10
297.5261800208121
 20
221.0521854330943
 30
0.0
 11
297.5261800208121
 21
240.6820945855413
 31
0.0
  0
LINE
  5
4FA
330
17
100
AcDbEntity
  8
4
100
AcDbLine
 10
297.5261800208121
 20
155.8292808431559
 30
0.0
 11
297.5261800208121
 21
136.1993716907089
 31
0.0
  0
LINE
  5
4FB
330
17
100
AcDbEntity
  8
4
100
AcDbLine
 10
300.0261800208121
 20
155.8292808431559
 30
0.0
 11
300.0261800208121
 21
136.1993716907089
 31
0.0
  0
ARC
  5
4FD
330
17
100
AcDbEntity
  8
4
100
AcDbCircle
 10
301.0262800208118
 20
119.4407331381249
 30
0.0
 40
1.0
100
AcDbArc
 50
180.0
 51
270.0
  0
LINE
  5
4FE
330
17
100
AcDbEntity
  8
4
100
AcDbLine
 10
311.8261800208119
 20
118.4407331381249
 30
0.0
 11
301.0262800208118
 21
118.4407331381249
 31
0.0
  0
ARC
  5
4FF
330
17
100
AcDbEntity
  8
4
100
AcDbCircle
 10
294.3097939498715
 20
153.3755421991002
 30
0.0
 40
3.783613929059507
100
AcDbArc
 50
139.5701031551729
 51
220.4298968448271
  0
ARC
  5
500
330
17
100
AcDbEntity
  8
4
100
AcDbCircle
 10
294.3097939498715
 20
138.6531103347645
 30
0.0
 40
3.783613929059507
100
AcDbArc
 50
139.5701031551729
 51
220.4298968448278
  0
ARC
  5
501
330
17
100
AcDbEntity
  8
4
100
AcDbCircle
 10
304.3053453182714
 20
146.0143262669324
 30
0.0
 40
13.77916529745958
100
AcDbArc
 50
159.1359356360806
 51
200.8640643639194
  0
LINE
  5
502
330
17
100
AcDbEntity
  8
4
100
AcDbLine
 10
290.5261800208121
 20
138.6531103347645
 30
0.0
 11
290.5261800208121
 21
153.3755421991002
 31
0.0
  0
LINE
  5
503
330
17
100
AcDbEntity
  8
4
100
AcDbLine
 10
291.429706966664
 20
155.8292808431559
 30
0.0
 11
300.0261800208121
 21
155.8292808431559
 31
0.0
  0
LINE
  5
504
330
17
100
AcDbEntity
  8
4
100
AcDbLine
 10
291.429706966664
 20
141.1068489788206
 30
0.0
 11
297.5261800208121
 21
141.1068489788206
 31
0.0
  0
LINE
  5
505
330
17
100
AcDbEntity
  8
4
100
AcDbLine
 10
291.429706966664
 20
150.9218035550441
 30
0.0
 11
297.5261800208121
 21
150.9218035550441
 31
0.0
  0
LINE
  5
506
330
17
100
AcDbEntity
  8
4
100
AcDbLine
 10
300.0261800208121
 20
136.1993716907089
 30
0.0
 11
291.429706966664
 21
136.1993716907089
 31
0.0
  0
LINE
  5
507
330
17
100
AcDbEntity
  8
4
100
AcDbLine
 10
311.8261800208119
 20
118.4407331381249
 30
0.0
 11
311.8261800208119
 21
258.4407371381249
 31
0.0
  0
LINE
  5
508
330
17
100
AcDbEntity
  8
4
100
AcDbLine
 10
300.0262800208118
 20
257.4407371381249
 30
0.0
 11
300.0262800208118
 21
119.4407331381249
 31
0.0
  0
LINE
  5
509
330
17
100
AcDbEntity
  8
4
100
AcDbLine
 10
311.8261800208119
 20
118.4407331381249
 30
0.0
 11
311.8261800208119
 21
258.4407371381249
 31
0.0
  0
LINE
  5
50A
330
17
100
AcDbEntity
  8
4
100
AcDbLine
 10
311.5261800208119
 20
118.4407331381249
 30
0.0
 11
311.5261800208119
 21
258.4407371381249
 31
0.0
  0
LINE
  5
530
330
17
100
AcDbEntity
  8
L-CENTER
100
AcDbLine
 10
669.0031840208118
 20
363.4407371381249
 30
0.0
 11
301.0400480208119
 21
363.4407371381249
 31
0.0
  0
LINE
  5
531
330
17
100
AcDbEntity
  8
L-CENTER
100
AcDbLine
 10
771.9080994532768
 20
188.4407331381249
 30
0.0
 11
290.7054724634551
 21
188.4407331381251
 31
0.0
  0
LINE
  5
532
330
17
100
AcDbEntity
  8
4
100
AcDbLine
 10
484.8261800208119
 20
129.2142358300211
 30
0.0
 11
489.8261800208119
 21
126.327484484073
 31
0.0
  0
LINE
  5
533
330
17
100
AcDbEntity
  8
4
100
AcDbLine
 10
479.8261800208118
 20
120.5539817921767
 30
0.0
 11
484.8261800208119
 21
117.6672304462286
 31
0.0
  0
LINE
  5
534
330
17
100
AcDbEntity
  8
4
100
AcDbLine
 10
489.8261800208119
 20
126.327484484073
 30
0.0
 11
489.8261800208119
 21
120.5539817921767
 31
0.0
  0
LINE
  5
535
330
17
100
AcDbEntity
  8
4
100
AcDbLine
 10
479.8261800208119
 20
126.3274844840731
 30
0.0
 11
479.8261800208119
 21
120.5539817921767
 31
0.0
  0
LINE
  5
536
330
17
100
AcDbEntity
  8
L-CENTER
100
AcDbLine
 10
484.8261800208119
 20
601.5081171381248
 30
0.0
 11
484.8261800208119
 21
83.15948513812486
 31
0.0
  0
CIRCLE
  5
537
330
17
100
AcDbEntity
  8
4
100
AcDbCircle
 10
484.8261800208119
 20
363.4407371381249
 30
0.0
 40
150.0
  0
ARC
  5
538
330
17
100
AcDbEntity
  8
4
100
AcDbCircle
 10
484.8261800208119
 20
363.4407371381249
 30
0.0
 40
171.999972
100
AcDbArc
 50
90.0
 51
263.321364
  0
ARC
  5
539
330
17
100
AcDbEntity
  8
4
100
AcDbCircle
 10
810.8259400208118
 20
363.4404931381249
 30
0.0
 40
500.000008
100
AcDbArc
 50
162.755424
 51
197.243024
  0
ARC
  5
53A
330
17
100
AcDbEntity
  8
4
100
AcDbCircle
 10
484.8261800208119
 20
363.4407371381249
 30
0.0
 40
172.0
100
AcDbArc
 50
276.678798
 51
90.0
  0
ARC
  5
53B
330
17
100
AcDbEntity
  8
4
100
AcDbCircle
 10
158.8264240208119
 20
363.4404931381249
 30
0.0
 40
500.000012
100
AcDbArc
 50
342.755456
 51
17.243641
  0
LINE
  5
53C
330
17
100
AcDbEntity
  8
4
100
AcDbLine
 10
544.826180020811
 20
498.4407371381239
 30
0.0
 11
544.8261800208119
 21
434.4407371381239
 31
0.0
  0
LINE
  5
53D
330
17
100
AcDbEntity
  8
4
100
AcDbLine
 10
537.826180020811
 20
491.4407371381244
 30
0.0
 11
537.8261800208119
 21
441.4407371381237
 31
0.0
  0
LINE
  5
53E
330
17
100
AcDbEntity
  8
4
100
AcDbLine
 10
431.8261800208128
 20
491.4407371381244
 30
0.0
 11
431.8261800208119
 21
441.4407371381237
 31
0.0
  0
LINE
  5
53F
330
17
100
AcDbEntity
  8
4
100
AcDbLine
 10
424.8261800208128
 20
498.4407371381239
 30
0.0
 11
424.8261800208119
 21
434.4407371381239
 31
0.0
  0
LINE
  5
568
330
17
100
AcDbEntity
  8
4
100
AcDbLine
 10
1059.362859540526
 20
189.4407371381249
 30
0.0
 11
1059.362859540526
 21
536.4407371381249
 31
0.0
  0
LINE
  5
569
330
17
100
AcDbEntity
  8
4
100
AcDbLine
 10
1059.408912172105
 20
189.4407371381249
 30
0.0
 11
1059.362859540526
 21
189.4407371381249
 31
0.0
  0
LINE
  5
56C
330
17
100
AcDbEntity
  8
4
100
AcDbLine
 10
1031.362859540526
 20
115.940737138125
 30
0.0
 11
1060.362859540526
 21
191.940737138125
 31
0.0
  0
ARC
  5
56D
330
17
100
AcDbEntity
  8
4
100
AcDbCircle
 10
1058.362859540526
 20
190.4407371381249
 30
0.0
 40
1.0
100
AcDbArc
 50
0.0
 51
90.0
  0
ARC
  5
56E
330
17
100
AcDbEntity
  8
4
100
AcDbCircle
 10
1048.362859540526
 20
534.4407371381249
 30
0.0
 40
1.0
100
AcDbArc
 50
90.0
 51
180.0
  0
ARC
  5
56F
330
17
100
AcDbEntity
  8
4
100
AcDbCircle
 10
1048.362859540526
 20
192.440733138125
 30
0.0
 40
1.0
100
AcDbArc
 50
180.0
 51
270.0
  0
ARC
  5
570
330
17
100
AcDbEntity
  8
4
100
AcDbCircle
 10
1204.362859540518
 20
190.4407371381246
 30
0.0
 40
1.0
100
AcDbArc
 50
90.0
 51
180.0
  0
ARC
  5
572
330
17
100
AcDbEntity
  8
4
100
AcDbCircle
 10
1131.362859540526
 20
550.7900881871074
 30
0.0
 40
5.0
100
AcDbArc
 50
180.0
 51
0.0
  0
LINE
  5
573
330
17
100
AcDbEntity
  8
4
100
AcDbLine
 10
644.8261800208116
 20
110.4407331381249
 30
0.0
 11
657.9659468006665
 21
334.1190197935078
 31
0.0
  0
ARC
  5
574
330
17
100
AcDbEntity
  8
4
100
AcDbCircle
 10
655.6412345228357
 20
260.4407371381249
 30
0.0
 40
2.0
100
AcDbArc
 50
176.6380779173459
 51
270.0
  0
ARC
  5
575
330
17
100
AcDbEntity
  8
4
100
AcDbCircle
 10
652.8399715829842
 20
110.4407331381249
 30
0.0
 40
8.0
100
AcDbArc
 50
90.0
 51
176.6380779173462
  0
LINE
  5
577
330
17
100
AcDbEntity
  8
4
100
AcDbLine
 10
311.8261800208121
 20
118.4407331381249
 30
0.0
 11
316.7043520208118
 21
118.4407331381249
 31
0.0
  0
LINE
  5
578
330
17
100
AcDbEntity
  8
4
100
AcDbLine
 10
311.8261800208121
 20
258.4407371381249
 30
0.0
 11
314.011125518788
 21
258.4407371381249
 31
0.0
  0
LINE
  5
579
330
17
100
AcDbEntity
  8
4
100
AcDbLine
 10
324.8261800208121
 20
110.4407331381249
 30
0.0
 11
311.6864132409572
 21
334.1190197935078
 31
0.0
  0
ARC
  5
57A
330
17
100
AcDbEntity
  8
4
100
AcDbCircle
 10
314.011125518788
 20
260.4407371381249
 30
0.0
 40
2.0
100
AcDbArc
 50
270.0
 51
3.36192208265423
  0
ARC
  5
57B
330
17
100
AcDbEntity
  8
4
100
AcDbCircle
 10
316.8123884586396
 20
110.4407331381249
 30
0.0
 40
8.0
100
AcDbArc
 50
3.361922082653688
 51
90.0
  0
LINE
  5
57C
330
17
100
AcDbEntity
  8
4
100
AcDbLine
 10
544.8261800208119
 20
191.940737138125
 30
0.0
 11
534.8261800208119
 21
191.940737138125
 31
0.0
  0
LINE
  5
57D
330
17
100
AcDbEntity
  8
4
100
AcDbLine
 10
434.8261800208119
 20
191.940737138125
 30
0.0
 11
424.8261800208119
 21
191.940737138125
 31
0.0
  0
LINE
  5
57E
330
17
100
AcDbEntity
  8
4
100
AcDbLine
 10
1231.362859540526
 20
115.940737138125
 30
0.0
 11
1202.362859540526
 21
191.940737138125
 31
0.0
  0
ENDSEC
  0
SECTION
  2
OBJECTS
  0
DICTIONARY
  5
5
330
0
100
AcDbDictionary
281
     1
  3
ACAD_COLOR
350
28
  3
ACAD_GROUP
350
26
  3
ACAD_LAYOUT
350
1E
  3
ACAD_MATERIAL
350
7
  3
ACAD_MLEADERSTYLE
350
545
  3
ACAD_MLINESTYLE
350
15
  3
ACAD_PLOTSETTINGS
350
27
  3
ACAD_PLOTSTYLENAME
350
4
  3
ACAD_SCALELIST
350
2C
  3
ACAD_TABLESTYLE
350
544
  3
ACAD_VISUALSTYLE
350
29
  3
ACDBHEADERROUNDTRIPXREC
350
587
  3
AcDbVariableDictionary
350
542
  3
DWGPROPS
350
58A
  0
DICTIONARY
  5
58B
330
25
100
AcDbDictionary
280
     1
281
     1
  3
ACAD_XREC_ROUNDTRIP
360
58C
  0
DICTIONARY
  5
18
330
17
100
AcDbDictionary
280
     1
281
     1
  3
ACAD_SORTENTS
360
19
  0
DICTIONARY
  5
28
102
{ACAD_REACTORS
330
5
102
}
330
5
100
AcDbDictionary
281
     1
  0
DICTIONARY
  5
26
102
{ACAD_REACTORS
330
5
102
}
330
5
100
AcDbDictionary
281
     1
  0
DICTIONARY
  5
1E
102
{ACAD_REACTORS
330
5
102
}
330
5
100
AcDbDictionary
281
     1
  3
Model
350
1D
  3
ﾚｲｱｳﾄ1
350
22
  0
DICTIONARY
  5
7
102
{ACAD_REACTORS
330
5
102
}
330
5
100
AcDbDictionary
281
     1
  3
ByBlock
350
4F
  3
ByLayer
350
10
  3
Global
350
6
  0
DICTIONARY
  5
545
102
{ACAD_REACTORS
330
5
102
}
330
5
100
AcDbDictionary
281
     1
  3
Standard
350
566
  0
DICTIONARY
  5
15
102
{ACAD_REACTORS
330
5
102
}
330
5
100
AcDbDictionary
281
     1
  3
STANDARD
350
14
  0
DICTIONARY
  5
27
102
{ACAD_REACTORS
330
5
102
}
330
5
100
AcDbDictionary
281
     1
  0
ACDBDICTIONARYWDFLT
  5
4
102
{ACAD_REACTORS
330
5
102
}
330
5
100
AcDbDictionary
281
     1
  3
Normal
350
3
100
AcDbDictionaryWithDefault
340
3
  0
DICTIONARY
  5
2C
102
{ACAD_REACTORS
330
5
102
}
330
5
100
AcDbDictionary
281
     1
  3
*A1
350
4E
  0
DICTIONARY
  5
544
102
{ACAD_REACTORS
330
5
102
}
330
5
100
AcDbDictionary
281
     1
  3
Standard
350
583
  0
DICTIONARY
  5
29
102
{ACAD_REACTORS
330
5
102
}
330
5
100
AcDbDictionary
281
     1
  3
2dWireframe
350
54D
  3
Basic
350
550
  3
Brighten
350
554
  3
ColorChange
350
558
  3
Conceptual
350
552
  3
Dim
350
553
  3
EdgeColorOff
350
55B
  3
Facepattern
350
557
  3
Flat
350
549
  3
FlatWithEdges
350
54A
  3
Gouraud
350
54B
  3
GouraudWithEdges
350
54C
  3
Hidden
350
54F
  3
JitterOff
350
559
  3
Linepattern
350
556
  3
OverhangOff
350
55A
  3
Realistic
350
551
  3
Shaded
350
560
  3
Shaded with edges
350
55F
  3
Shades of Gray
350
55C
  3
Sketchy
350
55D
  3
Thicken
350
555
  3
Wireframe
350
54E
  3
X-Ray
350
55E
  0
DICTIONARY
  5
587
102
{ACAD_REACTORS
330
5
102
}
330
5
100
AcDbDictionary
281
     1
  3
COLORDICT
350
588
  3
MATERIALDICT
350
589
  0
DICTIONARY
  5
542
102
{ACAD_REACTORS
330
5
102
}
330
5
100
AcDbDictionary
281
     1
  3
CANNOSCALE
350
543
  3
CMLEADERSTYLE
350
57F
  3
CTABLESTYLE
350
584
  3
DIMASSOC
350
585
  3
HIDETEXT
350
586
  3
MSLTSCALE
350
58D
  3
XCLIPFRAME
350
546
  0
XRECORD
  5
58A
102
{ACAD_REACTORS
330
5
102
}
330
5
100
AcDbXrecord
280
     1
  1
DWGPROPS COOKIE
  2

  3

  4

  6

  7

  8
sg-d04
  9

300
=
301
=
302
=
303
=
304
=
305
=
306
=
307
=
308
=
309
=
 40
0.0
 41
2457310.351361111
 42
2457871.441936447
  1

 90
        0
  0
XRECORD
  5
58C
102
{ACAD_REACTORS
330
58B
102
}
330
58B
100
AcDbXrecord
280
     1
102
VTR_0.000_0.000_1.000_1.000_VISUALSTYLE
340
54D
102
VTR_0.000_0.000_1.000_1.000_GRIDDISPLAY
 70
     3
102
VTR_0.000_0.000_1.000_1.000_GRIDMAJOR
 70
     5
102
VTR_0.000_0.000_1.000_1.000_DEFAULTLIGHTING
280
     1
102
VTR_0.000_0.000_1.000_1.000_DEFAULTLIGHTINGTYPE
 70
     1
102
VTR_0.000_0.000_1.000_1.000_BRIGHTNESS
141
0.0
102
VTR_0.000_0.000_1.000_1.000_CONTRAST
142
0.0
  0
SORTENTSTABLE
  5
19
102
{ACAD_REACTORS
330
18
102
}
330
18
100
AcDbSortentsTable
330
17
331
0
  5
3BF
331
9C
  5
52E
331
9E
  5
52D
331
9F
  5
52C
331
A0
  5
52B
331
1D6
  5
3F7
331
1D7
  5
3F6
331
1D8
  5
3F5
331
1D9
  5
3F4
331
1DE
  5
3EF
331
1EE
  5
3DF
331
1F1
  5
3DC
331
1F6
  5
3D7
331
1F8
  5
3D5
331
1F9
  5
3D4
331
1FA
  5
3D3
331
1FB
  5
3D2
331
1FC
  5
3D1
331
1FD
  5
3D0
331
1FE
  5
3CF
331
1FF
  5
3CE
331
200
  5
3CD
331
201
  5
3CC
331
202
  5
3CB
331
203
  5
3CA
331
204
  5
3C9
331
205
  5
3C8
331
206
  5
3C7
331
207
  5
3C6
331
208
  5
3C5
331
209
  5
3C4
331
20A
  5
3C3
331
20B
  5
3C2
331
20C
  5
3C1
331
20D
  5
3C0
331
20F
  5
3BE
331
210
  5
3BD
331
211
  5
3BC
331
212
  5
3BB
331
213
  5
3BA
331
214
  5
3B9
331
215
  5
3B8
331
216
  5
3B7
331
217
  5
3B6
331
218
  5
3B5
331
219
  5
3B4
331
21A
  5
3B3
331
21B
  5
3B2
331
21C
  5
3B1
331
21D
  5
3B0
331
21E
  5
3AF
331
21F
  5
3AE
331
220
  5
3AD
331
221
  5
3AC
331
222
  5
3AB
331
223
  5
3AA
331
224
  5
3A9
331
225
  5
3A8
331
226
  5
3A7
331
227
  5
3A6
331
228
  5
3A5
331
229
  5
3A4
331
22A
  5
3A3
331
22B
  5
3A2
331
22C
  5
3A1
331
22E
  5
39F
331
22F
  5
39E
331
230
  5
39D
331
231
  5
39C
331
232
  5
39B
331
233
  5
39A
331
234
  5
399
331
23B
  5
392
331
23C
  5
391
331
23E
  5
38F
331
23F
  5
38E
331
240
  5
38D
331
243
  5
38A
331
244
  5
389
331
245
  5
388
331
246
  5
387
331
247
  5
386
331
248
  5
385
331
249
  5
384
331
24A
  5
383
331
24B
  5
382
331
24C
  5
381
331
24D
  5
380
331
24E
  5
37F
331
24F
  5
37E
331
250
  5
37D
331
251
  5
37C
331
252
  5
37B
331
253
  5
37A
331
254
  5
379
331
255
  5
378
331
256
  5
377
331
257
  5
376
331
258
  5
375
331
259
  5
374
331
25A
  5
373
331
25B
  5
372
331
25C
  5
371
331
25D
  5
370
331
25E
  5
36F
331
25F
  5
36E
331
260
  5
36D
331
261
  5
36C
331
262
  5
36B
331
263
  5
36A
331
264
  5
369
331
265
  5
368
331
266
  5
367
331
267
  5
366
331
268
  5
365
331
269
  5
364
331
26A
  5
363
331
26B
  5
362
331
26C
  5
361
331
26D
  5
360
331
26E
  5
35F
331
26F
  5
35E
331
270
  5
35D
331
271
  5
35C
331
272
  5
35B
331
273
  5
35A
331
274
  5
359
331
275
  5
358
331
276
  5
357
331
277
  5
356
331
278
  5
355
331
279
  5
354
331
27A
  5
353
331
27B
  5
352
331
27C
  5
351
331
27D
  5
350
331
27E
  5
34F
331
27F
  5
34E
331
280
  5
34D
331
281
  5
34C
331
282
  5
34B
331
283
  5
34A
331
284
  5
349
331
285
  5
348
331
286
  5
347
331
287
  5
346
331
288
  5
345
331
289
  5
344
331
28A
  5
343
331
28B
  5
342
331
28C
  5
341
331
28D
  5
340
331
28E
  5
33F
331
28F
  5
33E
331
290
  5
33D
331
291
  5
33C
331
292
  5
33B
331
294
  5
339
331
295
  5
338
331
296
  5
337
331
297
  5
336
331
298
  5
335
331
299
  5
334
331
29A
  5
333
331
29B
  5
332
331
29C
  5
331
331
29D
  5
330
331
29E
  5
32F
331
29F
  5
32E
331
2A0
  5
32D
331
2A1
  5
32C
331
2A2
  5
32B
331
2A3
  5
32A
331
2A4
  5
329
331
2A5
  5
328
331
2A6
  5
327
331
2A7
  5
326
331
2A8
  5
325
331
2A9
  5
324
331
2AA
  5
323
331
2AB
  5
322
331
2AC
  5
321
331
2AD
  5
320
331
2AE
  5
31F
331
2C8
  5
304
331
2C9
  5
303
331
2CA
  5
301
331
2CC
  5
2FF
331
2CD
  5
2FE
331
2CE
  5
2FD
331
2CF
  5
2FC
331
2D0
  5
2FB
331
2D1
  5
2FA
331
2D2
  5
2F9
331
2D4
  5
2F7
331
2D8
  5
2F3
331
2D9
  5
2F2
331
2DA
  5
2F1
331
2DB
  5
2F0
331
2DC
  5
2EF
331
2DE
  5
2ED
331
2DF
  5
2EC
331
2E0
  5
2EA
331
2E1
  5
2E9
331
2E2
  5
2E8
331
2E3
  5
2E7
331
2E4
  5
2E6
331
2E6
  5
2E4
331
2E7
  5
2E3
331
2E8
  5
2E2
331
2E9
  5
2E1
331
2EA
  5
2E0
331
2EB
  5
2DF
331
2EC
  5
2DE
331
2ED
  5
2DD
331
2EE
  5
2DC
331
2EF
  5
2DB
331
2F0
  5
2DA
331
2F1
  5
2D9
331
2F2
  5
2D8
331
2F3
  5
2D7
331
2F4
  5
2D6
331
2F5
  5
2D5
331
2F6
  5
2D4
331
2F7
  5
2D3
331
2F8
  5
2D2
331
2F9
  5
2D1
331
2FA
  5
2D0
331
2FB
  5
2CF
331
2FC
  5
2CE
331
2FD
  5
2CD
331
2FE
  5
2CC
331
2FF
  5
2CB
331
300
  5
2CA
331
301
  5
2C9
331
302
  5
2C8
331
303
  5
2C7
331
304
  5
2C6
331
305
  5
2C5
331
306
  5
2C4
331
307
  5
2C3
331
308
  5
2C2
331
309
  5
2C1
331
30A
  5
2C0
331
30B
  5
2BF
331
30C
  5
2BE
331
30D
  5
2BD
331
30E
  5
2BC
331
30F
  5
2BB
331
310
  5
2BA
331
311
  5
2B9
331
312
  5
2B8
331
313
  5
2B7
331
314
  5
2B6
331
315
  5
2B5
331
316
  5
2B4
331
317
  5
2B3
331
318
  5
2B2
331
319
  5
2B1
331
31A
  5
2B0
331
31B
  5
2AF
331
31C
  5
2AE
331
31D
  5
2AD
331
31E
  5
2AC
331
31F
  5
2AB
331
320
  5
2AA
331
321
  5
2A9
331
322
  5
2A8
331
323
  5
2A7
331
324
  5
2A6
331
325
  5
2A5
331
326
  5
2A4
331
327
  5
2A3
331
328
  5
2A2
331
329
  5
2A1
331
32A
  5
2A0
331
32B
  5
29F
331
32C
  5
29E
331
32D
  5
29D
331
32E
  5
29C
331
32F
  5
29B
331
330
  5
29A
331
331
  5
299
331
332
  5
298
331
333
  5
297
331
334
  5
296
331
335
  5
295
331
336
  5
294
331
337
  5
293
331
338
  5
292
331
339
  5
291
331
33A
  5
290
331
33B
  5
28F
331
33C
  5
28E
331
33D
  5
28D
331
33E
  5
28C
331
33F
  5
28B
331
340
  5
28A
331
341
  5
289
331
342
  5
288
331
343
  5
287
331
344
  5
286
331
345
  5
285
331
346
  5
284
331
347
  5
283
331
348
  5
282
331
349
  5
281
331
34A
  5
280
331
34B
  5
27F
331
34C
  5
27E
331
34D
  5
27D
331
34E
  5
27C
331
34F
  5
27B
331
350
  5
27A
331
351
  5
279
331
352
  5
278
331
353
  5
277
331
354
  5
276
331
355
  5
275
331
356
  5
274
331
357
  5
273
331
358
  5
272
331
359
  5
271
331
35A
  5
270
331
35B
  5
26F
331
35C
  5
26E
331
35D
  5
26D
331
35E
  5
26C
331
35F
  5
26B
331
360
  5
26A
331
361
  5
269
331
362
  5
268
331
363
  5
267
331
364
  5
266
331
365
  5
265
331
366
  5
264
331
367
  5
263
331
368
  5
262
331
369
  5
261
331
36A
  5
260
331
36B
  5
25F
331
36C
  5
25E
331
36D
  5
25D
331
36E
  5
25C
331
36F
  5
25B
331
370
  5
25A
331
371
  5
259
331
372
  5
258
331
373
  5
257
331
374
  5
256
331
375
  5
255
331
376
  5
254
331
377
  5
253
331
378
  5
252
331
379
  5
251
331
37A
  5
250
331
37B
  5
24F
331
37C
  5
24E
331
37D
  5
24D
331
37E
  5
24C
331
37F
  5
24B
331
380
  5
24A
331
381
  5
249
331
382
  5
248
331
383
  5
247
331
384
  5
246
331
385
  5
245
331
386
  5
244
331
387
  5
243
331
388
  5
242
331
389
  5
241
331
38A
  5
240
331
38B
  5
23F
331
38C
  5
23E
331
38D
  5
23D
331
38E
  5
23C
331
38F
  5
23B
331
390
  5
23A
331
391
  5
239
331
392
  5
238
331
393
  5
237
331
394
  5
236
331
395
  5
235
331
396
  5
234
331
397
  5
233
331
398
  5
232
331
399
  5
231
331
39A
  5
230
331
39B
  5
22F
331
39C
  5
22E
331
39D
  5
22D
331
39E
  5
22C
331
39F
  5
22B
331
3A0
  5
22A
331
3A1
  5
229
331
3A2
  5
228
331
3A3
  5
227
331
3A4
  5
226
331
3A5
  5
225
331
3A6
  5
224
331
3A7
  5
223
331
3A8
  5
222
331
3A9
  5
221
331
3AA
  5
220
331
3AB
  5
21F
331
3AC
  5
21E
331
3AD
  5
21D
331
3AE
  5
21C
331
3AF
  5
21B
331
3B0
  5
21A
331
3B1
  5
219
331
3B2
  5
218
331
3B3
  5
217
331
3B4
  5
216
331
3B5
  5
215
331
3B6
  5
214
331
3B7
  5
213
331
3B8
  5
212
331
3B9
  5
211
331
3BA
  5
210
331
3BB
  5
20F
331
3BC
  5
20E
331
3BD
  5
20D
331
3BE
  5
20C
331
3BF
  5
20B
331
3C0
  5
20A
331
3C1
  5
209
331
3C2
  5
208
331
3C3
  5
207
331
3C4
  5
206
331
3C5
  5
205
331
3C6
  5
204
331
3C7
  5
203
331
3C8
  5
202
331
3C9
  5
201
331
3CA
  5
200
331
3CB
  5
1FF
331
3CC
  5
1FE
331
3CD
  5
1FD
331
3CE
  5
1FC
331
3CF
  5
1FB
331
3D0
  5
1FA
331
3D1
  5
1F9
331
3D2
  5
1F8
331
3D3
  5
1F7
331
3D4
  5
1F6
331
3D5
  5
1F5
331
3D6
  5
1F4
331
3D7
  5
1F3
331
3D8
  5
1F2
331
3D9
  5
1F1
331
3DA
  5
1F0
331
3DB
  5
1EF
331
3DC
  5
1EE
331
3DD
  5
1ED
331
3DE
  5
1EC
331
3DF
  5
1EB
331
3E0
  5
1EA
331
3E1
  5
1E9
331
3E2
  5
1E8
331
3E3
  5
1E7
331
3E4
  5
1E6
331
3E5
  5
1E5
331
3E6
  5
1E4
331
3E7
  5
1E3
331
3E8
  5
1E2
331
3E9
  5
1E1
331
3EA
  5
1E0
331
3EB
  5
1DF
331
3EC
  5
1DE
331
3ED
  5
1DD
331
3EE
  5
1DC
331
3EF
  5
1DB
331
3F0
  5
1DA
331
3F1
  5
1D9
331
3F2
  5
1D8
331
3F3
  5
1D7
331
3F4
  5
1D6
331
3F5
  5
1D5
331
3F6
  5
1D4
331
3F7
  5
1D3
331
3F8
  5
1D2
331
3F9
  5
1D1
331
3FA
  5
1D0
331
3FB
  5
1CF
331
3FC
  5
1CE
331
3FD
  5
1CD
331
3FE
  5
1CC
331
3FF
  5
1CB
331
400
  5
1CA
331
401
  5
1C9
331
402
  5
1C8
331
403
  5
1C7
331
404
  5
1C6
331
405
  5
1C5
331
406
  5
1C4
331
407
  5
1C3
331
408
  5
1C2
331
409
  5
1C1
331
40A
  5
1C0
331
40B
  5
1BF
331
40C
  5
1BE
331
40D
  5
1BD
331
40E
  5
1BC
331
40F
  5
1BB
331
410
  5
1BA
331
411
  5
1B9
331
412
  5
1B8
331
413
  5
1B7
331
414
  5
1B6
331
415
  5
1B5
331
416
  5
1B4
331
417
  5
1B3
331
418
  5
1B2
331
419
  5
1B1
331
41A
  5
1B0
331
41B
  5
1AF
331
41C
  5
1AE
331
41D
  5
1AD
331
41E
  5
1AC
331
41F
  5
1AB
331
420
  5
1AA
331
421
  5
1A9
331
422
  5
1A8
331
423
  5
1A7
331
424
  5
1A6
331
425
  5
1A5
331
426
  5
1A4
331
427
  5
1A3
331
428
  5
1A2
331
429
  5
1A1
331
42A
  5
1A0
331
42B
  5
19F
331
42C
  5
19E
331
42D
  5
19D
331
42E
  5
19C
331
42F
  5
19B
331
430
  5
19A
331
431
  5
199
331
433
  5
197
331
434
  5
196
331
435
  5
195
331
436
  5
194
331
437
  5
193
331
438
  5
192
331
439
  5
191
331
43A
  5
190
331
43B
  5
18F
331
43C
  5
18E
331
43D
  5
18D
331
43F
  5
18B
331
440
  5
18A
331
441
  5
189
331
442
  5
188
331
446
  5
184
331
447
  5
183
331
449
  5
181
331
44A
  5
180
331
44B
  5
17F
331
44C
  5
17E
331
44E
  5
17C
331
44F
  5
17B
331
450
  5
17A
331
451
  5
179
331
452
  5
178
331
453
  5
177
331
454
  5
176
331
455
  5
175
331
456
  5
174
331
457
  5
173
331
458
  5
172
331
459
  5
171
331
45B
  5
16F
331
45C
  5
16E
331
45D
  5
16D
331
45E
  5
16C
331
45F
  5
16B
331
460
  5
16A
331
461
  5
169
331
467
  5
163
331
468
  5
162
331
469
  5
161
331
46A
  5
160
331
46B
  5
15F
331
46C
  5
15E
331
46D
  5
15D
331
46E
  5
15C
331
46F
  5
15B
331
470
  5
15A
331
471
  5
159
331
472
  5
158
331
473
  5
157
331
474
  5
156
331
476
  5
154
331
477
  5
153
331
478
  5
152
331
47A
  5
150
331
47B
  5
14F
331
47C
  5
14E
331
480
  5
14A
331
482
  5
148
331
483
  5
147
331
485
  5
145
331
486
  5
144
331
487
  5
143
331
488
  5
142
331
489
  5
141
331
48A
  5
140
331
48B
  5
13F
331
48C
  5
13E
331
48D
  5
13D
331
48E
  5
13C
331
48F
  5
13B
331
490
  5
13A
331
491
  5
139
331
492
  5
138
331
493
  5
137
331
494
  5
136
331
495
  5
135
331
496
  5
134
331
497
  5
133
331
498
  5
132
331
499
  5
131
331
49A
  5
130
331
49B
  5
12F
331
49C
  5
12E
331
49D
  5
12D
331
49E
  5
12C
331
49F
  5
12B
331
4A0
  5
12A
331
4A1
  5
129
331
4A2
  5
128
331
4A3
  5
127
331
4A4
  5
126
331
4A5
  5
125
331
4A6
  5
124
331
4A7
  5
123
331
4A8
  5
122
331
4A9
  5
121
331
4AA
  5
120
331
4AB
  5
11F
331
4AC
  5
11E
331
4AD
  5
11D
331
4AE
  5
11C
331
4AF
  5
11B
331
4B0
  5
11A
331
4B1
  5
119
331
4B2
  5
118
331
4B3
  5
117
331
4B4
  5
116
331
4B5
  5
115
331
4B6
  5
114
331
4B7
  5
113
331
4B8
  5
112
331
4B9
  5
111
331
4BA
  5
110
331
4BB
  5
10F
331
4BC
  5
10E
331
4BD
  5
10D
331
4BE
  5
10C
331
4BF
  5
10B
331
4C0
  5
10A
331
4C1
  5
109
331
4C2
  5
108
331
4C3
  5
107
331
4C4
  5
105
331
4C5
  5
104
331
4C6
  5
103
331
4C7
  5
102
331
4C8
  5
101
331
4C9
  5
100
331
4CA
  5
FF
331
4CB
  5
FD
331
4CC
  5
FC
331
4CD
  5
FB
331
4CE
  5
FA
331
4CF
  5
F9
331
4D0
  5
F8
331
4D1
  5
F7
331
4D2
  5
F6
331
4D3
  5
F5
331
4D4
  5
F4
331
4D5
  5
F3
331
4D6
  5
F2
331
4D7
  5
F1
331
4D8
  5
F0
331
4D9
  5
EF
331
4DA
  5
EE
331
4DB
  5
ED
331
4DC
  5
EC
331
4DD
  5
EB
331
4DE
  5
EA
331
4DF
  5
E9
331
4E0
  5
E8
331
4E1
  5
E7
331
4E2
  5
E6
331
4E3
  5
E5
331
4E4
  5
E4
331
4E5
  5
E3
331
4E6
  5
E2
331
4E7
  5
E1
331
4E8
  5
E0
331
4E9
  5
DF
331
4EA
  5
DE
331
4EB
  5
DD
331
4EE
  5
DA
331
4EF
  5
D9
331
4F0
  5
D8
331
4F1
  5
D7
331
4F2
  5
D6
331
4F3
  5
D5
331
4F4
  5
D4
331
4F5
  5
D3
331
4F6
  5
D2
331
4F7
  5
D1
331
4F8
  5
D0
331
4F9
  5
CF
331
4FA
  5
CE
331
4FB
  5
CD
331
4FD
  5
CB
331
4FE
  5
CA
331
4FF
  5
C9
331
500
  5
C8
331
501
  5
C7
331
502
  5
C6
331
503
  5
C5
331
504
  5
C4
331
505
  5
C3
331
506
  5
C2
331
507
  5
C1
331
508
  5
C0
331
509
  5
BF
331
50A
  5
BE
331
530
  5
97
331
531
  5
96
331
532
  5
95
331
533
  5
94
331
534
  5
93
331
535
  5
92
331
536
  5
539
331
537
  5
53A
331
538
  5
53B
331
539
  5
53C
331
53A
  5
53D
331
53B
  5
53E
331
53C
  5
53F
331
53D
  5
540
331
53E
  5
541
331
53F
  5
562
331
568
  5
2EB
331
569
  5
305
  0
LAYOUT
  5
1D
102
{ACAD_REACTORS
330
1E
102
}
330
1E
100
AcDbPlotSettings
  1

  2
Bullzip PDF Printer.pc3
  4
A3
  6

 40
0.2
 41
0.0
 42
0.0
 43
0.0
 44
420.2
 45
297.1
 46
25.0
 47
12.0
 48
119.9999998733333
 49
10.0
140
1647.999996373334
141
1099.999997456667
142
1.0
143
4.0
 70
 11936
 72
     1
 73
     0
 74
     4
  7
monochrome.ctb
 75
    18
147
0.25
148
-119.9999998733333
149
-10.0
100
AcDbLayout
  1
Model
 70
     0
 71
     0
 10
0.0
 20
0.0
 11
12.0
 21
9.0
 12
0.0
 22
0.0
 32
0.0
 14
287.3904067691581
 24
6.984873354026604
 34
0.0
 15
1509.222648924382
 25
1110.254444957709
 35
0.0
146
0.0
 13
0.0
 23
0.0
 33
0.0
 16
1.0
 26
0.0
 36
0.0
 17
0.0
 27
1.0
 37
0.0
 76
     0
330
17
331
2A
1001
ACAD_PSEXT
1000
Bullzip PDF Printer.pc3
1000
Bullzip PDF Printer
1000
BULLZIP
1000
Bullzip PDF Printer 10.1.0.1871
1070
     0
  0
LAYOUT
  5
22
102
{ACAD_REACTORS
330
1E
102
}
330
1E
100
AcDbPlotSettings
  1

  2
SR-LP8300F
  4

  6

 40
0.0
 41
0.0
 42
0.0
 43
0.0
 44
0.0
 45
0.0
 46
0.0
 47
0.0
 48
0.0
 49
0.0
140
0.0
141
0.0
142
1.0
143
1.0
 70
   688
 72
     0
 73
     0
 74
     5
  7
monochrome.ctb
 75
    16
147
1.0
148
0.0
149
0.0
100
AcDbLayout
  1
ﾚｲｱｳﾄ1
 70
     0
 71
     1
 10
0.0
 20
0.0
 11
12.0
 21
9.0
 12
0.0
 22
0.0
 32
0.0
 14
1.000000000000000E+20
 24
1.000000000000000E+20
 34
1.000000000000000E+20
 15
-1.000000000000000E+20
 25
-1.000000000000000E+20
 35
-1.000000000000000E+20
146
0.0
 13
0.0
 23
0.0
 33
0.0
 16
1.0
 26
0.0
 36
0.0
 17
0.0
 27
1.0
 37
0.0
 76
     0
330
1F
  0
MATERIAL
  5
4F
102
{ACAD_REACTORS
330
7
102
}
102
{ACAD_XDICTIONARY
360
592
102
}
330
7
100
AcDbMaterial
  1
ByBlock
  0
MATERIAL
  5
10
102
{ACAD_REACTORS
330
7
102
}
102
{ACAD_XDICTIONARY
360
58E
102
}
330
7
100
AcDbMaterial
  1
ByLayer
  0
MATERIAL
  5
6
102
{ACAD_REACTORS
330
7
102
}
102
{ACAD_XDICTIONARY
360
590
102
}
330
7
100
AcDbMaterial
  1
Global
1001
ACAD
1070
    -1
1070
     3
1070
     0
1000

1071
        0
  0
MLEADERSTYLE
  5
566
102
{ACAD_REACTORS
330
545
102
}
102
{ACAD_XDICTIONARY
360
5C4
102
}
330
545
100
AcDbMLeaderStyle
170
     2
171
     1
172
     0
 90
        2
 40
0.0
 41
0.0
173
     1
 91
-1056964608
340
D
 92
       -2
290
     1
 42
0.09
291
     1
 43
0.36
  3
Standard
341
0
 44
0.18
300

342
E
174
     1
178
     6
175
     1
176
     0
 93
-1056964608
 45
0.18
292
     0
297
     0
 46
0.18
343
0
 94
-1056964608
 47
1.0
 49
1.0
140
1.0
293
     1
141
0.0
294
     1
177
     0
142
1.0
295
     0
296
     0
143
0.125
1001
ACAD_MLEADERVER
1070
     2
  0
MLINESTYLE
  5
14
102
{ACAD_REACTORS
330
15
102
}
330
15
100
AcDbMlineStyle
  2
STANDARD
 70
     0
  3

 62
     0
 51
90.0
 52
90.0
 71
     2
 49
0.5
 62
   256
  6
BYLAYER
 49
-0.5
 62
   256
  6
BYLAYER
  0
ACDBPLACEHOLDER
  5
3
102
{ACAD_REACTORS
330
4
102
}
330
4
  0
SCALE
  5
4E
102
{ACAD_REACTORS
330
2C
102
}
330
2C
100
AcDbScale
 70
     0
300
1:1
140
1.0
141
1.0
290
     1
  0
TABLESTYLE
  5
583
102
{ACAD_REACTORS
330
544
102
}
330
544
100
AcDbTableStyle
  3
Standard
 70
     0
 71
     0
 40
0.06
 41
0.06
280
     0
281
     0
  7
STANDARD
140
0.18
170
     2
 62
     0
 63
   257
283
     0
274
    -2
284
     1
 64
     0
275
    -2
285
     1
 65
     0
276
    -2
286
     1
 66
     0
277
    -2
287
     1
 67
     0
278
    -2
288
     1
 68
     0
279
    -2
289
     1
 69
     0
  7
STANDARD
140
0.25
170
     5
 62
     0
 63
   257
283
     0
274
    -2
284
     1
 64
     0
275
    -2
285
     1
 65
     0
276
    -2
286
     1
 66
     0
277
    -2
287
     1
 67
     0
278
    -2
288
     1
 68
     0
279
    -2
289
     1
 69
     0
  7
STANDARD
140
0.18
170
     5
 62
     0
 63
   257
283
     0
274
    -2
284
     1
 64
     0
275
    -2
285
     1
 65
     0
276
    -2
286
     1
 66
     0
277
    -2
287
     1
 67
     0
278
    -2
288
     1
 68
     0
279
    -2
289
     1
 69
     0
  0
VISUALSTYLE
  5
54D
102
{ACAD_REACTORS
330
29
102
}
102
{ACAD_XDICTIONARY
360
59C
102
}
330
29
100
AcDbVisualStyle
  2
2dWireframe
 70
     4
 71
     0
 72
     2
 73
     0
 90
        0
 40
0.6
 41
30.0
 62
     5
 63
     7
 74
     1
 91
        4
 64
     7
 65
   257
 75
     1
175
     1
 42
1.0
 92
        0
 66
   257
 43
1.0
 76
     1
 77
     6
 78
     2
 67
     7
 79
     5
170
     0
171
     0
290
     0
174
     0
 93
        1
 44
0.0
173
     0
291
     0
 45
0.0
1001
ACAD
1000
AcDbSavedByObjectVersion
1070
     0
  0
VISUALSTYLE
  5
550
102
{ACAD_REACTORS
330
29
102
}
102
{ACAD_XDICTIONARY
360
5A2
102
}
330
29
100
AcDbVisualStyle
  2
Basic
 70
     7
 71
     1
 72
     0
 73
     1
 90
        0
 40
0.6
 41
30.0
 62
     5
 63
     7
 74
     0
 91
        4
 64
     7
 65
   257
 75
     1
175
     1
 42
1.0
 92
        8
 66
     7
 43
1.0
 76
     1
 77
     6
 78
     2
 67
     7
 79
     5
170
     0
171
     0
290
     0
174
     0
 93
        1
 44
0.0
173
     0
291
     1
 45
0.0
1001
ACAD
1000
AcDbSavedByObjectVersion
1070
     0
  0
VISUALSTYLE
  5
554
102
{ACAD_REACTORS
330
29
102
}
102
{ACAD_XDICTIONARY
360
5AA
102
}
330
29
100
AcDbVisualStyle
  2
Brighten
 70
    12
 71
     2
 72
     2
 73
     0
 90
        0
 40
0.6
 41
30.0
 62
     5
 63
     7
 74
     1
 91
        4
 64
     7
 65
   257
 75
     1
175
     1
 42
1.0
 92
        8
 66
     7
 43
1.0
 76
     1
 77
     6
 78
     2
 67
     7
 79
     5
170
     0
171
     0
290
     0
174
     0
 93
        1
 44
50.0
173
     0
291
     1
 45
0.0
1001
ACAD
1000
AcDbSavedByObjectVersion
1070
     0
  0
VISUALSTYLE
  5
558
102
{ACAD_REACTORS
330
29
102
}
102
{ACAD_XDICTIONARY
360
5B2
102
}
330
29
100
AcDbVisualStyle
  2
ColorChange
 70
    16
 71
     2
 72
     2
 73
     3
 90
        0
 40
0.6
 41
30.0
 62
     5
 63
     8
 74
     1
 91
        4
 64
     7
 65
   257
 75
     1
175
     1
 42
1.0
 92
        8
 66
     8
 43
1.0
 76
     1
 77
     6
 78
     2
 67
     7
 79
     5
170
     0
171
     0
290
     0
174
     0
 93
        1
 44
0.0
173
     0
291
     1
 45
0.0
1001
ACAD
1000
AcDbSavedByObjectVersion
1070
     0
  0
VISUALSTYLE
  5
552
102
{ACAD_REACTORS
330
29
102
}
102
{ACAD_XDICTIONARY
360
5A6
102
}
330
29
100
AcDbVisualStyle
  2
Conceptual
 70
     9
 71
     3
 72
     2
 73
     0
 90
        0
 40
0.6
 41
30.0
 62
     5
 63
     7
 74
     2
 91
        2
 64
     7
 65
   257
 75
     1
175
     1
 42
40.0
 92
        8
 66
     7
 43
1.0
 76
     1
 77
     6
 78
     2
 67
     7
 79
     3
170
     0
171
     0
290
     0
174
     0
 93
        1
 44
0.0
173
     0
291
     0
 45
0.0
1001
ACAD
1000
AcDbSavedByObjectVersion
1070
     0
  0
VISUALSTYLE
  5
553
102
{ACAD_REACTORS
330
29
102
}
102
{ACAD_XDICTIONARY
360
5A8
102
}
330
29
100
AcDbVisualStyle
  2
Dim
 70
    11
 71
     2
 72
     2
 73
     0
 90
        0
 40
0.6
 41
30.0
 62
     5
 63
     7
 74
     1
 91
        4
 64
     7
 65
   257
 75
     1
175
     1
 42
1.0
 92
        8
 66
     7
 43
1.0
 76
     1
 77
     6
 78
     2
 67
     7
 79
     5
170
     0
171
     0
290
     0
174
     0
 93
        1
 44
-50.0
173
     0
291
     1
 45
0.0
1001
ACAD
1000
AcDbSavedByObjectVersion
1070
     0
  0
VISUALSTYLE
  5
55B
102
{ACAD_REACTORS
330
29
102
}
102
{ACAD_XDICTIONARY
360
5B8
102
}
330
29
100
AcDbVisualStyle
  2
EdgeColorOff
 70
    22
 71
     2
 72
     2
 73
     0
 90
        0
 40
0.6
 41
30.0
 62
     5
 63
     7
 74
     1
 91
        4
 64
     7
 65
   257
 75
     1
175
     1
 42
1.0
 92
        8
 66
     7
 43
1.0
 76
     1
 77
     6
 78
     2
 67
     7
 79
     5
170
     0
171
     0
290
     0
174
     0
 93
        1
 44
0.0
173
     0
291
     1
 45
0.0
1001
ACAD
1000
AcDbSavedByObjectVersion
1070
     0
  0
VISUALSTYLE
  5
557
102
{ACAD_REACTORS
330
29
102
}
102
{ACAD_XDICTIONARY
360
5B0
102
}
330
29
100
AcDbVisualStyle
  2
Facepattern
 70
    15
 71
     2
 72
     2
 73
     0
 90
        0
 40
0.6
 41
30.0
 62
     5
 63
     7
 74
     1
 91
        4
 64
     7
 65
   257
 75
     1
175
     1
 42
1.0
 92
        8
 66
     7
 43
1.0
 76
     1
 77
     6
 78
     2
 67
     7
 79
     5
170
     0
171
     0
290
     0
174
     0
 93
        1
 44
0.0
173
     0
291
     1
 45
0.0
1001
ACAD
1000
AcDbSavedByObjectVersion
1070
     0
  0
VISUALSTYLE
  5
549
102
{ACAD_REACTORS
330
29
102
}
102
{ACAD_XDICTIONARY
360
594
102
}
330
29
100
AcDbVisualStyle
  2
Flat
 70
     0
 71
     2
 72
     1
 73
     1
 90
        2
 40
0.6
 41
30.0
 62
     5
 63
     7
 74
     0
 91
        4
 64
     7
 65
   257
 75
     1
175
     1
 42
1.0
 92
        8
 66
     7
 43
1.0
 76
     1
 77
     6
 78
     2
 67
     7
 79
     5
170
     0
171
     0
290
     0
174
     0
 93
       13
 44
0.0
173
     0
291
     1
 45
0.0
1001
ACAD
1000
AcDbSavedByObjectVersion
1070
     0
  0
VISUALSTYLE
  5
54A
102
{ACAD_REACTORS
330
29
102
}
102
{ACAD_XDICTIONARY
360
596
102
}
330
29
100
AcDbVisualStyle
  2
FlatWithEdges
 70
     1
 71
     2
 72
     1
 73
     1
 90
        2
 40
0.6
 41
30.0
 62
     5
 63
     7
 74
     1
 91
        4
 64
     7
 65
   257
 75
     1
175
     1
 42
1.0
 92
        0
 66
   257
 43
1.0
 76
     1
 77
     6
 78
     2
 67
     7
 79
     5
170
     0
171
     0
290
     0
174
     0
 93
       13
 44
0.0
173
     0
291
     1
 45
0.0
1001
ACAD
1000
AcDbSavedByObjectVersion
1070
     0
  0
VISUALSTYLE
  5
54B
102
{ACAD_REACTORS
330
29
102
}
102
{ACAD_XDICTIONARY
360
598
102
}
330
29
100
AcDbVisualStyle
  2
Gouraud
 70
     2
 71
     2
 72
     2
 73
     1
 90
        2
 40
0.6
 41
30.0
 62
     5
 63
     7
 74
     0
 91
        4
 64
     7
 65
   257
 75
     1
175
     1
 42
1.0
 92
        0
 66
     7
 43
1.0
 76
     1
 77
     6
 78
     2
 67
     7
 79
     5
170
     0
171
     0
290
     0
174
     0
 93
       13
 44
0.0
173
     0
291
     1
 45
0.0
1001
ACAD
1000
AcDbSavedByObjectVersion
1070
     0
  0
VISUALSTYLE
  5
54C
102
{ACAD_REACTORS
330
29
102
}
102
{ACAD_XDICTIONARY
360
59A
102
}
330
29
100
AcDbVisualStyle
  2
GouraudWithEdges
 70
     3
 71
     2
 72
     2
 73
     1
 90
        2
 40
0.6
 41
30.0
 62
     5
 63
     7
 74
     1
 91
        4
 64
     7
 65
   257
 75
     1
175
     1
 42
1.0
 92
        0
 66
   257
 43
1.0
 76
     1
 77
     6
 78
     2
 67
     7
 79
     5
170
     0
171
     0
290
     0
174
     0
 93
       13
 44
0.0
173
     0
291
     1
 45
0.0
1001
ACAD
1000
AcDbSavedByObjectVersion
1070
     0
  0
VISUALSTYLE
  5
54F
102
{ACAD_REACTORS
330
29
102
}
102
{ACAD_XDICTIONARY
360
5A0
102
}
330
29
100
AcDbVisualStyle
  2
Hidden
 70
     6
 71
     1
 72
     2
 73
     2
 90
        0
 40
0.6
 41
30.0
 62
     5
 63
     7
 74
     2
 91
        2
 64
     7
 65
   257
 75
     2
175
     1
 42
40.0
 92
        0
 66
   257
 43
1.0
 76
     1
 77
     6
 78
     2
 67
     7
 79
     3
170
     0
171
     0
290
     0
174
     0
 93
        1
 44
0.0
173
     0
291
     0
 45
0.0
1001
ACAD
1000
AcDbSavedByObjectVersion
1070
     0
  0
VISUALSTYLE
  5
559
102
{ACAD_REACTORS
330
29
102
}
102
{ACAD_XDICTIONARY
360
5B4
102
}
330
29
100
AcDbVisualStyle
  2
JitterOff
 70
    20
 71
     2
 72
     2
 73
     0
 90
        0
 40
0.6
 41
30.0
 62
     5
 63
     7
 74
     1
 91
        4
 64
     7
 65
   257
 75
     1
175
     1
 42
1.0
 92
       10
 66
     7
 43
1.0
 76
     1
 77
     6
 78
     2
 67
     7
 79
     5
170
     0
171
     0
290
     0
174
     0
 93
        1
 44
0.0
173
     0
291
     1
 45
0.0
1001
ACAD
1000
AcDbSavedByObjectVersion
1070
     0
  0
VISUALSTYLE
  5
556
102
{ACAD_REACTORS
330
29
102
}
102
{ACAD_XDICTIONARY
360
5AE
102
}
330
29
100
AcDbVisualStyle
  2
Linepattern
 70
    14
 71
     2
 72
     2
 73
     0
 90
        0
 40
0.6
 41
30.0
 62
     5
 63
     7
 74
     1
 91
        4
 64
     7
 65
   257
 75
     7
175
     7
 42
1.0
 92
        8
 66
     7
 43
1.0
 76
     1
 77
     6
 78
     2
 67
     7
 79
     5
170
     0
171
     0
290
     0
174
     0
 93
        1
 44
0.0
173
     0
291
     1
 45
0.0
1001
ACAD
1000
AcDbSavedByObjectVersion
1070
     0
  0
VISUALSTYLE
  5
55A
102
{ACAD_REACTORS
330
29
102
}
102
{ACAD_XDICTIONARY
360
5B6
102
}
330
29
100
AcDbVisualStyle
  2
OverhangOff
 70
    21
 71
     2
 72
     2
 73
     0
 90
        0
 40
0.6
 41
30.0
 62
     5
 63
     7
 74
     1
 91
        4
 64
     7
 65
   257
 75
     1
175
     1
 42
1.0
 92
        9
 66
     7
 43
1.0
 76
     1
 77
     6
 78
     2
 67
     7
 79
     5
170
     0
171
     0
290
     0
174
     0
 93
        1
 44
0.0
173
     0
291
     1
 45
0.0
1001
ACAD
1000
AcDbSavedByObjectVersion
1070
     0
  0
VISUALSTYLE
  5
551
102
{ACAD_REACTORS
330
29
102
}
102
{ACAD_XDICTIONARY
360
5A4
102
}
330
29
100
AcDbVisualStyle
  2
Realistic
 70
     8
 71
     2
 72
     3
 73
     0
 90
        2
 40
0.6
 41
30.0
 62
     5
 63
     7
 74
     0
 91
        0
 64
     7
 65
   257
 75
     1
175
     1
 42
1.0
 92
        8
 66
   257
 43
1.0
 76
     1
 77
     6
 78
     2
 67
     7
 79
     3
170
     0
171
     0
290
     0
174
     0
 93
       13
 44
0.0
173
     0
291
     0
 45
0.0
1001
ACAD
1000
AcDbSavedByObjectVersion
1070
     0
  0
VISUALSTYLE
  5
560
102
{ACAD_REACTORS
330
29
102
}
102
{ACAD_XDICTIONARY
360
5C2
102
}
330
29
100
AcDbVisualStyle
  2
Shaded
 70
    27
 71
     2
 72
     2
 73
     1
 90
        2
 40
0.6
 41
30.0
 62
     5
 63
     7
 74
     0
 91
        4
 64
     7
 65
   257
 75
     1
175
     1
 42
1.0
 92
        8
 66
   257
 43
1.0
 76
     1
 77
     6
 78
     2
 67
   251
 79
     3
170
     0
171
     0
290
     0
174
     0
 93
        5
 44
0.0
173
     0
291
     0
 45
0.0
1001
ACAD
1000
AcDbSavedByObjectVersion
1070
     0
  0
VISUALSTYLE
  5
55F
102
{ACAD_REACTORS
330
29
102
}
102
{ACAD_XDICTIONARY
360
5C0
102
}
330
29
100
AcDbVisualStyle
  2
Shaded with edges
 70
    26
 71
     2
 72
     2
 73
     1
 90
        2
 40
0.6
 41
30.0
 62
     5
 63
     7
 74
     1
 91
       10
 64
     7
 65
   257
 75
     2
175
     1
 42
1.0
 92
        8
 66
   257
 43
1.0
 76
     1
 77
     6
 78
     2
 67
     7
 79
     3
170
     0
171
     0
290
     0
174
     0
 93
        5
 44
0.0
173
     0
291
     0
 45
0.0
1001
ACAD
1000
AcDbSavedByObjectVersion
1070
     0
  0
VISUALSTYLE
  5
55C
102
{ACAD_REACTORS
330
29
102
}
102
{ACAD_XDICTIONARY
360
5BA
102
}
330
29
100
AcDbVisualStyle
  2
Shades of Gray
 70
    23
 71
     2
 72
     2
 73
     3
 90
        0
 40
0.6
 41
30.0
 62
     5
 63
     7
 74
     2
 91
        2
 64
     7
 65
     7
 75
     1
175
     1
 42
40.0
 92
        8
 66
     7
 43
1.0
 76
     1
 77
     6
 78
     2
 67
     7
 79
     3
170
     0
171
     0
290
     0
174
     0
 93
        1
 44
0.0
173
     0
291
     0
 45
0.0
1001
ACAD
1000
AcDbSavedByObjectVersion
1070
     0
  0
VISUALSTYLE
  5
55D
102
{ACAD_REACTORS
330
29
102
}
102
{ACAD_XDICTIONARY
360
5BC
102
}
330
29
100
AcDbVisualStyle
  2
Sketchy
 70
    24
 71
     1
 72
     2
 73
     2
 90
        0
 40
0.6
 41
30.0
 62
     5
 63
     7
 74
     2
 91
        2
 64
     7
 65
     7
 75
     1
175
     1
 42
40.0
 92
       11
 66
     7
 43
1.0
 76
     1
 77
     6
 78
     2
 67
     7
 79
     6
170
     0
171
     0
290
     0
174
     0
 93
        1
 44
0.0
173
     0
291
     0
 45
0.0
1001
ACAD
1000
AcDbSavedByObjectVersion
1070
     0
  0
VISUALSTYLE
  5
555
102
{ACAD_REACTORS
330
29
102
}
102
{ACAD_XDICTIONARY
360
5AC
102
}
330
29
100
AcDbVisualStyle
  2
Thicken
 70
    13
 71
     2
 72
     2
 73
     0
 90
        0
 40
0.6
 41
30.0
 62
     5
 63
     7
 74
     1
 91
        4
 64
     7
 65
   257
 75
     1
175
     1
 42
1.0
 92
       12
 66
     7
 43
1.0
 76
     1
 77
     6
 78
     2
 67
     7
 79
     5
170
     0
171
     0
290
     0
174
     0
 93
        1
 44
0.0
173
     0
291
     1
 45
0.0
1001
ACAD
1000
AcDbSavedByObjectVersion
1070
     0
  0
VISUALSTYLE
  5
54E
102
{ACAD_REACTORS
330
29
102
}
102
{ACAD_XDICTIONARY
360
59E
102
}
330
29
100
AcDbVisualStyle
  2
Wireframe
 70
     5
 71
     0
 72
     2
 73
     0
 90
        0
 40
0.6
 41
30.0
 62
     5
 63
     7
 74
     1
 91
        4
 64
     7
 65
   257
 75
     1
175
     1
 42
1.0
 92
        0
 66
   257
 43
1.0
 76
     1
 77
     6
 78
     2
 67
     7
 79
     5
170
     0
171
     0
290
     0
174
     0
 93
        1
 44
0.0
173
     0
291
     0
 45
0.0
1001
ACAD
1000
AcDbSavedByObjectVersion
1070
     0
  0
VISUALSTYLE
  5
55E
102
{ACAD_REACTORS
330
29
102
}
102
{ACAD_XDICTIONARY
360
5BE
102
}
330
29
100
AcDbVisualStyle
  2
X-Ray
 70
    25
 71
     2
 72
     2
 73
     1
 90
        1
 40
0.5
 41
30.0
 62
     5
 63
     7
 74
     1
 91
        0
 64
     7
 65
   257
 75
     1
175
     1
 42
1.0
 92
        8
 66
     7
 43
1.0
 76
     1
 77
     6
 78
     2
 67
     7
 79
     3
170
     0
171
     0
290
     0
174
     0
 93
       13
 44
0.0
173
     0
291
     0
 45
0.0
1001
ACAD
1000
AcDbSavedByObjectVersion
1070
     0
  0
XRECORD
  5
588
102
{ACAD_REACTORS
330
587
102
}
330
587
100
AcDbXrecord
280
     1
340
28
  0
XRECORD
  5
589
102
{ACAD_REACTORS
330
587
102
}
330
587
100
AcDbXrecord
280
     1
340
7
  0
DICTIONARYVAR
  5
543
102
{ACAD_REACTORS
330
542
102
}
330
542
100
DictionaryVariables
280
     0
  1
1:1
  0
DICTIONARYVAR
  5
57F
102
{ACAD_REACTORS
330
542
102
}
330
542
100
DictionaryVariables
280
     0
  1
Standard
  0
DICTIONARYVAR
  5
584
102
{ACAD_REACTORS
330
542
102
}
330
542
100
DictionaryVariables
280
     0
  1
Standard
  0
DICTIONARYVAR
  5
585
102
{ACAD_REACTORS
330
542
102
}
330
542
100
DictionaryVariables
280
     0
  1
0
  0
DICTIONARYVAR
  5
586
102
{ACAD_REACTORS
330
542
102
}
330
542
100
DictionaryVariables
280
     0
  1
1
  0
DICTIONARYVAR
  5
58D
102
{ACAD_REACTORS
330
542
102
}
330
542
100
DictionaryVariables
280
     0
  1
1
  0
DICTIONARYVAR
  5
546
102
{ACAD_REACTORS
330
542
102
}
330
542
100
DictionaryVariables
280
     0
  1
0
  0
DICTIONARY
  5
592
330
4F
100
AcDbDictionary
280
     1
281
     1
  3
ACAD_XREC_ROUNDTRIP
360
593
  0
DICTIONARY
  5
58E
330
10
100
AcDbDictionary
280
     1
281
     1
  3
ACAD_XREC_ROUNDTRIP
360
58F
  0
DICTIONARY
  5
590
330
6
100
AcDbDictionary
280
     1
281
     1
  3
ACAD_XREC_ROUNDTRIP
360
591
  0
DICTIONARY
  5
5C4
330
566
100
AcDbDictionary
280
     1
281
     1
  3
ACAD_XREC_ROUNDTRIP
360
5C5
  0
DICTIONARY
  5
59C
330
54D
100
AcDbDictionary
280
     1
281
     1
  3
ACAD_XREC_ROUNDTRIP
360
59D
  0
DICTIONARY
  5
5A2
330
550
100
AcDbDictionary
280
     1
281
     1
  3
ACAD_XREC_ROUNDTRIP
360
5A3
  0
DICTIONARY
  5
5AA
330
554
100
AcDbDictionary
280
     1
281
     1
  3
ACAD_XREC_ROUNDTRIP
360
5AB
  0
DICTIONARY
  5
5B2
330
558
100
AcDbDictionary
280
     1
281
     1
  3
ACAD_XREC_ROUNDTRIP
360
5B3
  0
DICTIONARY
  5
5A6
330
552
100
AcDbDictionary
280
     1
281
     1
  3
ACAD_XREC_ROUNDTRIP
360
5A7
  0
DICTIONARY
  5
5A8
330
553
100
AcDbDictionary
280
     1
281
     1
  3
ACAD_XREC_ROUNDTRIP
360
5A9
  0
DICTIONARY
  5
5B8
330
55B
100
AcDbDictionary
280
     1
281
     1
  3
ACAD_XREC_ROUNDTRIP
360
5B9
  0
DICTIONARY
  5
5B0
330
557
100
AcDbDictionary
280
     1
281
     1
  3
ACAD_XREC_ROUNDTRIP
360
5B1
  0
DICTIONARY
  5
594
330
549
100
AcDbDictionary
280
     1
281
     1
  3
ACAD_XREC_ROUNDTRIP
360
595
  0
DICTIONARY
  5
596
330
54A
100
AcDbDictionary
280
     1
281
     1
  3
ACAD_XREC_ROUNDTRIP
360
597
  0
DICTIONARY
  5
598
330
54B
100
AcDbDictionary
280
     1
281
     1
  3
ACAD_XREC_ROUNDTRIP
360
599
  0
DICTIONARY
  5
59A
330
54C
100
AcDbDictionary
280
     1
281
     1
  3
ACAD_XREC_ROUNDTRIP
360
59B
  0
DICTIONARY
  5
5A0
330
54F
100
AcDbDictionary
280
     1
281
     1
  3
ACAD_XREC_ROUNDTRIP
360
5A1
  0
DICTIONARY
  5
5B4
330
559
100
AcDbDictionary
280
     1
281
     1
  3
ACAD_XREC_ROUNDTRIP
360
5B5
  0
DICTIONARY
  5
5AE
330
556
100
AcDbDictionary
280
     1
281
     1
  3
ACAD_XREC_ROUNDTRIP
360
5AF
  0
DICTIONARY
  5
5B6
330
55A
100
AcDbDictionary
280
     1
281
     1
  3
ACAD_XREC_ROUNDTRIP
360
5B7
  0
DICTIONARY
  5
5A4
330
551
100
AcDbDictionary
280
     1
281
     1
  3
ACAD_XREC_ROUNDTRIP
360
5A5
  0
DICTIONARY
  5
5C2
330
560
100
AcDbDictionary
280
     1
281
     1
  3
ACAD_XREC_ROUNDTRIP
360
5C3
  0
DICTIONARY
  5
5C0
330
55F
100
AcDbDictionary
280
     1
281
     1
  3
ACAD_XREC_ROUNDTRIP
360
5C1
  0
DICTIONARY
  5
5BA
330
55C
100
AcDbDictionary
280
     1
281
     1
  3
ACAD_XREC_ROUNDTRIP
360
5BB
  0
DICTIONARY
  5
5BC
330
55D
100
AcDbDictionary
280
     1
281
     1
  3
ACAD_XREC_ROUNDTRIP
360
5BD
  0
DICTIONARY
  5
5AC
330
555
100
AcDbDictionary
280
     1
281
     1
  3
ACAD_XREC_ROUNDTRIP
360
5AD
  0
DICTIONARY
  5
59E
330
54E
100
AcDbDictionary
280
     1
281
     1
  3
ACAD_XREC_ROUNDTRIP
360
59F
  0
DICTIONARY
  5
5BE
330
55E
100
AcDbDictionary
280
     1
281
     1
  3
ACAD_XREC_ROUNDTRIP
360
5BF
  0
XRECORD
  5
593
102
{ACAD_REACTORS
330
592
102
}
330
592
100
AcDbXrecord
280
     1
102
MATERIAL
148
0.0
149
0.0
149
0.0
 93
        0
 94
      127
282
     0
 72
     1
 77
     1
171
     1
175
     1
179
     1
273
     0
  0
XRECORD
  5
58F
102
{ACAD_REACTORS
330
58E
102
}
330
58E
100
AcDbXrecord
280
     1
102
MATERIAL
148
0.0
149
0.0
149
0.0
 93
        0
 94
      127
282
     0
 72
     1
 77
     1
171
     1
175
     1
179
     1
273
     0
  0
XRECORD
  5
591
102
{ACAD_REACTORS
330
590
102
}
330
590
100
AcDbXrecord
280
     1
102
MATERIAL
148
0.0
149
0.0
149
0.0
 93
        0
 94
      127
282
     0
 72
     1
 77
     1
171
     1
175
     1
179
     1
273
     0
  0
XRECORD
  5
5C5
102
{ACAD_REACTORS
330
5C4
102
}
330
5C4
100
AcDbXrecord
280
     1
102
ACAD_ROUNDTRIP_2010_MLEADER_STYLE
  0
XRECORD
  5
59D
102
{ACAD_REACTORS
330
59C
102
}
330
59C
100
AcDbXrecord
280
     1
102
RTVSPropertyOp0
 70
     1
102
RTVSPropertyOp1
 70
     1
102
RTVSPropertyOp2
 70
     1
102
RTVSPropertyOp3
 70
     1
102
RTVSPropertyOp4
 70
     1
102
RTVSPropertyOp5
 70
     1
102
RTVSPropertyOp6
 70
     1
102
RTVSPropertyOp7
 70
     1
102
RTVSPropertyOp8
 70
     1
102
RTVSPropertyOp9
 70
     1
102
RTVSPropertyOp10
 70
     1
102
RTVSPropertyOp11
 70
     1
102
RTVSPropertyOp12
 70
     1
102
RTVSPropertyOp13
 70
     1
102
RTVSPropertyOp14
 70
     1
102
RTVSPropertyOp15
 70
     1
102
RTVSPropertyOp16
 70
     1
102
RTVSPropertyOp17
 70
     1
102
RTVSPropertyOp18
 70
     1
102
RTVSPropertyOp19
 70
     1
102
RTVSPropertyOp20
 70
     1
102
RTVSPropertyOp21
 70
     1
102
RTVSPropertyOp22
 70
     1
102
RTVSPropertyOp23
 70
     1
102
RTVSPropertyOp24
 70
     1
102
RTVSPropertyOp25
 70
     1
102
RTVSPropertyOp26
 70
     1
102
RTVSPropertyOp27
 70
     1
102
RTVSPropertyOp28
 70
     1
102
RTVSPropertyOp29
 70
     1
102
RTVSPropertyOp30
 70
     1
102
RTVSPropertyOp31
 70
     1
102
RTVSPropertyOp32
 70
     1
102
RTVSPropertyOp33
 70
     1
102
RTVSPropertyOp34
 70
     1
102
RTVSPropertyOp35
 70
     1
102
RTVSPropertyOp36
 70
     1
102
RTVSPropertyOp37
 70
     1
102
RTVSPropertyOp38
 70
     1
102
RTVSPropertyOp39
 70
     1
102
RTVSPropertyOp40
 70
     1
102
RTVSPropertyOp41
 70
     1
102
RTVSPropertyOp42
 70
     1
102
RTVSPropertyOp43
 70
     1
102
RTVSPropertyOp44
 70
     1
102
RTVSPropertyOp45
 70
     1
102
RTVSPropertyOp46
 70
     1
102
RTVSPropertyOp47
 70
     1
102
RTVSPropertyOp48
 70
     1
102
RTVSPropertyOp49
 70
     1
102
RTVSPropertyOp50
 70
     1
102
RTVSPropertyOp51
 70
     0
102
RTVSPropertyOp52
 70
     0
102
RTVSPropertyOp53
 70
     1
102
RTVSPropertyOp54
 70
     1
102
RTVSPropertyOp55
 70
     1
102
RTVSPropertyOp56
 70
     1
102
RTVSPropertyOp57
 70
     1
102
RTVSPost2010Prop28
280
     1
102
RTVSPost2010PropOp28
 70
     1
102
RTVSPost2010Prop29
280
     1
102
RTVSPost2010PropOp29
 70
     1
102
RTVSPost2010Prop30
280
     0
102
RTVSPost2010PropOp30
 70
     1
102
RTVSPost2010Prop31
280
     0
102
RTVSPost2010PropOp31
 70
     1
102
RTVSPost2010Prop32
280
     0
102
RTVSPost2010PropOp32
 70
     1
102
RTVSPost2010Prop33
280
     0
102
RTVSPost2010PropOp33
 70
     1
102
RTVSPost2010Prop34
280
     0
102
RTVSPost2010PropOp34
 70
     1
102
RTVSPost2010Prop35
280
     0
102
RTVSPost2010PropOp35
 70
     1
102
RTVSPost2010Prop36
280
     0
102
RTVSPost2010PropOp36
 70
     1
102
RTVSPost2010Prop37
 90
       50
102
RTVSPost2010PropOp37
 70
     1
102
RTVSPost2010Prop38
140
0.0
102
RTVSPost2010PropOp38
 70
     1
102
RTVSPost2010Prop39
140
1.0
102
RTVSPost2010PropOp39
 70
     1
102
RTVSPost2010Prop40
 90
        0
102
RTVSPost2010PropOp40
 70
     1
102
RTVSPost2010Prop41ColorIndex
 90
       18
102
RTVSPost2010Prop41ColorRGB
 90
        0
102
RTVSPost2010PropOp41
 70
     1
102
RTVSPost2010Prop42
 90
       50
102
RTVSPost2010PropOp42
 70
     1
102
RTVSPost2010Prop43
 90
        3
102
RTVSPost2010PropOp43
 70
     1
102
RTVSPost2010Prop44ColorIndex
 90
        5
102
RTVSPost2010Prop44ColorRGB
 90
      255
102
RTVSPost2010PropOp44
 70
     1
102
RTVSPost2010Prop45
280
     0
102
RTVSPost2010PropOp45
 70
     1
102
RTVSPost2010Prop46
 90
       50
102
RTVSPost2010PropOp46
 70
     1
102
RTVSPost2010Prop47
 90
       50
102
RTVSPost2010PropOp47
 70
     1
102
RTVSPost2010Prop48
 90
       50
102
RTVSPost2010PropOp48
 70
     1
102
RTVSPost2010Prop49
280
     0
102
RTVSPost2010PropOp49
 70
     1
102
RTVSPost2010Prop50
 90
       50
102
RTVSPost2010PropOp50
 70
     1
102
RTVSPost2010Prop51ColorIndex
 90
      256
102
RTVSPost2010Prop51ColorRGB
 90
-16777216
102
RTVSPost2010PropOp51
 70
     0
102
RTVSPost2010Prop52
140
1.0
102
RTVSPost2010PropOp52
 70
     0
102
RTVSPost2010Prop53
 90
        2
102
RTVSPost2010PropOp53
 70
     1
102
RTVSPost2010Prop54
  1
strokes_ogs.tif
102
RTVSPost2010PropOp54
 70
     1
102
RTVSPost2010Prop55
280
     0
102
RTVSPost2010PropOp55
 70
     1
102
RTVSPost2010Prop56
140
1.0
102
RTVSPost2010PropOp56
 70
     1
102
RTVSPost2010Prop57
140
1.0
102
RTVSPost2010PropOp57
 70
     1
  0
XRECORD
  5
5A3
102
{ACAD_REACTORS
330
5A2
102
}
330
5A2
100
AcDbXrecord
280
     1
102
RTVSPropertyOp0
 70
     1
102
RTVSPropertyOp1
 70
     1
102
RTVSPropertyOp2
 70
     1
102
RTVSPropertyOp3
 70
     1
102
RTVSPropertyOp4
 70
     1
102
RTVSPropertyOp5
 70
     1
102
RTVSPropertyOp6
 70
     1
102
RTVSPropertyOp7
 70
     1
102
RTVSPropertyOp8
 70
     1
102
RTVSPropertyOp9
 70
     1
102
RTVSPropertyOp10
 70
     1
102
RTVSPropertyOp11
 70
     1
102
RTVSPropertyOp12
 70
     1
102
RTVSPropertyOp13
 70
     1
102
RTVSPropertyOp14
 70
     1
102
RTVSPropertyOp15
 70
     1
102
RTVSPropertyOp16
 70
     1
102
RTVSPropertyOp17
 70
     1
102
RTVSPropertyOp18
 70
     1
102
RTVSPropertyOp19
 70
     1
102
RTVSPropertyOp20
 70
     1
102
RTVSPropertyOp21
 70
     1
102
RTVSPropertyOp22
 70
     1
102
RTVSPropertyOp23
 70
     1
102
RTVSPropertyOp24
 70
     1
102
RTVSPropertyOp25
 70
     1
102
RTVSPropertyOp26
 70
     1
102
RTVSPropertyOp27
 70
     1
102
RTVSPropertyOp28
 70
     1
102
RTVSPropertyOp29
 70
     1
102
RTVSPropertyOp30
 70
     1
102
RTVSPropertyOp31
 70
     1
102
RTVSPropertyOp32
 70
     1
102
RTVSPropertyOp33
 70
     1
102
RTVSPropertyOp34
 70
     1
102
RTVSPropertyOp35
 70
     1
102
RTVSPropertyOp36
 70
     1
102
RTVSPropertyOp37
 70
     1
102
RTVSPropertyOp38
 70
     1
102
RTVSPropertyOp39
 70
     1
102
RTVSPropertyOp40
 70
     1
102
RTVSPropertyOp41
 70
     1
102
RTVSPropertyOp42
 70
     1
102
RTVSPropertyOp43
 70
     1
102
RTVSPropertyOp44
 70
     1
102
RTVSPropertyOp45
 70
     1
102
RTVSPropertyOp46
 70
     1
102
RTVSPropertyOp47
 70
     1
102
RTVSPropertyOp48
 70
     1
102
RTVSPropertyOp49
 70
     1
102
RTVSPropertyOp50
 70
     1
102
RTVSPropertyOp51
 70
     0
102
RTVSPropertyOp52
 70
     0
102
RTVSPropertyOp53
 70
     1
102
RTVSPropertyOp54
 70
     1
102
RTVSPropertyOp55
 70
     1
102
RTVSPropertyOp56
 70
     1
102
RTVSPropertyOp57
 70
     1
102
RTVSPost2010Prop28
280
     0
102
RTVSPost2010PropOp28
 70
     1
102
RTVSPost2010Prop29
280
     1
102
RTVSPost2010PropOp29
 70
     1
102
RTVSPost2010Prop30
280
     1
102
RTVSPost2010PropOp30
 70
     1
102
RTVSPost2010Prop31
280
     0
102
RTVSPost2010PropOp31
 70
     1
102
RTVSPost2010Prop32
280
     0
102
RTVSPost2010PropOp32
 70
     1
102
RTVSPost2010Prop33
280
     0
102
RTVSPost2010PropOp33
 70
     1
102
RTVSPost2010Prop34
280
     0
102
RTVSPost2010PropOp34
 70
     1
102
RTVSPost2010Prop35
280
     0
102
RTVSPost2010PropOp35
 70
     1
102
RTVSPost2010Prop36
280
     0
102
RTVSPost2010PropOp36
 70
     1
102
RTVSPost2010Prop37
 90
       50
102
RTVSPost2010PropOp37
 70
     1
102
RTVSPost2010Prop38
140
0.0
102
RTVSPost2010PropOp38
 70
     1
102
RTVSPost2010Prop39
140
1.0
102
RTVSPost2010PropOp39
 70
     1
102
RTVSPost2010Prop40
 90
        0
102
RTVSPost2010PropOp40
 70
     1
102
RTVSPost2010Prop41ColorIndex
 90
       18
102
RTVSPost2010Prop41ColorRGB
 90
        0
102
RTVSPost2010PropOp41
 70
     1
102
RTVSPost2010Prop42
 90
       50
102
RTVSPost2010PropOp42
 70
     1
102
RTVSPost2010Prop43
 90
        3
102
RTVSPost2010PropOp43
 70
     1
102
RTVSPost2010Prop44ColorIndex
 90
        5
102
RTVSPost2010Prop44ColorRGB
 90
      255
102
RTVSPost2010PropOp44
 70
     1
102
RTVSPost2010Prop45
280
     0
102
RTVSPost2010PropOp45
 70
     1
102
RTVSPost2010Prop46
 90
       50
102
RTVSPost2010PropOp46
 70
     1
102
RTVSPost2010Prop47
 90
       50
102
RTVSPost2010PropOp47
 70
     1
102
RTVSPost2010Prop48
 90
       50
102
RTVSPost2010PropOp48
 70
     1
102
RTVSPost2010Prop49
280
     0
102
RTVSPost2010PropOp49
 70
     1
102
RTVSPost2010Prop50
 90
       50
102
RTVSPost2010PropOp50
 70
     1
102
RTVSPost2010Prop51ColorIndex
 90
      256
102
RTVSPost2010Prop51ColorRGB
 90
-16777216
102
RTVSPost2010PropOp51
 70
     0
102
RTVSPost2010Prop52
140
1.0
102
RTVSPost2010PropOp52
 70
     0
102
RTVSPost2010Prop53
 90
        2
102
RTVSPost2010PropOp53
 70
     1
102
RTVSPost2010Prop54
  1
strokes_ogs.tif
102
RTVSPost2010PropOp54
 70
     1
102
RTVSPost2010Prop55
280
     0
102
RTVSPost2010PropOp55
 70
     1
102
RTVSPost2010Prop56
140
1.0
102
RTVSPost2010PropOp56
 70
     1
102
RTVSPost2010Prop57
140
1.0
102
RTVSPost2010PropOp57
 70
     1
  0
XRECORD
  5
5AB
102
{ACAD_REACTORS
330
5AA
102
}
330
5AA
100
AcDbXrecord
280
     1
102
RTVSPropertyOp0
 70
     1
102
RTVSPropertyOp1
 70
     1
102
RTVSPropertyOp2
 70
     1
102
RTVSPropertyOp3
 70
     1
102
RTVSPropertyOp4
 70
     1
102
RTVSPropertyOp5
 70
     1
102
RTVSPropertyOp6
 70
     1
102
RTVSPropertyOp7
 70
     1
102
RTVSPropertyOp8
 70
     1
102
RTVSPropertyOp9
 70
     1
102
RTVSPropertyOp10
 70
     1
102
RTVSPropertyOp11
 70
     1
102
RTVSPropertyOp12
 70
     1
102
RTVSPropertyOp13
 70
     1
102
RTVSPropertyOp14
 70
     1
102
RTVSPropertyOp15
 70
     1
102
RTVSPropertyOp16
 70
     1
102
RTVSPropertyOp17
 70
     1
102
RTVSPropertyOp18
 70
     1
102
RTVSPropertyOp19
 70
     1
102
RTVSPropertyOp20
 70
     1
102
RTVSPropertyOp21
 70
     1
102
RTVSPropertyOp22
 70
     1
102
RTVSPropertyOp23
 70
     1
102
RTVSPropertyOp24
 70
     1
102
RTVSPropertyOp25
 70
     1
102
RTVSPropertyOp26
 70
     1
102
RTVSPropertyOp27
 70
     1
102
RTVSPropertyOp28
 70
     1
102
RTVSPropertyOp29
 70
     1
102
RTVSPropertyOp30
 70
     1
102
RTVSPropertyOp31
 70
     1
102
RTVSPropertyOp32
 70
     1
102
RTVSPropertyOp33
 70
     1
102
RTVSPropertyOp34
 70
     1
102
RTVSPropertyOp35
 70
     1
102
RTVSPropertyOp36
 70
     1
102
RTVSPropertyOp37
 70
     1
102
RTVSPropertyOp38
 70
     1
102
RTVSPropertyOp39
 70
     1
102
RTVSPropertyOp40
 70
     1
102
RTVSPropertyOp41
 70
     1
102
RTVSPropertyOp42
 70
     1
102
RTVSPropertyOp43
 70
     1
102
RTVSPropertyOp44
 70
     1
102
RTVSPropertyOp45
 70
     1
102
RTVSPropertyOp46
 70
     1
102
RTVSPropertyOp47
 70
     1
102
RTVSPropertyOp48
 70
     1
102
RTVSPropertyOp49
 70
     1
102
RTVSPropertyOp50
 70
     1
102
RTVSPropertyOp51
 70
     0
102
RTVSPropertyOp52
 70
     0
102
RTVSPropertyOp53
 70
     1
102
RTVSPropertyOp54
 70
     1
102
RTVSPropertyOp55
 70
     1
102
RTVSPropertyOp56
 70
     1
102
RTVSPropertyOp57
 70
     1
102
RTVSPost2010Prop28
280
     0
102
RTVSPost2010PropOp28
 70
     1
102
RTVSPost2010Prop29
280
     1
102
RTVSPost2010PropOp29
 70
     1
102
RTVSPost2010Prop30
280
     1
102
RTVSPost2010PropOp30
 70
     1
102
RTVSPost2010Prop31
280
     0
102
RTVSPost2010PropOp31
 70
     1
102
RTVSPost2010Prop32
280
     0
102
RTVSPost2010PropOp32
 70
     1
102
RTVSPost2010Prop33
280
     0
102
RTVSPost2010PropOp33
 70
     1
102
RTVSPost2010Prop34
280
     0
102
RTVSPost2010PropOp34
 70
     1
102
RTVSPost2010Prop35
280
     0
102
RTVSPost2010PropOp35
 70
     1
102
RTVSPost2010Prop36
280
     0
102
RTVSPost2010PropOp36
 70
     1
102
RTVSPost2010Prop37
 90
       50
102
RTVSPost2010PropOp37
 70
     1
102
RTVSPost2010Prop38
140
0.0
102
RTVSPost2010PropOp38
 70
     1
102
RTVSPost2010Prop39
140
1.0
102
RTVSPost2010PropOp39
 70
     1
102
RTVSPost2010Prop40
 90
        0
102
RTVSPost2010PropOp40
 70
     1
102
RTVSPost2010Prop41ColorIndex
 90
       18
102
RTVSPost2010Prop41ColorRGB
 90
        0
102
RTVSPost2010PropOp41
 70
     1
102
RTVSPost2010Prop42
 90
       50
102
RTVSPost2010PropOp42
 70
     1
102
RTVSPost2010Prop43
 90
        3
102
RTVSPost2010PropOp43
 70
     1
102
RTVSPost2010Prop44ColorIndex
 90
        5
102
RTVSPost2010Prop44ColorRGB
 90
      255
102
RTVSPost2010PropOp44
 70
     1
102
RTVSPost2010Prop45
280
     0
102
RTVSPost2010PropOp45
 70
     1
102
RTVSPost2010Prop46
 90
       50
102
RTVSPost2010PropOp46
 70
     1
102
RTVSPost2010Prop47
 90
       50
102
RTVSPost2010PropOp47
 70
     1
102
RTVSPost2010Prop48
 90
       50
102
RTVSPost2010PropOp48
 70
     1
102
RTVSPost2010Prop49
280
     0
102
RTVSPost2010PropOp49
 70
     1
102
RTVSPost2010Prop50
 90
       50
102
RTVSPost2010PropOp50
 70
     1
102
RTVSPost2010Prop51ColorIndex
 90
      256
102
RTVSPost2010Prop51ColorRGB
 90
-16777216
102
RTVSPost2010PropOp51
 70
     0
102
RTVSPost2010Prop52
140
1.0
102
RTVSPost2010PropOp52
 70
     0
102
RTVSPost2010Prop53
 90
        2
102
RTVSPost2010PropOp53
 70
     1
102
RTVSPost2010Prop54
  1
strokes_ogs.tif
102
RTVSPost2010PropOp54
 70
     1
102
RTVSPost2010Prop55
280
     0
102
RTVSPost2010PropOp55
 70
     1
102
RTVSPost2010Prop56
140
1.0
102
RTVSPost2010PropOp56
 70
     1
102
RTVSPost2010Prop57
140
1.0
102
RTVSPost2010PropOp57
 70
     1
  0
XRECORD
  5
5B3
102
{ACAD_REACTORS
330
5B2
102
}
330
5B2
100
AcDbXrecord
280
     1
102
RTVSPropertyOp0
 70
     1
102
RTVSPropertyOp1
 70
     1
102
RTVSPropertyOp2
 70
     1
102
RTVSPropertyOp3
 70
     1
102
RTVSPropertyOp4
 70
     1
102
RTVSPropertyOp5
 70
     1
102
RTVSPropertyOp6
 70
     1
102
RTVSPropertyOp7
 70
     1
102
RTVSPropertyOp8
 70
     1
102
RTVSPropertyOp9
 70
     1
102
RTVSPropertyOp10
 70
     1
102
RTVSPropertyOp11
 70
     1
102
RTVSPropertyOp12
 70
     1
102
RTVSPropertyOp13
 70
     1
102
RTVSPropertyOp14
 70
     1
102
RTVSPropertyOp15
 70
     1
102
RTVSPropertyOp16
 70
     1
102
RTVSPropertyOp17
 70
     1
102
RTVSPropertyOp18
 70
     1
102
RTVSPropertyOp19
 70
     1
102
RTVSPropertyOp20
 70
     1
102
RTVSPropertyOp21
 70
     1
102
RTVSPropertyOp22
 70
     1
102
RTVSPropertyOp23
 70
     1
102
RTVSPropertyOp24
 70
     1
102
RTVSPropertyOp25
 70
     1
102
RTVSPropertyOp26
 70
     1
102
RTVSPropertyOp27
 70
     1
102
RTVSPropertyOp28
 70
     1
102
RTVSPropertyOp29
 70
     1
102
RTVSPropertyOp30
 70
     1
102
RTVSPropertyOp31
 70
     1
102
RTVSPropertyOp32
 70
     1
102
RTVSPropertyOp33
 70
     1
102
RTVSPropertyOp34
 70
     1
102
RTVSPropertyOp35
 70
     1
102
RTVSPropertyOp36
 70
     1
102
RTVSPropertyOp37
 70
     1
102
RTVSPropertyOp38
 70
     1
102
RTVSPropertyOp39
 70
     1
102
RTVSPropertyOp40
 70
     1
102
RTVSPropertyOp41
 70
     1
102
RTVSPropertyOp42
 70
     1
102
RTVSPropertyOp43
 70
     1
102
RTVSPropertyOp44
 70
     1
102
RTVSPropertyOp45
 70
     1
102
RTVSPropertyOp46
 70
     1
102
RTVSPropertyOp47
 70
     1
102
RTVSPropertyOp48
 70
     1
102
RTVSPropertyOp49
 70
     1
102
RTVSPropertyOp50
 70
     1
102
RTVSPropertyOp51
 70
     0
102
RTVSPropertyOp52
 70
     0
102
RTVSPropertyOp53
 70
     1
102
RTVSPropertyOp54
 70
     1
102
RTVSPropertyOp55
 70
     1
102
RTVSPropertyOp56
 70
     1
102
RTVSPropertyOp57
 70
     1
102
RTVSPost2010Prop28
280
     0
102
RTVSPost2010PropOp28
 70
     1
102
RTVSPost2010Prop29
280
     1
102
RTVSPost2010PropOp29
 70
     1
102
RTVSPost2010Prop30
280
     1
102
RTVSPost2010PropOp30
 70
     1
102
RTVSPost2010Prop31
280
     0
102
RTVSPost2010PropOp31
 70
     1
102
RTVSPost2010Prop32
280
     0
102
RTVSPost2010PropOp32
 70
     1
102
RTVSPost2010Prop33
280
     0
102
RTVSPost2010PropOp33
 70
     1
102
RTVSPost2010Prop34
280
     0
102
RTVSPost2010PropOp34
 70
     1
102
RTVSPost2010Prop35
280
     0
102
RTVSPost2010PropOp35
 70
     1
102
RTVSPost2010Prop36
280
     0
102
RTVSPost2010PropOp36
 70
     1
102
RTVSPost2010Prop37
 90
       50
102
RTVSPost2010PropOp37
 70
     1
102
RTVSPost2010Prop38
140
0.0
102
RTVSPost2010PropOp38
 70
     1
102
RTVSPost2010Prop39
140
1.0
102
RTVSPost2010PropOp39
 70
     1
102
RTVSPost2010Prop40
 90
        0
102
RTVSPost2010PropOp40
 70
     1
102
RTVSPost2010Prop41ColorIndex
 90
       18
102
RTVSPost2010Prop41ColorRGB
 90
        0
102
RTVSPost2010PropOp41
 70
     1
102
RTVSPost2010Prop42
 90
       50
102
RTVSPost2010PropOp42
 70
     1
102
RTVSPost2010Prop43
 90
        3
102
RTVSPost2010PropOp43
 70
     1
102
RTVSPost2010Prop44ColorIndex
 90
        5
102
RTVSPost2010Prop44ColorRGB
 90
      255
102
RTVSPost2010PropOp44
 70
     1
102
RTVSPost2010Prop45
280
     0
102
RTVSPost2010PropOp45
 70
     1
102
RTVSPost2010Prop46
 90
       50
102
RTVSPost2010PropOp46
 70
     1
102
RTVSPost2010Prop47
 90
       50
102
RTVSPost2010PropOp47
 70
     1
102
RTVSPost2010Prop48
 90
       50
102
RTVSPost2010PropOp48
 70
     1
102
RTVSPost2010Prop49
280
     0
102
RTVSPost2010PropOp49
 70
     1
102
RTVSPost2010Prop50
 90
       50
102
RTVSPost2010PropOp50
 70
     1
102
RTVSPost2010Prop51ColorIndex
 90
      256
102
RTVSPost2010Prop51ColorRGB
 90
-16777216
102
RTVSPost2010PropOp51
 70
     0
102
RTVSPost2010Prop52
140
1.0
102
RTVSPost2010PropOp52
 70
     0
102
RTVSPost2010Prop53
 90
        2
102
RTVSPost2010PropOp53
 70
     1
102
RTVSPost2010Prop54
  1
strokes_ogs.tif
102
RTVSPost2010PropOp54
 70
     1
102
RTVSPost2010Prop55
280
     0
102
RTVSPost2010PropOp55
 70
     1
102
RTVSPost2010Prop56
140
1.0
102
RTVSPost2010PropOp56
 70
     1
102
RTVSPost2010Prop57
140
1.0
102
RTVSPost2010PropOp57
 70
     1
  0
XRECORD
  5
5A7
102
{ACAD_REACTORS
330
5A6
102
}
330
5A6
100
AcDbXrecord
280
     1
102
RTVSPropertyOp0
 70
     1
102
RTVSPropertyOp1
 70
     1
102
RTVSPropertyOp2
 70
     1
102
RTVSPropertyOp3
 70
     1
102
RTVSPropertyOp4
 70
     1
102
RTVSPropertyOp5
 70
     1
102
RTVSPropertyOp6
 70
     1
102
RTVSPropertyOp7
 70
     1
102
RTVSPropertyOp8
 70
     1
102
RTVSPropertyOp9
 70
     1
102
RTVSPropertyOp10
 70
     1
102
RTVSPropertyOp11
 70
     1
102
RTVSPropertyOp12
 70
     1
102
RTVSPropertyOp13
 70
     1
102
RTVSPropertyOp14
 70
     1
102
RTVSPropertyOp15
 70
     1
102
RTVSPropertyOp16
 70
     1
102
RTVSPropertyOp17
 70
     1
102
RTVSPropertyOp18
 70
     1
102
RTVSPropertyOp19
 70
     1
102
RTVSPropertyOp20
 70
     1
102
RTVSPropertyOp21
 70
     1
102
RTVSPropertyOp22
 70
     1
102
RTVSPropertyOp23
 70
     1
102
RTVSPropertyOp24
 70
     1
102
RTVSPropertyOp25
 70
     1
102
RTVSPropertyOp26
 70
     1
102
RTVSPropertyOp27
 70
     1
102
RTVSPropertyOp28
 70
     1
102
RTVSPropertyOp29
 70
     1
102
RTVSPropertyOp30
 70
     1
102
RTVSPropertyOp31
 70
     1
102
RTVSPropertyOp32
 70
     1
102
RTVSPropertyOp33
 70
     1
102
RTVSPropertyOp34
 70
     1
102
RTVSPropertyOp35
 70
     1
102
RTVSPropertyOp36
 70
     1
102
RTVSPropertyOp37
 70
     1
102
RTVSPropertyOp38
 70
     1
102
RTVSPropertyOp39
 70
     1
102
RTVSPropertyOp40
 70
     1
102
RTVSPropertyOp41
 70
     1
102
RTVSPropertyOp42
 70
     1
102
RTVSPropertyOp43
 70
     1
102
RTVSPropertyOp44
 70
     1
102
RTVSPropertyOp45
 70
     1
102
RTVSPropertyOp46
 70
     1
102
RTVSPropertyOp47
 70
     1
102
RTVSPropertyOp48
 70
     1
102
RTVSPropertyOp49
 70
     1
102
RTVSPropertyOp50
 70
     1
102
RTVSPropertyOp51
 70
     0
102
RTVSPropertyOp52
 70
     0
102
RTVSPropertyOp53
 70
     1
102
RTVSPropertyOp54
 70
     1
102
RTVSPropertyOp55
 70
     1
102
RTVSPropertyOp56
 70
     1
102
RTVSPropertyOp57
 70
     1
102
RTVSPost2010Prop28
280
     0
102
RTVSPost2010PropOp28
 70
     1
102
RTVSPost2010Prop29
280
     1
102
RTVSPost2010PropOp29
 70
     1
102
RTVSPost2010Prop30
280
     1
102
RTVSPost2010PropOp30
 70
     1
102
RTVSPost2010Prop31
280
     0
102
RTVSPost2010PropOp31
 70
     1
102
RTVSPost2010Prop32
280
     0
102
RTVSPost2010PropOp32
 70
     1
102
RTVSPost2010Prop33
280
     0
102
RTVSPost2010PropOp33
 70
     1
102
RTVSPost2010Prop34
280
     0
102
RTVSPost2010PropOp34
 70
     1
102
RTVSPost2010Prop35
280
     0
102
RTVSPost2010PropOp35
 70
     1
102
RTVSPost2010Prop36
280
     0
102
RTVSPost2010PropOp36
 70
     1
102
RTVSPost2010Prop37
 90
       50
102
RTVSPost2010PropOp37
 70
     1
102
RTVSPost2010Prop38
140
0.0
102
RTVSPost2010PropOp38
 70
     1
102
RTVSPost2010Prop39
140
1.0
102
RTVSPost2010PropOp39
 70
     1
102
RTVSPost2010Prop40
 90
        0
102
RTVSPost2010PropOp40
 70
     1
102
RTVSPost2010Prop41ColorIndex
 90
       18
102
RTVSPost2010Prop41ColorRGB
 90
        0
102
RTVSPost2010PropOp41
 70
     1
102
RTVSPost2010Prop42
 90
       50
102
RTVSPost2010PropOp42
 70
     1
102
RTVSPost2010Prop43
 90
        3
102
RTVSPost2010PropOp43
 70
     1
102
RTVSPost2010Prop44ColorIndex
 90
        5
102
RTVSPost2010Prop44ColorRGB
 90
      255
102
RTVSPost2010PropOp44
 70
     1
102
RTVSPost2010Prop45
280
     0
102
RTVSPost2010PropOp45
 70
     1
102
RTVSPost2010Prop46
 90
       50
102
RTVSPost2010PropOp46
 70
     1
102
RTVSPost2010Prop47
 90
       50
102
RTVSPost2010PropOp47
 70
     1
102
RTVSPost2010Prop48
 90
       50
102
RTVSPost2010PropOp48
 70
     1
102
RTVSPost2010Prop49
280
     0
102
RTVSPost2010PropOp49
 70
     1
102
RTVSPost2010Prop50
 90
       50
102
RTVSPost2010PropOp50
 70
     1
102
RTVSPost2010Prop51ColorIndex
 90
      256
102
RTVSPost2010Prop51ColorRGB
 90
-16777216
102
RTVSPost2010PropOp51
 70
     0
102
RTVSPost2010Prop52
140
1.0
102
RTVSPost2010PropOp52
 70
     0
102
RTVSPost2010Prop53
 90
        2
102
RTVSPost2010PropOp53
 70
     1
102
RTVSPost2010Prop54
  1
strokes_ogs.tif
102
RTVSPost2010PropOp54
 70
     1
102
RTVSPost2010Prop55
280
     0
102
RTVSPost2010PropOp55
 70
     1
102
RTVSPost2010Prop56
140
1.0
102
RTVSPost2010PropOp56
 70
     1
102
RTVSPost2010Prop57
140
1.0
102
RTVSPost2010PropOp57
 70
     1
  0
XRECORD
  5
5A9
102
{ACAD_REACTORS
330
5A8
102
}
330
5A8
100
AcDbXrecord
280
     1
102
RTVSPropertyOp0
 70
     1
102
RTVSPropertyOp1
 70
     1
102
RTVSPropertyOp2
 70
     1
102
RTVSPropertyOp3
 70
     1
102
RTVSPropertyOp4
 70
     1
102
RTVSPropertyOp5
 70
     1
102
RTVSPropertyOp6
 70
     1
102
RTVSPropertyOp7
 70
     1
102
RTVSPropertyOp8
 70
     1
102
RTVSPropertyOp9
 70
     1
102
RTVSPropertyOp10
 70
     1
102
RTVSPropertyOp11
 70
     1
102
RTVSPropertyOp12
 70
     1
102
RTVSPropertyOp13
 70
     1
102
RTVSPropertyOp14
 70
     1
102
RTVSPropertyOp15
 70
     1
102
RTVSPropertyOp16
 70
     1
102
RTVSPropertyOp17
 70
     1
102
RTVSPropertyOp18
 70
     1
102
RTVSPropertyOp19
 70
     1
102
RTVSPropertyOp20
 70
     1
102
RTVSPropertyOp21
 70
     1
102
RTVSPropertyOp22
 70
     1
102
RTVSPropertyOp23
 70
     1
102
RTVSPropertyOp24
 70
     1
102
RTVSPropertyOp25
 70
     1
102
RTVSPropertyOp26
 70
     1
102
RTVSPropertyOp27
 70
     1
102
RTVSPropertyOp28
 70
     1
102
RTVSPropertyOp29
 70
     1
102
RTVSPropertyOp30
 70
     1
102
RTVSPropertyOp31
 70
     1
102
RTVSPropertyOp32
 70
     1
102
RTVSPropertyOp33
 70
     1
102
RTVSPropertyOp34
 70
     1
102
RTVSPropertyOp35
 70
     1
102
RTVSPropertyOp36
 70
     1
102
RTVSPropertyOp37
 70
     1
102
RTVSPropertyOp38
 70
     1
102
RTVSPropertyOp39
 70
     1
102
RTVSPropertyOp40
 70
     1
102
RTVSPropertyOp41
 70
     1
102
RTVSPropertyOp42
 70
     1
102
RTVSPropertyOp43
 70
     1
102
RTVSPropertyOp44
 70
     1
102
RTVSPropertyOp45
 70
     1
102
RTVSPropertyOp46
 70
     1
102
RTVSPropertyOp47
 70
     1
102
RTVSPropertyOp48
 70
     1
102
RTVSPropertyOp49
 70
     1
102
RTVSPropertyOp50
 70
     1
102
RTVSPropertyOp51
 70
     0
102
RTVSPropertyOp52
 70
     0
102
RTVSPropertyOp53
 70
     1
102
RTVSPropertyOp54
 70
     1
102
RTVSPropertyOp55
 70
     1
102
RTVSPropertyOp56
 70
     1
102
RTVSPropertyOp57
 70
     1
102
RTVSPost2010Prop28
280
     0
102
RTVSPost2010PropOp28
 70
     1
102
RTVSPost2010Prop29
280
     1
102
RTVSPost2010PropOp29
 70
     1
102
RTVSPost2010Prop30
280
     1
102
RTVSPost2010PropOp30
 70
     1
102
RTVSPost2010Prop31
280
     0
102
RTVSPost2010PropOp31
 70
     1
102
RTVSPost2010Prop32
280
     0
102
RTVSPost2010PropOp32
 70
     1
102
RTVSPost2010Prop33
280
     0
102
RTVSPost2010PropOp33
 70
     1
102
RTVSPost2010Prop34
280
     0
102
RTVSPost2010PropOp34
 70
     1
102
RTVSPost2010Prop35
280
     0
102
RTVSPost2010PropOp35
 70
     1
102
RTVSPost2010Prop36
280
     0
102
RTVSPost2010PropOp36
 70
     1
102
RTVSPost2010Prop37
 90
       50
102
RTVSPost2010PropOp37
 70
     1
102
RTVSPost2010Prop38
140
0.0
102
RTVSPost2010PropOp38
 70
     1
102
RTVSPost2010Prop39
140
1.0
102
RTVSPost2010PropOp39
 70
     1
102
RTVSPost2010Prop40
 90
        0
102
RTVSPost2010PropOp40
 70
     1
102
RTVSPost2010Prop41ColorIndex
 90
       18
102
RTVSPost2010Prop41ColorRGB
 90
        0
102
RTVSPost2010PropOp41
 70
     1
102
RTVSPost2010Prop42
 90
       50
102
RTVSPost2010PropOp42
 70
     1
102
RTVSPost2010Prop43
 90
        3
102
RTVSPost2010PropOp43
 70
     1
102
RTVSPost2010Prop44ColorIndex
 90
        5
102
RTVSPost2010Prop44ColorRGB
 90
      255
102
RTVSPost2010PropOp44
 70
     1
102
RTVSPost2010Prop45
280
     0
102
RTVSPost2010PropOp45
 70
     1
102
RTVSPost2010Prop46
 90
       50
102
RTVSPost2010PropOp46
 70
     1
102
RTVSPost2010Prop47
 90
       50
102
RTVSPost2010PropOp47
 70
     1
102
RTVSPost2010Prop48
 90
       50
102
RTVSPost2010PropOp48
 70
     1
102
RTVSPost2010Prop49
280
     0
102
RTVSPost2010PropOp49
 70
     1
102
RTVSPost2010Prop50
 90
       50
102
RTVSPost2010PropOp50
 70
     1
102
RTVSPost2010Prop51ColorIndex
 90
      256
102
RTVSPost2010Prop51ColorRGB
 90
-16777216
102
RTVSPost2010PropOp51
 70
     0
102
RTVSPost2010Prop52
140
1.0
102
RTVSPost2010PropOp52
 70
     0
102
RTVSPost2010Prop53
 90
        2
102
RTVSPost2010PropOp53
 70
     1
102
RTVSPost2010Prop54
  1
strokes_ogs.tif
102
RTVSPost2010PropOp54
 70
     1
102
RTVSPost2010Prop55
280
     0
102
RTVSPost2010PropOp55
 70
     1
102
RTVSPost2010Prop56
140
1.0
102
RTVSPost2010PropOp56
 70
     1
102
RTVSPost2010Prop57
140
1.0
102
RTVSPost2010PropOp57
 70
     1
  0
XRECORD
  5
5B9
102
{ACAD_REACTORS
330
5B8
102
}
330
5B8
100
AcDbXrecord
280
     1
102
RTVSPropertyOp0
 70
     0
102
RTVSPropertyOp1
 70
     0
102
RTVSPropertyOp2
 70
     0
102
RTVSPropertyOp3
 70
     0
102
RTVSPropertyOp4
 70
     0
102
RTVSPropertyOp5
 70
     0
102
RTVSPropertyOp6
 70
     0
102
RTVSPropertyOp7
 70
     0
102
RTVSPropertyOp8
 70
     0
102
RTVSPropertyOp9
 70
     0
102
RTVSPropertyOp10
 70
     0
102
RTVSPropertyOp11
 70
     0
102
RTVSPropertyOp12
 70
     0
102
RTVSPropertyOp13
 70
     0
102
RTVSPropertyOp14
 70
     0
102
RTVSPropertyOp15
 70
     0
102
RTVSPropertyOp16
 70
     0
102
RTVSPropertyOp17
 70
     0
102
RTVSPropertyOp18
 70
     0
102
RTVSPropertyOp19
 70
     0
102
RTVSPropertyOp20
 70
     0
102
RTVSPropertyOp21
 70
     0
102
RTVSPropertyOp22
 70
     0
102
RTVSPropertyOp23
 70
     0
102
RTVSPropertyOp24
 70
     0
102
RTVSPropertyOp25
 70
     0
102
RTVSPropertyOp26
 70
     0
102
RTVSPropertyOp27
 70
     0
102
RTVSPropertyOp28
 70
     1
102
RTVSPropertyOp29
 70
     1
102
RTVSPropertyOp30
 70
     1
102
RTVSPropertyOp31
 70
     1
102
RTVSPropertyOp32
 70
     1
102
RTVSPropertyOp33
 70
     1
102
RTVSPropertyOp34
 70
     1
102
RTVSPropertyOp35
 70
     1
102
RTVSPropertyOp36
 70
     1
102
RTVSPropertyOp37
 70
     1
102
RTVSPropertyOp38
 70
     1
102
RTVSPropertyOp39
 70
     1
102
RTVSPropertyOp40
 70
     1
102
RTVSPropertyOp41
 70
     1
102
RTVSPropertyOp42
 70
     1
102
RTVSPropertyOp43
 70
     1
102
RTVSPropertyOp44
 70
     1
102
RTVSPropertyOp45
 70
     1
102
RTVSPropertyOp46
 70
     1
102
RTVSPropertyOp47
 70
     1
102
RTVSPropertyOp48
 70
     1
102
RTVSPropertyOp49
 70
     1
102
RTVSPropertyOp50
 70
     1
102
RTVSPropertyOp51
 70
     0
102
RTVSPropertyOp52
 70
     0
102
RTVSPropertyOp53
 70
     1
102
RTVSPropertyOp54
 70
     1
102
RTVSPropertyOp55
 70
     1
102
RTVSPropertyOp56
 70
     1
102
RTVSPropertyOp57
 70
     1
102
RTVSPost2010Prop28
280
     0
102
RTVSPost2010PropOp28
 70
     1
102
RTVSPost2010Prop29
280
     1
102
RTVSPost2010PropOp29
 70
     1
102
RTVSPost2010Prop30
280
     1
102
RTVSPost2010PropOp30
 70
     1
102
RTVSPost2010Prop31
280
     0
102
RTVSPost2010PropOp31
 70
     1
102
RTVSPost2010Prop32
280
     0
102
RTVSPost2010PropOp32
 70
     1
102
RTVSPost2010Prop33
280
     0
102
RTVSPost2010PropOp33
 70
     1
102
RTVSPost2010Prop34
280
     0
102
RTVSPost2010PropOp34
 70
     1
102
RTVSPost2010Prop35
280
     0
102
RTVSPost2010PropOp35
 70
     1
102
RTVSPost2010Prop36
280
     0
102
RTVSPost2010PropOp36
 70
     1
102
RTVSPost2010Prop37
 90
       50
102
RTVSPost2010PropOp37
 70
     1
102
RTVSPost2010Prop38
140
0.0
102
RTVSPost2010PropOp38
 70
     1
102
RTVSPost2010Prop39
140
1.0
102
RTVSPost2010PropOp39
 70
     1
102
RTVSPost2010Prop40
 90
        0
102
RTVSPost2010PropOp40
 70
     1
102
RTVSPost2010Prop41ColorIndex
 90
       18
102
RTVSPost2010Prop41ColorRGB
 90
        0
102
RTVSPost2010PropOp41
 70
     1
102
RTVSPost2010Prop42
 90
       50
102
RTVSPost2010PropOp42
 70
     1
102
RTVSPost2010Prop43
 90
        3
102
RTVSPost2010PropOp43
 70
     1
102
RTVSPost2010Prop44ColorIndex
 90
        5
102
RTVSPost2010Prop44ColorRGB
 90
      255
102
RTVSPost2010PropOp44
 70
     1
102
RTVSPost2010Prop45
280
     0
102
RTVSPost2010PropOp45
 70
     1
102
RTVSPost2010Prop46
 90
       50
102
RTVSPost2010PropOp46
 70
     1
102
RTVSPost2010Prop47
 90
       50
102
RTVSPost2010PropOp47
 70
     1
102
RTVSPost2010Prop48
 90
       50
102
RTVSPost2010PropOp48
 70
     1
102
RTVSPost2010Prop49
280
     0
102
RTVSPost2010PropOp49
 70
     1
102
RTVSPost2010Prop50
 90
       50
102
RTVSPost2010PropOp50
 70
     1
102
RTVSPost2010Prop51ColorIndex
 90
      256
102
RTVSPost2010Prop51ColorRGB
 90
-16777216
102
RTVSPost2010PropOp51
 70
     0
102
RTVSPost2010Prop52
140
1.0
102
RTVSPost2010PropOp52
 70
     0
102
RTVSPost2010Prop53
 90
        2
102
RTVSPost2010PropOp53
 70
     1
102
RTVSPost2010Prop54
  1
strokes_ogs.tif
102
RTVSPost2010PropOp54
 70
     1
102
RTVSPost2010Prop55
280
     0
102
RTVSPost2010PropOp55
 70
     1
102
RTVSPost2010Prop56
140
1.0
102
RTVSPost2010PropOp56
 70
     1
102
RTVSPost2010Prop57
140
1.0
102
RTVSPost2010PropOp57
 70
     1
  0
XRECORD
  5
5B1
102
{ACAD_REACTORS
330
5B0
102
}
330
5B0
100
AcDbXrecord
280
     1
102
RTVSPropertyOp0
 70
     1
102
RTVSPropertyOp1
 70
     1
102
RTVSPropertyOp2
 70
     1
102
RTVSPropertyOp3
 70
     1
102
RTVSPropertyOp4
 70
     1
102
RTVSPropertyOp5
 70
     1
102
RTVSPropertyOp6
 70
     1
102
RTVSPropertyOp7
 70
     1
102
RTVSPropertyOp8
 70
     1
102
RTVSPropertyOp9
 70
     1
102
RTVSPropertyOp10
 70
     1
102
RTVSPropertyOp11
 70
     1
102
RTVSPropertyOp12
 70
     1
102
RTVSPropertyOp13
 70
     1
102
RTVSPropertyOp14
 70
     1
102
RTVSPropertyOp15
 70
     1
102
RTVSPropertyOp16
 70
     1
102
RTVSPropertyOp17
 70
     1
102
RTVSPropertyOp18
 70
     1
102
RTVSPropertyOp19
 70
     1
102
RTVSPropertyOp20
 70
     1
102
RTVSPropertyOp21
 70
     1
102
RTVSPropertyOp22
 70
     1
102
RTVSPropertyOp23
 70
     1
102
RTVSPropertyOp24
 70
     1
102
RTVSPropertyOp25
 70
     1
102
RTVSPropertyOp26
 70
     1
102
RTVSPropertyOp27
 70
     1
102
RTVSPropertyOp28
 70
     1
102
RTVSPropertyOp29
 70
     1
102
RTVSPropertyOp30
 70
     1
102
RTVSPropertyOp31
 70
     1
102
RTVSPropertyOp32
 70
     1
102
RTVSPropertyOp33
 70
     1
102
RTVSPropertyOp34
 70
     1
102
RTVSPropertyOp35
 70
     1
102
RTVSPropertyOp36
 70
     1
102
RTVSPropertyOp37
 70
     1
102
RTVSPropertyOp38
 70
     1
102
RTVSPropertyOp39
 70
     1
102
RTVSPropertyOp40
 70
     1
102
RTVSPropertyOp41
 70
     1
102
RTVSPropertyOp42
 70
     1
102
RTVSPropertyOp43
 70
     1
102
RTVSPropertyOp44
 70
     1
102
RTVSPropertyOp45
 70
     1
102
RTVSPropertyOp46
 70
     1
102
RTVSPropertyOp47
 70
     1
102
RTVSPropertyOp48
 70
     1
102
RTVSPropertyOp49
 70
     1
102
RTVSPropertyOp50
 70
     1
102
RTVSPropertyOp51
 70
     0
102
RTVSPropertyOp52
 70
     0
102
RTVSPropertyOp53
 70
     1
102
RTVSPropertyOp54
 70
     1
102
RTVSPropertyOp55
 70
     1
102
RTVSPropertyOp56
 70
     1
102
RTVSPropertyOp57
 70
     1
102
RTVSPost2010Prop28
280
     0
102
RTVSPost2010PropOp28
 70
     1
102
RTVSPost2010Prop29
280
     1
102
RTVSPost2010PropOp29
 70
     1
102
RTVSPost2010Prop30
280
     1
102
RTVSPost2010PropOp30
 70
     1
102
RTVSPost2010Prop31
280
     0
102
RTVSPost2010PropOp31
 70
     1
102
RTVSPost2010Prop32
280
     0
102
RTVSPost2010PropOp32
 70
     1
102
RTVSPost2010Prop33
280
     0
102
RTVSPost2010PropOp33
 70
     1
102
RTVSPost2010Prop34
280
     0
102
RTVSPost2010PropOp34
 70
     1
102
RTVSPost2010Prop35
280
     0
102
RTVSPost2010PropOp35
 70
     1
102
RTVSPost2010Prop36
280
     0
102
RTVSPost2010PropOp36
 70
     1
102
RTVSPost2010Prop37
 90
       50
102
RTVSPost2010PropOp37
 70
     1
102
RTVSPost2010Prop38
140
0.0
102
RTVSPost2010PropOp38
 70
     1
102
RTVSPost2010Prop39
140
1.0
102
RTVSPost2010PropOp39
 70
     1
102
RTVSPost2010Prop40
 90
        0
102
RTVSPost2010PropOp40
 70
     1
102
RTVSPost2010Prop41ColorIndex
 90
       18
102
RTVSPost2010Prop41ColorRGB
 90
        0
102
RTVSPost2010PropOp41
 70
     1
102
RTVSPost2010Prop42
 90
       50
102
RTVSPost2010PropOp42
 70
     1
102
RTVSPost2010Prop43
 90
        3
102
RTVSPost2010PropOp43
 70
     1
102
RTVSPost2010Prop44ColorIndex
 90
        5
102
RTVSPost2010Prop44ColorRGB
 90
      255
102
RTVSPost2010PropOp44
 70
     1
102
RTVSPost2010Prop45
280
     0
102
RTVSPost2010PropOp45
 70
     1
102
RTVSPost2010Prop46
 90
       50
102
RTVSPost2010PropOp46
 70
     1
102
RTVSPost2010Prop47
 90
       50
102
RTVSPost2010PropOp47
 70
     1
102
RTVSPost2010Prop48
 90
       50
102
RTVSPost2010PropOp48
 70
     1
102
RTVSPost2010Prop49
280
     0
102
RTVSPost2010PropOp49
 70
     1
102
RTVSPost2010Prop50
 90
       50
102
RTVSPost2010PropOp50
 70
     1
102
RTVSPost2010Prop51ColorIndex
 90
      256
102
RTVSPost2010Prop51ColorRGB
 90
-16777216
102
RTVSPost2010PropOp51
 70
     0
102
RTVSPost2010Prop52
140
1.0
102
RTVSPost2010PropOp52
 70
     0
102
RTVSPost2010Prop53
 90
        2
102
RTVSPost2010PropOp53
 70
     1
102
RTVSPost2010Prop54
  1
strokes_ogs.tif
102
RTVSPost2010PropOp54
 70
     1
102
RTVSPost2010Prop55
280
     0
102
RTVSPost2010PropOp55
 70
     1
102
RTVSPost2010Prop56
140
1.0
102
RTVSPost2010PropOp56
 70
     1
102
RTVSPost2010Prop57
140
1.0
102
RTVSPost2010PropOp57
 70
     1
  0
XRECORD
  5
595
102
{ACAD_REACTORS
330
594
102
}
330
594
100
AcDbXrecord
280
     1
102
RTVSPropertyOp0
 70
     1
102
RTVSPropertyOp1
 70
     1
102
RTVSPropertyOp2
 70
     1
102
RTVSPropertyOp3
 70
     1
102
RTVSPropertyOp4
 70
     1
102
RTVSPropertyOp5
 70
     1
102
RTVSPropertyOp6
 70
     1
102
RTVSPropertyOp7
 70
     1
102
RTVSPropertyOp8
 70
     1
102
RTVSPropertyOp9
 70
     1
102
RTVSPropertyOp10
 70
     1
102
RTVSPropertyOp11
 70
     1
102
RTVSPropertyOp12
 70
     1
102
RTVSPropertyOp13
 70
     1
102
RTVSPropertyOp14
 70
     1
102
RTVSPropertyOp15
 70
     1
102
RTVSPropertyOp16
 70
     1
102
RTVSPropertyOp17
 70
     1
102
RTVSPropertyOp18
 70
     1
102
RTVSPropertyOp19
 70
     1
102
RTVSPropertyOp20
 70
     1
102
RTVSPropertyOp21
 70
     1
102
RTVSPropertyOp22
 70
     1
102
RTVSPropertyOp23
 70
     1
102
RTVSPropertyOp24
 70
     1
102
RTVSPropertyOp25
 70
     1
102
RTVSPropertyOp26
 70
     1
102
RTVSPropertyOp27
 70
     1
102
RTVSPropertyOp28
 70
     1
102
RTVSPropertyOp29
 70
     1
102
RTVSPropertyOp30
 70
     1
102
RTVSPropertyOp31
 70
     1
102
RTVSPropertyOp32
 70
     1
102
RTVSPropertyOp33
 70
     1
102
RTVSPropertyOp34
 70
     1
102
RTVSPropertyOp35
 70
     1
102
RTVSPropertyOp36
 70
     1
102
RTVSPropertyOp37
 70
     1
102
RTVSPropertyOp38
 70
     1
102
RTVSPropertyOp39
 70
     1
102
RTVSPropertyOp40
 70
     1
102
RTVSPropertyOp41
 70
     1
102
RTVSPropertyOp42
 70
     1
102
RTVSPropertyOp43
 70
     1
102
RTVSPropertyOp44
 70
     1
102
RTVSPropertyOp45
 70
     1
102
RTVSPropertyOp46
 70
     1
102
RTVSPropertyOp47
 70
     1
102
RTVSPropertyOp48
 70
     1
102
RTVSPropertyOp49
 70
     1
102
RTVSPropertyOp50
 70
     1
102
RTVSPropertyOp51
 70
     0
102
RTVSPropertyOp52
 70
     0
102
RTVSPropertyOp53
 70
     1
102
RTVSPropertyOp54
 70
     1
102
RTVSPropertyOp55
 70
     1
102
RTVSPropertyOp56
 70
     1
102
RTVSPropertyOp57
 70
     1
102
RTVSPost2010Prop28
280
     0
102
RTVSPost2010PropOp28
 70
     1
102
RTVSPost2010Prop29
280
     1
102
RTVSPost2010PropOp29
 70
     1
102
RTVSPost2010Prop30
280
     1
102
RTVSPost2010PropOp30
 70
     1
102
RTVSPost2010Prop31
280
     0
102
RTVSPost2010PropOp31
 70
     1
102
RTVSPost2010Prop32
280
     0
102
RTVSPost2010PropOp32
 70
     1
102
RTVSPost2010Prop33
280
     0
102
RTVSPost2010PropOp33
 70
     1
102
RTVSPost2010Prop34
280
     0
102
RTVSPost2010PropOp34
 70
     1
102
RTVSPost2010Prop35
280
     0
102
RTVSPost2010PropOp35
 70
     1
102
RTVSPost2010Prop36
280
     0
102
RTVSPost2010PropOp36
 70
     1
102
RTVSPost2010Prop37
 90
       50
102
RTVSPost2010PropOp37
 70
     1
102
RTVSPost2010Prop38
140
0.0
102
RTVSPost2010PropOp38
 70
     1
102
RTVSPost2010Prop39
140
1.0
102
RTVSPost2010PropOp39
 70
     1
102
RTVSPost2010Prop40
 90
        0
102
RTVSPost2010PropOp40
 70
     1
102
RTVSPost2010Prop41ColorIndex
 90
       18
102
RTVSPost2010Prop41ColorRGB
 90
        0
102
RTVSPost2010PropOp41
 70
     1
102
RTVSPost2010Prop42
 90
       50
102
RTVSPost2010PropOp42
 70
     1
102
RTVSPost2010Prop43
 90
        3
102
RTVSPost2010PropOp43
 70
     1
102
RTVSPost2010Prop44ColorIndex
 90
        5
102
RTVSPost2010Prop44ColorRGB
 90
      255
102
RTVSPost2010PropOp44
 70
     1
102
RTVSPost2010Prop45
280
     0
102
RTVSPost2010PropOp45
 70
     1
102
RTVSPost2010Prop46
 90
       50
102
RTVSPost2010PropOp46
 70
     1
102
RTVSPost2010Prop47
 90
       50
102
RTVSPost2010PropOp47
 70
     1
102
RTVSPost2010Prop48
 90
       50
102
RTVSPost2010PropOp48
 70
     1
102
RTVSPost2010Prop49
280
     0
102
RTVSPost2010PropOp49
 70
     1
102
RTVSPost2010Prop50
 90
       50
102
RTVSPost2010PropOp50
 70
     1
102
RTVSPost2010Prop51ColorIndex
 90
      256
102
RTVSPost2010Prop51ColorRGB
 90
-16777216
102
RTVSPost2010PropOp51
 70
     0
102
RTVSPost2010Prop52
140
1.0
102
RTVSPost2010PropOp52
 70
     0
102
RTVSPost2010Prop53
 90
        2
102
RTVSPost2010PropOp53
 70
     1
102
RTVSPost2010Prop54
  1
strokes_ogs.tif
102
RTVSPost2010PropOp54
 70
     1
102
RTVSPost2010Prop55
280
     0
102
RTVSPost2010PropOp55
 70
     1
102
RTVSPost2010Prop56
140
1.0
102
RTVSPost2010PropOp56
 70
     1
102
RTVSPost2010Prop57
140
1.0
102
RTVSPost2010PropOp57
 70
     1
  0
XRECORD
  5
597
102
{ACAD_REACTORS
330
596
102
}
330
596
100
AcDbXrecord
280
     1
102
RTVSPropertyOp0
 70
     1
102
RTVSPropertyOp1
 70
     1
102
RTVSPropertyOp2
 70
     1
102
RTVSPropertyOp3
 70
     1
102
RTVSPropertyOp4
 70
     1
102
RTVSPropertyOp5
 70
     1
102
RTVSPropertyOp6
 70
     1
102
RTVSPropertyOp7
 70
     1
102
RTVSPropertyOp8
 70
     1
102
RTVSPropertyOp9
 70
     1
102
RTVSPropertyOp10
 70
     1
102
RTVSPropertyOp11
 70
     1
102
RTVSPropertyOp12
 70
     1
102
RTVSPropertyOp13
 70
     1
102
RTVSPropertyOp14
 70
     1
102
RTVSPropertyOp15
 70
     1
102
RTVSPropertyOp16
 70
     1
102
RTVSPropertyOp17
 70
     1
102
RTVSPropertyOp18
 70
     1
102
RTVSPropertyOp19
 70
     1
102
RTVSPropertyOp20
 70
     1
102
RTVSPropertyOp21
 70
     1
102
RTVSPropertyOp22
 70
     1
102
RTVSPropertyOp23
 70
     1
102
RTVSPropertyOp24
 70
     1
102
RTVSPropertyOp25
 70
     1
102
RTVSPropertyOp26
 70
     1
102
RTVSPropertyOp27
 70
     1
102
RTVSPropertyOp28
 70
     1
102
RTVSPropertyOp29
 70
     1
102
RTVSPropertyOp30
 70
     1
102
RTVSPropertyOp31
 70
     1
102
RTVSPropertyOp32
 70
     1
102
RTVSPropertyOp33
 70
     1
102
RTVSPropertyOp34
 70
     1
102
RTVSPropertyOp35
 70
     1
102
RTVSPropertyOp36
 70
     1
102
RTVSPropertyOp37
 70
     1
102
RTVSPropertyOp38
 70
     1
102
RTVSPropertyOp39
 70
     1
102
RTVSPropertyOp40
 70
     1
102
RTVSPropertyOp41
 70
     1
102
RTVSPropertyOp42
 70
     1
102
RTVSPropertyOp43
 70
     1
102
RTVSPropertyOp44
 70
     1
102
RTVSPropertyOp45
 70
     1
102
RTVSPropertyOp46
 70
     1
102
RTVSPropertyOp47
 70
     1
102
RTVSPropertyOp48
 70
     1
102
RTVSPropertyOp49
 70
     1
102
RTVSPropertyOp50
 70
     1
102
RTVSPropertyOp51
 70
     0
102
RTVSPropertyOp52
 70
     0
102
RTVSPropertyOp53
 70
     1
102
RTVSPropertyOp54
 70
     1
102
RTVSPropertyOp55
 70
     1
102
RTVSPropertyOp56
 70
     1
102
RTVSPropertyOp57
 70
     1
102
RTVSPost2010Prop28
280
     0
102
RTVSPost2010PropOp28
 70
     1
102
RTVSPost2010Prop29
280
     1
102
RTVSPost2010PropOp29
 70
     1
102
RTVSPost2010Prop30
280
     1
102
RTVSPost2010PropOp30
 70
     1
102
RTVSPost2010Prop31
280
     0
102
RTVSPost2010PropOp31
 70
     1
102
RTVSPost2010Prop32
280
     0
102
RTVSPost2010PropOp32
 70
     1
102
RTVSPost2010Prop33
280
     0
102
RTVSPost2010PropOp33
 70
     1
102
RTVSPost2010Prop34
280
     0
102
RTVSPost2010PropOp34
 70
     1
102
RTVSPost2010Prop35
280
     0
102
RTVSPost2010PropOp35
 70
     1
102
RTVSPost2010Prop36
280
     0
102
RTVSPost2010PropOp36
 70
     1
102
RTVSPost2010Prop37
 90
       50
102
RTVSPost2010PropOp37
 70
     1
102
RTVSPost2010Prop38
140
0.0
102
RTVSPost2010PropOp38
 70
     1
102
RTVSPost2010Prop39
140
1.0
102
RTVSPost2010PropOp39
 70
     1
102
RTVSPost2010Prop40
 90
        0
102
RTVSPost2010PropOp40
 70
     1
102
RTVSPost2010Prop41ColorIndex
 90
       18
102
RTVSPost2010Prop41ColorRGB
 90
        0
102
RTVSPost2010PropOp41
 70
     1
102
RTVSPost2010Prop42
 90
       50
102
RTVSPost2010PropOp42
 70
     1
102
RTVSPost2010Prop43
 90
        3
102
RTVSPost2010PropOp43
 70
     1
102
RTVSPost2010Prop44ColorIndex
 90
        5
102
RTVSPost2010Prop44ColorRGB
 90
      255
102
RTVSPost2010PropOp44
 70
     1
102
RTVSPost2010Prop45
280
     0
102
RTVSPost2010PropOp45
 70
     1
102
RTVSPost2010Prop46
 90
       50
102
RTVSPost2010PropOp46
 70
     1
102
RTVSPost2010Prop47
 90
       50
102
RTVSPost2010PropOp47
 70
     1
102
RTVSPost2010Prop48
 90
       50
102
RTVSPost2010PropOp48
 70
     1
102
RTVSPost2010Prop49
280
     0
102
RTVSPost2010PropOp49
 70
     1
102
RTVSPost2010Prop50
 90
       50
102
RTVSPost2010PropOp50
 70
     1
102
RTVSPost2010Prop51ColorIndex
 90
      256
102
RTVSPost2010Prop51ColorRGB
 90
-16777216
102
RTVSPost2010PropOp51
 70
     0
102
RTVSPost2010Prop52
140
1.0
102
RTVSPost2010PropOp52
 70
     0
102
RTVSPost2010Prop53
 90
        2
102
RTVSPost2010PropOp53
 70
     1
102
RTVSPost2010Prop54
  1
strokes_ogs.tif
102
RTVSPost2010PropOp54
 70
     1
102
RTVSPost2010Prop55
280
     0
102
RTVSPost2010PropOp55
 70
     1
102
RTVSPost2010Prop56
140
1.0
102
RTVSPost2010PropOp56
 70
     1
102
RTVSPost2010Prop57
140
1.0
102
RTVSPost2010PropOp57
 70
     1
  0
XRECORD
  5
599
102
{ACAD_REACTORS
330
598
102
}
330
598
100
AcDbXrecord
280
     1
102
RTVSPropertyOp0
 70
     1
102
RTVSPropertyOp1
 70
     1
102
RTVSPropertyOp2
 70
     1
102
RTVSPropertyOp3
 70
     1
102
RTVSPropertyOp4
 70
     1
102
RTVSPropertyOp5
 70
     1
102
RTVSPropertyOp6
 70
     1
102
RTVSPropertyOp7
 70
     1
102
RTVSPropertyOp8
 70
     1
102
RTVSPropertyOp9
 70
     1
102
RTVSPropertyOp10
 70
     1
102
RTVSPropertyOp11
 70
     1
102
RTVSPropertyOp12
 70
     1
102
RTVSPropertyOp13
 70
     1
102
RTVSPropertyOp14
 70
     1
102
RTVSPropertyOp15
 70
     1
102
RTVSPropertyOp16
 70
     1
102
RTVSPropertyOp17
 70
     1
102
RTVSPropertyOp18
 70
     1
102
RTVSPropertyOp19
 70
     1
102
RTVSPropertyOp20
 70
     1
102
RTVSPropertyOp21
 70
     1
102
RTVSPropertyOp22
 70
     1
102
RTVSPropertyOp23
 70
     1
102
RTVSPropertyOp24
 70
     1
102
RTVSPropertyOp25
 70
     1
102
RTVSPropertyOp26
 70
     1
102
RTVSPropertyOp27
 70
     1
102
RTVSPropertyOp28
 70
     1
102
RTVSPropertyOp29
 70
     1
102
RTVSPropertyOp30
 70
     1
102
RTVSPropertyOp31
 70
     1
102
RTVSPropertyOp32
 70
     1
102
RTVSPropertyOp33
 70
     1
102
RTVSPropertyOp34
 70
     1
102
RTVSPropertyOp35
 70
     1
102
RTVSPropertyOp36
 70
     1
102
RTVSPropertyOp37
 70
     1
102
RTVSPropertyOp38
 70
     1
102
RTVSPropertyOp39
 70
     1
102
RTVSPropertyOp40
 70
     1
102
RTVSPropertyOp41
 70
     1
102
RTVSPropertyOp42
 70
     1
102
RTVSPropertyOp43
 70
     1
102
RTVSPropertyOp44
 70
     1
102
RTVSPropertyOp45
 70
     1
102
RTVSPropertyOp46
 70
     1
102
RTVSPropertyOp47
 70
     1
102
RTVSPropertyOp48
 70
     1
102
RTVSPropertyOp49
 70
     1
102
RTVSPropertyOp50
 70
     1
102
RTVSPropertyOp51
 70
     0
102
RTVSPropertyOp52
 70
     0
102
RTVSPropertyOp53
 70
     1
102
RTVSPropertyOp54
 70
     1
102
RTVSPropertyOp55
 70
     1
102
RTVSPropertyOp56
 70
     1
102
RTVSPropertyOp57
 70
     1
102
RTVSPost2010Prop28
280
     0
102
RTVSPost2010PropOp28
 70
     1
102
RTVSPost2010Prop29
280
     1
102
RTVSPost2010PropOp29
 70
     1
102
RTVSPost2010Prop30
280
     1
102
RTVSPost2010PropOp30
 70
     1
102
RTVSPost2010Prop31
280
     0
102
RTVSPost2010PropOp31
 70
     1
102
RTVSPost2010Prop32
280
     0
102
RTVSPost2010PropOp32
 70
     1
102
RTVSPost2010Prop33
280
     0
102
RTVSPost2010PropOp33
 70
     1
102
RTVSPost2010Prop34
280
     0
102
RTVSPost2010PropOp34
 70
     1
102
RTVSPost2010Prop35
280
     0
102
RTVSPost2010PropOp35
 70
     1
102
RTVSPost2010Prop36
280
     0
102
RTVSPost2010PropOp36
 70
     1
102
RTVSPost2010Prop37
 90
       50
102
RTVSPost2010PropOp37
 70
     1
102
RTVSPost2010Prop38
140
0.0
102
RTVSPost2010PropOp38
 70
     1
102
RTVSPost2010Prop39
140
1.0
102
RTVSPost2010PropOp39
 70
     1
102
RTVSPost2010Prop40
 90
        0
102
RTVSPost2010PropOp40
 70
     1
102
RTVSPost2010Prop41ColorIndex
 90
       18
102
RTVSPost2010Prop41ColorRGB
 90
        0
102
RTVSPost2010PropOp41
 70
     1
102
RTVSPost2010Prop42
 90
       50
102
RTVSPost2010PropOp42
 70
     1
102
RTVSPost2010Prop43
 90
        3
102
RTVSPost2010PropOp43
 70
     1
102
RTVSPost2010Prop44ColorIndex
 90
        5
102
RTVSPost2010Prop44ColorRGB
 90
      255
102
RTVSPost2010PropOp44
 70
     1
102
RTVSPost2010Prop45
280
     0
102
RTVSPost2010PropOp45
 70
     1
102
RTVSPost2010Prop46
 90
       50
102
RTVSPost2010PropOp46
 70
     1
102
RTVSPost2010Prop47
 90
       50
102
RTVSPost2010PropOp47
 70
     1
102
RTVSPost2010Prop48
 90
       50
102
RTVSPost2010PropOp48
 70
     1
102
RTVSPost2010Prop49
280
     0
102
RTVSPost2010PropOp49
 70
     1
102
RTVSPost2010Prop50
 90
       50
102
RTVSPost2010PropOp50
 70
     1
102
RTVSPost2010Prop51ColorIndex
 90
      256
102
RTVSPost2010Prop51ColorRGB
 90
-16777216
102
RTVSPost2010PropOp51
 70
     0
102
RTVSPost2010Prop52
140
1.0
102
RTVSPost2010PropOp52
 70
     0
102
RTVSPost2010Prop53
 90
        2
102
RTVSPost2010PropOp53
 70
     1
102
RTVSPost2010Prop54
  1
strokes_ogs.tif
102
RTVSPost2010PropOp54
 70
     1
102
RTVSPost2010Prop55
280
     0
102
RTVSPost2010PropOp55
 70
     1
102
RTVSPost2010Prop56
140
1.0
102
RTVSPost2010PropOp56
 70
     1
102
RTVSPost2010Prop57
140
1.0
102
RTVSPost2010PropOp57
 70
     1
  0
XRECORD
  5
59B
102
{ACAD_REACTORS
330
59A
102
}
330
59A
100
AcDbXrecord
280
     1
102
RTVSPropertyOp0
 70
     1
102
RTVSPropertyOp1
 70
     1
102
RTVSPropertyOp2
 70
     1
102
RTVSPropertyOp3
 70
     1
102
RTVSPropertyOp4
 70
     1
102
RTVSPropertyOp5
 70
     1
102
RTVSPropertyOp6
 70
     1
102
RTVSPropertyOp7
 70
     1
102
RTVSPropertyOp8
 70
     1
102
RTVSPropertyOp9
 70
     1
102
RTVSPropertyOp10
 70
     1
102
RTVSPropertyOp11
 70
     1
102
RTVSPropertyOp12
 70
     1
102
RTVSPropertyOp13
 70
     1
102
RTVSPropertyOp14
 70
     1
102
RTVSPropertyOp15
 70
     1
102
RTVSPropertyOp16
 70
     1
102
RTVSPropertyOp17
 70
     1
102
RTVSPropertyOp18
 70
     1
102
RTVSPropertyOp19
 70
     1
102
RTVSPropertyOp20
 70
     1
102
RTVSPropertyOp21
 70
     1
102
RTVSPropertyOp22
 70
     1
102
RTVSPropertyOp23
 70
     1
102
RTVSPropertyOp24
 70
     1
102
RTVSPropertyOp25
 70
     1
102
RTVSPropertyOp26
 70
     1
102
RTVSPropertyOp27
 70
     1
102
RTVSPropertyOp28
 70
     1
102
RTVSPropertyOp29
 70
     1
102
RTVSPropertyOp30
 70
     1
102
RTVSPropertyOp31
 70
     1
102
RTVSPropertyOp32
 70
     1
102
RTVSPropertyOp33
 70
     1
102
RTVSPropertyOp34
 70
     1
102
RTVSPropertyOp35
 70
     1
102
RTVSPropertyOp36
 70
     1
102
RTVSPropertyOp37
 70
     1
102
RTVSPropertyOp38
 70
     1
102
RTVSPropertyOp39
 70
     1
102
RTVSPropertyOp40
 70
     1
102
RTVSPropertyOp41
 70
     1
102
RTVSPropertyOp42
 70
     1
102
RTVSPropertyOp43
 70
     1
102
RTVSPropertyOp44
 70
     1
102
RTVSPropertyOp45
 70
     1
102
RTVSPropertyOp46
 70
     1
102
RTVSPropertyOp47
 70
     1
102
RTVSPropertyOp48
 70
     1
102
RTVSPropertyOp49
 70
     1
102
RTVSPropertyOp50
 70
     1
102
RTVSPropertyOp51
 70
     0
102
RTVSPropertyOp52
 70
     0
102
RTVSPropertyOp53
 70
     1
102
RTVSPropertyOp54
 70
     1
102
RTVSPropertyOp55
 70
     1
102
RTVSPropertyOp56
 70
     1
102
RTVSPropertyOp57
 70
     1
102
RTVSPost2010Prop28
280
     0
102
RTVSPost2010PropOp28
 70
     1
102
RTVSPost2010Prop29
280
     1
102
RTVSPost2010PropOp29
 70
     1
102
RTVSPost2010Prop30
280
     1
102
RTVSPost2010PropOp30
 70
     1
102
RTVSPost2010Prop31
280
     0
102
RTVSPost2010PropOp31
 70
     1
102
RTVSPost2010Prop32
280
     0
102
RTVSPost2010PropOp32
 70
     1
102
RTVSPost2010Prop33
280
     0
102
RTVSPost2010PropOp33
 70
     1
102
RTVSPost2010Prop34
280
     0
102
RTVSPost2010PropOp34
 70
     1
102
RTVSPost2010Prop35
280
     0
102
RTVSPost2010PropOp35
 70
     1
102
RTVSPost2010Prop36
280
     0
102
RTVSPost2010PropOp36
 70
     1
102
RTVSPost2010Prop37
 90
       50
102
RTVSPost2010PropOp37
 70
     1
102
RTVSPost2010Prop38
140
0.0
102
RTVSPost2010PropOp38
 70
     1
102
RTVSPost2010Prop39
140
1.0
102
RTVSPost2010PropOp39
 70
     1
102
RTVSPost2010Prop40
 90
        0
102
RTVSPost2010PropOp40
 70
     1
102
RTVSPost2010Prop41ColorIndex
 90
       18
102
RTVSPost2010Prop41ColorRGB
 90
        0
102
RTVSPost2010PropOp41
 70
     1
102
RTVSPost2010Prop42
 90
       50
102
RTVSPost2010PropOp42
 70
     1
102
RTVSPost2010Prop43
 90
        3
102
RTVSPost2010PropOp43
 70
     1
102
RTVSPost2010Prop44ColorIndex
 90
        5
102
RTVSPost2010Prop44ColorRGB
 90
      255
102
RTVSPost2010PropOp44
 70
     1
102
RTVSPost2010Prop45
280
     0
102
RTVSPost2010PropOp45
 70
     1
102
RTVSPost2010Prop46
 90
       50
102
RTVSPost2010PropOp46
 70
     1
102
RTVSPost2010Prop47
 90
       50
102
RTVSPost2010PropOp47
 70
     1
102
RTVSPost2010Prop48
 90
       50
102
RTVSPost2010PropOp48
 70
     1
102
RTVSPost2010Prop49
280
     0
102
RTVSPost2010PropOp49
 70
     1
102
RTVSPost2010Prop50
 90
       50
102
RTVSPost2010PropOp50
 70
     1
102
RTVSPost2010Prop51ColorIndex
 90
      256
102
RTVSPost2010Prop51ColorRGB
 90
-16777216
102
RTVSPost2010PropOp51
 70
     0
102
RTVSPost2010Prop52
140
1.0
102
RTVSPost2010PropOp52
 70
     0
102
RTVSPost2010Prop53
 90
        2
102
RTVSPost2010PropOp53
 70
     1
102
RTVSPost2010Prop54
  1
strokes_ogs.tif
102
RTVSPost2010PropOp54
 70
     1
102
RTVSPost2010Prop55
280
     0
102
RTVSPost2010PropOp55
 70
     1
102
RTVSPost2010Prop56
140
1.0
102
RTVSPost2010PropOp56
 70
     1
102
RTVSPost2010Prop57
140
1.0
102
RTVSPost2010PropOp57
 70
     1
  0
XRECORD
  5
5A1
102
{ACAD_REACTORS
330
5A0
102
}
330
5A0
100
AcDbXrecord
280
     1
102
RTVSPropertyOp0
 70
     1
102
RTVSPropertyOp1
 70
     1
102
RTVSPropertyOp2
 70
     1
102
RTVSPropertyOp3
 70
     1
102
RTVSPropertyOp4
 70
     1
102
RTVSPropertyOp5
 70
     1
102
RTVSPropertyOp6
 70
     1
102
RTVSPropertyOp7
 70
     1
102
RTVSPropertyOp8
 70
     1
102
RTVSPropertyOp9
 70
     1
102
RTVSPropertyOp10
 70
     1
102
RTVSPropertyOp11
 70
     1
102
RTVSPropertyOp12
 70
     1
102
RTVSPropertyOp13
 70
     1
102
RTVSPropertyOp14
 70
     1
102
RTVSPropertyOp15
 70
     1
102
RTVSPropertyOp16
 70
     1
102
RTVSPropertyOp17
 70
     1
102
RTVSPropertyOp18
 70
     1
102
RTVSPropertyOp19
 70
     1
102
RTVSPropertyOp20
 70
     1
102
RTVSPropertyOp21
 70
     1
102
RTVSPropertyOp22
 70
     1
102
RTVSPropertyOp23
 70
     1
102
RTVSPropertyOp24
 70
     1
102
RTVSPropertyOp25
 70
     1
102
RTVSPropertyOp26
 70
     1
102
RTVSPropertyOp27
 70
     1
102
RTVSPropertyOp28
 70
     1
102
RTVSPropertyOp29
 70
     1
102
RTVSPropertyOp30
 70
     1
102
RTVSPropertyOp31
 70
     1
102
RTVSPropertyOp32
 70
     1
102
RTVSPropertyOp33
 70
     1
102
RTVSPropertyOp34
 70
     1
102
RTVSPropertyOp35
 70
     1
102
RTVSPropertyOp36
 70
     1
102
RTVSPropertyOp37
 70
     1
102
RTVSPropertyOp38
 70
     1
102
RTVSPropertyOp39
 70
     1
102
RTVSPropertyOp40
 70
     1
102
RTVSPropertyOp41
 70
     1
102
RTVSPropertyOp42
 70
     1
102
RTVSPropertyOp43
 70
     1
102
RTVSPropertyOp44
 70
     1
102
RTVSPropertyOp45
 70
     1
102
RTVSPropertyOp46
 70
     1
102
RTVSPropertyOp47
 70
     1
102
RTVSPropertyOp48
 70
     1
102
RTVSPropertyOp49
 70
     1
102
RTVSPropertyOp50
 70
     1
102
RTVSPropertyOp51
 70
     0
102
RTVSPropertyOp52
 70
     0
102
RTVSPropertyOp53
 70
     1
102
RTVSPropertyOp54
 70
     1
102
RTVSPropertyOp55
 70
     1
102
RTVSPropertyOp56
 70
     1
102
RTVSPropertyOp57
 70
     1
102
RTVSPost2010Prop28
280
     0
102
RTVSPost2010PropOp28
 70
     1
102
RTVSPost2010Prop29
280
     1
102
RTVSPost2010PropOp29
 70
     1
102
RTVSPost2010Prop30
280
     1
102
RTVSPost2010PropOp30
 70
     1
102
RTVSPost2010Prop31
280
     0
102
RTVSPost2010PropOp31
 70
     1
102
RTVSPost2010Prop32
280
     0
102
RTVSPost2010PropOp32
 70
     1
102
RTVSPost2010Prop33
280
     0
102
RTVSPost2010PropOp33
 70
     1
102
RTVSPost2010Prop34
280
     0
102
RTVSPost2010PropOp34
 70
     1
102
RTVSPost2010Prop35
280
     0
102
RTVSPost2010PropOp35
 70
     1
102
RTVSPost2010Prop36
280
     0
102
RTVSPost2010PropOp36
 70
     1
102
RTVSPost2010Prop37
 90
       50
102
RTVSPost2010PropOp37
 70
     1
102
RTVSPost2010Prop38
140
0.0
102
RTVSPost2010PropOp38
 70
     1
102
RTVSPost2010Prop39
140
1.0
102
RTVSPost2010PropOp39
 70
     1
102
RTVSPost2010Prop40
 90
        0
102
RTVSPost2010PropOp40
 70
     1
102
RTVSPost2010Prop41ColorIndex
 90
       18
102
RTVSPost2010Prop41ColorRGB
 90
        0
102
RTVSPost2010PropOp41
 70
     1
102
RTVSPost2010Prop42
 90
       50
102
RTVSPost2010PropOp42
 70
     1
102
RTVSPost2010Prop43
 90
        3
102
RTVSPost2010PropOp43
 70
     1
102
RTVSPost2010Prop44ColorIndex
 90
        5
102
RTVSPost2010Prop44ColorRGB
 90
      255
102
RTVSPost2010PropOp44
 70
     1
102
RTVSPost2010Prop45
280
     0
102
RTVSPost2010PropOp45
 70
     1
102
RTVSPost2010Prop46
 90
       50
102
RTVSPost2010PropOp46
 70
     1
102
RTVSPost2010Prop47
 90
       50
102
RTVSPost2010PropOp47
 70
     1
102
RTVSPost2010Prop48
 90
       50
102
RTVSPost2010PropOp48
 70
     1
102
RTVSPost2010Prop49
280
     0
102
RTVSPost2010PropOp49
 70
     1
102
RTVSPost2010Prop50
 90
       50
102
RTVSPost2010PropOp50
 70
     1
102
RTVSPost2010Prop51ColorIndex
 90
      256
102
RTVSPost2010Prop51ColorRGB
 90
-16777216
102
RTVSPost2010PropOp51
 70
     0
102
RTVSPost2010Prop52
140
1.0
102
RTVSPost2010PropOp52
 70
     0
102
RTVSPost2010Prop53
 90
        2
102
RTVSPost2010PropOp53
 70
     1
102
RTVSPost2010Prop54
  1
strokes_ogs.tif
102
RTVSPost2010PropOp54
 70
     1
102
RTVSPost2010Prop55
280
     0
102
RTVSPost2010PropOp55
 70
     1
102
RTVSPost2010Prop56
140
1.0
102
RTVSPost2010PropOp56
 70
     1
102
RTVSPost2010Prop57
140
1.0
102
RTVSPost2010PropOp57
 70
     1
  0
XRECORD
  5
5B5
102
{ACAD_REACTORS
330
5B4
102
}
330
5B4
100
AcDbXrecord
280
     1
102
RTVSPropertyOp0
 70
     0
102
RTVSPropertyOp1
 70
     0
102
RTVSPropertyOp2
 70
     0
102
RTVSPropertyOp3
 70
     0
102
RTVSPropertyOp4
 70
     0
102
RTVSPropertyOp5
 70
     0
102
RTVSPropertyOp6
 70
     0
102
RTVSPropertyOp7
 70
     0
102
RTVSPropertyOp8
 70
     0
102
RTVSPropertyOp9
 70
     0
102
RTVSPropertyOp10
 70
     0
102
RTVSPropertyOp11
 70
     0
102
RTVSPropertyOp12
 70
     0
102
RTVSPropertyOp13
 70
     0
102
RTVSPropertyOp14
 70
     0
102
RTVSPropertyOp15
 70
     0
102
RTVSPropertyOp16
 70
     0
102
RTVSPropertyOp17
 70
     0
102
RTVSPropertyOp18
 70
     0
102
RTVSPropertyOp19
 70
     0
102
RTVSPropertyOp20
 70
     0
102
RTVSPropertyOp21
 70
     0
102
RTVSPropertyOp22
 70
     0
102
RTVSPropertyOp23
 70
     0
102
RTVSPropertyOp24
 70
     0
102
RTVSPropertyOp25
 70
     0
102
RTVSPropertyOp26
 70
     0
102
RTVSPropertyOp27
 70
     0
102
RTVSPropertyOp28
 70
     1
102
RTVSPropertyOp29
 70
     1
102
RTVSPropertyOp30
 70
     1
102
RTVSPropertyOp31
 70
     1
102
RTVSPropertyOp32
 70
     1
102
RTVSPropertyOp33
 70
     1
102
RTVSPropertyOp34
 70
     1
102
RTVSPropertyOp35
 70
     1
102
RTVSPropertyOp36
 70
     1
102
RTVSPropertyOp37
 70
     1
102
RTVSPropertyOp38
 70
     1
102
RTVSPropertyOp39
 70
     1
102
RTVSPropertyOp40
 70
     1
102
RTVSPropertyOp41
 70
     1
102
RTVSPropertyOp42
 70
     1
102
RTVSPropertyOp43
 70
     1
102
RTVSPropertyOp44
 70
     1
102
RTVSPropertyOp45
 70
     1
102
RTVSPropertyOp46
 70
     1
102
RTVSPropertyOp47
 70
     1
102
RTVSPropertyOp48
 70
     1
102
RTVSPropertyOp49
 70
     1
102
RTVSPropertyOp50
 70
     1
102
RTVSPropertyOp51
 70
     0
102
RTVSPropertyOp52
 70
     0
102
RTVSPropertyOp53
 70
     1
102
RTVSPropertyOp54
 70
     1
102
RTVSPropertyOp55
 70
     1
102
RTVSPropertyOp56
 70
     1
102
RTVSPropertyOp57
 70
     1
102
RTVSPost2010Prop28
280
     0
102
RTVSPost2010PropOp28
 70
     1
102
RTVSPost2010Prop29
280
     1
102
RTVSPost2010PropOp29
 70
     1
102
RTVSPost2010Prop30
280
     1
102
RTVSPost2010PropOp30
 70
     1
102
RTVSPost2010Prop31
280
     0
102
RTVSPost2010PropOp31
 70
     1
102
RTVSPost2010Prop32
280
     0
102
RTVSPost2010PropOp32
 70
     1
102
RTVSPost2010Prop33
280
     0
102
RTVSPost2010PropOp33
 70
     1
102
RTVSPost2010Prop34
280
     0
102
RTVSPost2010PropOp34
 70
     1
102
RTVSPost2010Prop35
280
     0
102
RTVSPost2010PropOp35
 70
     1
102
RTVSPost2010Prop36
280
     0
102
RTVSPost2010PropOp36
 70
     1
102
RTVSPost2010Prop37
 90
       50
102
RTVSPost2010PropOp37
 70
     1
102
RTVSPost2010Prop38
140
0.0
102
RTVSPost2010PropOp38
 70
     1
102
RTVSPost2010Prop39
140
1.0
102
RTVSPost2010PropOp39
 70
     1
102
RTVSPost2010Prop40
 90
        0
102
RTVSPost2010PropOp40
 70
     1
102
RTVSPost2010Prop41ColorIndex
 90
       18
102
RTVSPost2010Prop41ColorRGB
 90
        0
102
RTVSPost2010PropOp41
 70
     1
102
RTVSPost2010Prop42
 90
       50
102
RTVSPost2010PropOp42
 70
     1
102
RTVSPost2010Prop43
 90
        3
102
RTVSPost2010PropOp43
 70
     1
102
RTVSPost2010Prop44ColorIndex
 90
        5
102
RTVSPost2010Prop44ColorRGB
 90
      255
102
RTVSPost2010PropOp44
 70
     1
102
RTVSPost2010Prop45
280
     0
102
RTVSPost2010PropOp45
 70
     1
102
RTVSPost2010Prop46
 90
       50
102
RTVSPost2010PropOp46
 70
     1
102
RTVSPost2010Prop47
 90
       50
102
RTVSPost2010PropOp47
 70
     1
102
RTVSPost2010Prop48
 90
       50
102
RTVSPost2010PropOp48
 70
     1
102
RTVSPost2010Prop49
280
     0
102
RTVSPost2010PropOp49
 70
     1
102
RTVSPost2010Prop50
 90
       50
102
RTVSPost2010PropOp50
 70
     1
102
RTVSPost2010Prop51ColorIndex
 90
      256
102
RTVSPost2010Prop51ColorRGB
 90
-16777216
102
RTVSPost2010PropOp51
 70
     0
102
RTVSPost2010Prop52
140
1.0
102
RTVSPost2010PropOp52
 70
     0
102
RTVSPost2010Prop53
 90
        2
102
RTVSPost2010PropOp53
 70
     1
102
RTVSPost2010Prop54
  1
strokes_ogs.tif
102
RTVSPost2010PropOp54
 70
     1
102
RTVSPost2010Prop55
280
     0
102
RTVSPost2010PropOp55
 70
     1
102
RTVSPost2010Prop56
140
1.0
102
RTVSPost2010PropOp56
 70
     1
102
RTVSPost2010Prop57
140
1.0
102
RTVSPost2010PropOp57
 70
     1
  0
XRECORD
  5
5AF
102
{ACAD_REACTORS
330
5AE
102
}
330
5AE
100
AcDbXrecord
280
     1
102
RTVSPropertyOp0
 70
     1
102
RTVSPropertyOp1
 70
     1
102
RTVSPropertyOp2
 70
     1
102
RTVSPropertyOp3
 70
     1
102
RTVSPropertyOp4
 70
     1
102
RTVSPropertyOp5
 70
     1
102
RTVSPropertyOp6
 70
     1
102
RTVSPropertyOp7
 70
     1
102
RTVSPropertyOp8
 70
     1
102
RTVSPropertyOp9
 70
     1
102
RTVSPropertyOp10
 70
     1
102
RTVSPropertyOp11
 70
     1
102
RTVSPropertyOp12
 70
     1
102
RTVSPropertyOp13
 70
     1
102
RTVSPropertyOp14
 70
     1
102
RTVSPropertyOp15
 70
     1
102
RTVSPropertyOp16
 70
     1
102
RTVSPropertyOp17
 70
     1
102
RTVSPropertyOp18
 70
     1
102
RTVSPropertyOp19
 70
     1
102
RTVSPropertyOp20
 70
     1
102
RTVSPropertyOp21
 70
     1
102
RTVSPropertyOp22
 70
     1
102
RTVSPropertyOp23
 70
     1
102
RTVSPropertyOp24
 70
     1
102
RTVSPropertyOp25
 70
     1
102
RTVSPropertyOp26
 70
     1
102
RTVSPropertyOp27
 70
     1
102
RTVSPropertyOp28
 70
     1
102
RTVSPropertyOp29
 70
     1
102
RTVSPropertyOp30
 70
     1
102
RTVSPropertyOp31
 70
     1
102
RTVSPropertyOp32
 70
     1
102
RTVSPropertyOp33
 70
     1
102
RTVSPropertyOp34
 70
     1
102
RTVSPropertyOp35
 70
     1
102
RTVSPropertyOp36
 70
     1
102
RTVSPropertyOp37
 70
     1
102
RTVSPropertyOp38
 70
     1
102
RTVSPropertyOp39
 70
     1
102
RTVSPropertyOp40
 70
     1
102
RTVSPropertyOp41
 70
     1
102
RTVSPropertyOp42
 70
     1
102
RTVSPropertyOp43
 70
     1
102
RTVSPropertyOp44
 70
     1
102
RTVSPropertyOp45
 70
     1
102
RTVSPropertyOp46
 70
     1
102
RTVSPropertyOp47
 70
     1
102
RTVSPropertyOp48
 70
     1
102
RTVSPropertyOp49
 70
     1
102
RTVSPropertyOp50
 70
     1
102
RTVSPropertyOp51
 70
     0
102
RTVSPropertyOp52
 70
     0
102
RTVSPropertyOp53
 70
     1
102
RTVSPropertyOp54
 70
     1
102
RTVSPropertyOp55
 70
     1
102
RTVSPropertyOp56
 70
     1
102
RTVSPropertyOp57
 70
     1
102
RTVSPost2010Prop28
280
     0
102
RTVSPost2010PropOp28
 70
     1
102
RTVSPost2010Prop29
280
     1
102
RTVSPost2010PropOp29
 70
     1
102
RTVSPost2010Prop30
280
     1
102
RTVSPost2010PropOp30
 70
     1
102
RTVSPost2010Prop31
280
     0
102
RTVSPost2010PropOp31
 70
     1
102
RTVSPost2010Prop32
280
     0
102
RTVSPost2010PropOp32
 70
     1
102
RTVSPost2010Prop33
280
     0
102
RTVSPost2010PropOp33
 70
     1
102
RTVSPost2010Prop34
280
     0
102
RTVSPost2010PropOp34
 70
     1
102
RTVSPost2010Prop35
280
     0
102
RTVSPost2010PropOp35
 70
     1
102
RTVSPost2010Prop36
280
     0
102
RTVSPost2010PropOp36
 70
     1
102
RTVSPost2010Prop37
 90
       50
102
RTVSPost2010PropOp37
 70
     1
102
RTVSPost2010Prop38
140
0.0
102
RTVSPost2010PropOp38
 70
     1
102
RTVSPost2010Prop39
140
1.0
102
RTVSPost2010PropOp39
 70
     1
102
RTVSPost2010Prop40
 90
        0
102
RTVSPost2010PropOp40
 70
     1
102
RTVSPost2010Prop41ColorIndex
 90
       18
102
RTVSPost2010Prop41ColorRGB
 90
        0
102
RTVSPost2010PropOp41
 70
     1
102
RTVSPost2010Prop42
 90
       50
102
RTVSPost2010PropOp42
 70
     1
102
RTVSPost2010Prop43
 90
        3
102
RTVSPost2010PropOp43
 70
     1
102
RTVSPost2010Prop44ColorIndex
 90
        5
102
RTVSPost2010Prop44ColorRGB
 90
      255
102
RTVSPost2010PropOp44
 70
     1
102
RTVSPost2010Prop45
280
     0
102
RTVSPost2010PropOp45
 70
     1
102
RTVSPost2010Prop46
 90
       50
102
RTVSPost2010PropOp46
 70
     1
102
RTVSPost2010Prop47
 90
       50
102
RTVSPost2010PropOp47
 70
     1
102
RTVSPost2010Prop48
 90
       50
102
RTVSPost2010PropOp48
 70
     1
102
RTVSPost2010Prop49
280
     0
102
RTVSPost2010PropOp49
 70
     1
102
RTVSPost2010Prop50
 90
       50
102
RTVSPost2010PropOp50
 70
     1
102
RTVSPost2010Prop51ColorIndex
 90
      256
102
RTVSPost2010Prop51ColorRGB
 90
-16777216
102
RTVSPost2010PropOp51
 70
     0
102
RTVSPost2010Prop52
140
1.0
102
RTVSPost2010PropOp52
 70
     0
102
RTVSPost2010Prop53
 90
        2
102
RTVSPost2010PropOp53
 70
     1
102
RTVSPost2010Prop54
  1
strokes_ogs.tif
102
RTVSPost2010PropOp54
 70
     1
102
RTVSPost2010Prop55
280
     0
102
RTVSPost2010PropOp55
 70
     1
102
RTVSPost2010Prop56
140
1.0
102
RTVSPost2010PropOp56
 70
     1
102
RTVSPost2010Prop57
140
1.0
102
RTVSPost2010PropOp57
 70
     1
  0
XRECORD
  5
5B7
102
{ACAD_REACTORS
330
5B6
102
}
330
5B6
100
AcDbXrecord
280
     1
102
RTVSPropertyOp0
 70
     0
102
RTVSPropertyOp1
 70
     0
102
RTVSPropertyOp2
 70
     0
102
RTVSPropertyOp3
 70
     0
102
RTVSPropertyOp4
 70
     0
102
RTVSPropertyOp5
 70
     0
102
RTVSPropertyOp6
 70
     0
102
RTVSPropertyOp7
 70
     0
102
RTVSPropertyOp8
 70
     0
102
RTVSPropertyOp9
 70
     0
102
RTVSPropertyOp10
 70
     0
102
RTVSPropertyOp11
 70
     0
102
RTVSPropertyOp12
 70
     0
102
RTVSPropertyOp13
 70
     0
102
RTVSPropertyOp14
 70
     0
102
RTVSPropertyOp15
 70
     0
102
RTVSPropertyOp16
 70
     0
102
RTVSPropertyOp17
 70
     0
102
RTVSPropertyOp18
 70
     0
102
RTVSPropertyOp19
 70
     0
102
RTVSPropertyOp20
 70
     0
102
RTVSPropertyOp21
 70
     0
102
RTVSPropertyOp22
 70
     0
102
RTVSPropertyOp23
 70
     0
102
RTVSPropertyOp24
 70
     0
102
RTVSPropertyOp25
 70
     0
102
RTVSPropertyOp26
 70
     0
102
RTVSPropertyOp27
 70
     0
102
RTVSPropertyOp28
 70
     1
102
RTVSPropertyOp29
 70
     1
102
RTVSPropertyOp30
 70
     1
102
RTVSPropertyOp31
 70
     1
102
RTVSPropertyOp32
 70
     1
102
RTVSPropertyOp33
 70
     1
102
RTVSPropertyOp34
 70
     1
102
RTVSPropertyOp35
 70
     1
102
RTVSPropertyOp36
 70
     1
102
RTVSPropertyOp37
 70
     1
102
RTVSPropertyOp38
 70
     1
102
RTVSPropertyOp39
 70
     1
102
RTVSPropertyOp40
 70
     1
102
RTVSPropertyOp41
 70
     1
102
RTVSPropertyOp42
 70
     1
102
RTVSPropertyOp43
 70
     1
102
RTVSPropertyOp44
 70
     1
102
RTVSPropertyOp45
 70
     1
102
RTVSPropertyOp46
 70
     1
102
RTVSPropertyOp47
 70
     1
102
RTVSPropertyOp48
 70
     1
102
RTVSPropertyOp49
 70
     1
102
RTVSPropertyOp50
 70
     1
102
RTVSPropertyOp51
 70
     0
102
RTVSPropertyOp52
 70
     0
102
RTVSPropertyOp53
 70
     1
102
RTVSPropertyOp54
 70
     1
102
RTVSPropertyOp55
 70
     1
102
RTVSPropertyOp56
 70
     1
102
RTVSPropertyOp57
 70
     1
102
RTVSPost2010Prop28
280
     0
102
RTVSPost2010PropOp28
 70
     1
102
RTVSPost2010Prop29
280
     1
102
RTVSPost2010PropOp29
 70
     1
102
RTVSPost2010Prop30
280
     1
102
RTVSPost2010PropOp30
 70
     1
102
RTVSPost2010Prop31
280
     0
102
RTVSPost2010PropOp31
 70
     1
102
RTVSPost2010Prop32
280
     0
102
RTVSPost2010PropOp32
 70
     1
102
RTVSPost2010Prop33
280
     0
102
RTVSPost2010PropOp33
 70
     1
102
RTVSPost2010Prop34
280
     0
102
RTVSPost2010PropOp34
 70
     1
102
RTVSPost2010Prop35
280
     0
102
RTVSPost2010PropOp35
 70
     1
102
RTVSPost2010Prop36
280
     0
102
RTVSPost2010PropOp36
 70
     1
102
RTVSPost2010Prop37
 90
       50
102
RTVSPost2010PropOp37
 70
     1
102
RTVSPost2010Prop38
140
0.0
102
RTVSPost2010PropOp38
 70
     1
102
RTVSPost2010Prop39
140
1.0
102
RTVSPost2010PropOp39
 70
     1
102
RTVSPost2010Prop40
 90
        0
102
RTVSPost2010PropOp40
 70
     1
102
RTVSPost2010Prop41ColorIndex
 90
       18
102
RTVSPost2010Prop41ColorRGB
 90
        0
102
RTVSPost2010PropOp41
 70
     1
102
RTVSPost2010Prop42
 90
       50
102
RTVSPost2010PropOp42
 70
     1
102
RTVSPost2010Prop43
 90
        3
102
RTVSPost2010PropOp43
 70
     1
102
RTVSPost2010Prop44ColorIndex
 90
        5
102
RTVSPost2010Prop44ColorRGB
 90
      255
102
RTVSPost2010PropOp44
 70
     1
102
RTVSPost2010Prop45
280
     0
102
RTVSPost2010PropOp45
 70
     1
102
RTVSPost2010Prop46
 90
       50
102
RTVSPost2010PropOp46
 70
     1
102
RTVSPost2010Prop47
 90
       50
102
RTVSPost2010PropOp47
 70
     1
102
RTVSPost2010Prop48
 90
       50
102
RTVSPost2010PropOp48
 70
     1
102
RTVSPost2010Prop49
280
     0
102
RTVSPost2010PropOp49
 70
     1
102
RTVSPost2010Prop50
 90
       50
102
RTVSPost2010PropOp50
 70
     1
102
RTVSPost2010Prop51ColorIndex
 90
      256
102
RTVSPost2010Prop51ColorRGB
 90
-16777216
102
RTVSPost2010PropOp51
 70
     0
102
RTVSPost2010Prop52
140
1.0
102
RTVSPost2010PropOp52
 70
     0
102
RTVSPost2010Prop53
 90
        2
102
RTVSPost2010PropOp53
 70
     1
102
RTVSPost2010Prop54
  1
strokes_ogs.tif
102
RTVSPost2010PropOp54
 70
     1
102
RTVSPost2010Prop55
280
     0
102
RTVSPost2010PropOp55
 70
     1
102
RTVSPost2010Prop56
140
1.0
102
RTVSPost2010PropOp56
 70
     1
102
RTVSPost2010Prop57
140
1.0
102
RTVSPost2010PropOp57
 70
     1
  0
XRECORD
  5
5A5
102
{ACAD_REACTORS
330
5A4
102
}
330
5A4
100
AcDbXrecord
280
     1
102
RTVSPropertyOp0
 70
     1
102
RTVSPropertyOp1
 70
     1
102
RTVSPropertyOp2
 70
     1
102
RTVSPropertyOp3
 70
     1
102
RTVSPropertyOp4
 70
     1
102
RTVSPropertyOp5
 70
     1
102
RTVSPropertyOp6
 70
     1
102
RTVSPropertyOp7
 70
     1
102
RTVSPropertyOp8
 70
     1
102
RTVSPropertyOp9
 70
     1
102
RTVSPropertyOp10
 70
     1
102
RTVSPropertyOp11
 70
     1
102
RTVSPropertyOp12
 70
     1
102
RTVSPropertyOp13
 70
     1
102
RTVSPropertyOp14
 70
     1
102
RTVSPropertyOp15
 70
     1
102
RTVSPropertyOp16
 70
     1
102
RTVSPropertyOp17
 70
     1
102
RTVSPropertyOp18
 70
     1
102
RTVSPropertyOp19
 70
     1
102
RTVSPropertyOp20
 70
     1
102
RTVSPropertyOp21
 70
     1
102
RTVSPropertyOp22
 70
     1
102
RTVSPropertyOp23
 70
     1
102
RTVSPropertyOp24
 70
     1
102
RTVSPropertyOp25
 70
     1
102
RTVSPropertyOp26
 70
     1
102
RTVSPropertyOp27
 70
     1
102
RTVSPropertyOp28
 70
     1
102
RTVSPropertyOp29
 70
     1
102
RTVSPropertyOp30
 70
     1
102
RTVSPropertyOp31
 70
     1
102
RTVSPropertyOp32
 70
     1
102
RTVSPropertyOp33
 70
     1
102
RTVSPropertyOp34
 70
     1
102
RTVSPropertyOp35
 70
     1
102
RTVSPropertyOp36
 70
     1
102
RTVSPropertyOp37
 70
     1
102
RTVSPropertyOp38
 70
     1
102
RTVSPropertyOp39
 70
     1
102
RTVSPropertyOp40
 70
     1
102
RTVSPropertyOp41
 70
     1
102
RTVSPropertyOp42
 70
     1
102
RTVSPropertyOp43
 70
     1
102
RTVSPropertyOp44
 70
     1
102
RTVSPropertyOp45
 70
     1
102
RTVSPropertyOp46
 70
     1
102
RTVSPropertyOp47
 70
     1
102
RTVSPropertyOp48
 70
     1
102
RTVSPropertyOp49
 70
     1
102
RTVSPropertyOp50
 70
     1
102
RTVSPropertyOp51
 70
     0
102
RTVSPropertyOp52
 70
     0
102
RTVSPropertyOp53
 70
     1
102
RTVSPropertyOp54
 70
     1
102
RTVSPropertyOp55
 70
     1
102
RTVSPropertyOp56
 70
     1
102
RTVSPropertyOp57
 70
     1
102
RTVSPost2010Prop28
280
     0
102
RTVSPost2010PropOp28
 70
     1
102
RTVSPost2010Prop29
280
     1
102
RTVSPost2010PropOp29
 70
     1
102
RTVSPost2010Prop30
280
     1
102
RTVSPost2010PropOp30
 70
     1
102
RTVSPost2010Prop31
280
     0
102
RTVSPost2010PropOp31
 70
     1
102
RTVSPost2010Prop32
280
     0
102
RTVSPost2010PropOp32
 70
     1
102
RTVSPost2010Prop33
280
     0
102
RTVSPost2010PropOp33
 70
     1
102
RTVSPost2010Prop34
280
     0
102
RTVSPost2010PropOp34
 70
     1
102
RTVSPost2010Prop35
280
     0
102
RTVSPost2010PropOp35
 70
     1
102
RTVSPost2010Prop36
280
     0
102
RTVSPost2010PropOp36
 70
     1
102
RTVSPost2010Prop37
 90
       50
102
RTVSPost2010PropOp37
 70
     1
102
RTVSPost2010Prop38
140
0.0
102
RTVSPost2010PropOp38
 70
     1
102
RTVSPost2010Prop39
140
1.0
102
RTVSPost2010PropOp39
 70
     1
102
RTVSPost2010Prop40
 90
        0
102
RTVSPost2010PropOp40
 70
     1
102
RTVSPost2010Prop41ColorIndex
 90
       18
102
RTVSPost2010Prop41ColorRGB
 90
        0
102
RTVSPost2010PropOp41
 70
     1
102
RTVSPost2010Prop42
 90
       50
102
RTVSPost2010PropOp42
 70
     1
102
RTVSPost2010Prop43
 90
        3
102
RTVSPost2010PropOp43
 70
     1
102
RTVSPost2010Prop44ColorIndex
 90
        5
102
RTVSPost2010Prop44ColorRGB
 90
      255
102
RTVSPost2010PropOp44
 70
     1
102
RTVSPost2010Prop45
280
     0
102
RTVSPost2010PropOp45
 70
     1
102
RTVSPost2010Prop46
 90
       50
102
RTVSPost2010PropOp46
 70
     1
102
RTVSPost2010Prop47
 90
       50
102
RTVSPost2010PropOp47
 70
     1
102
RTVSPost2010Prop48
 90
       50
102
RTVSPost2010PropOp48
 70
     1
102
RTVSPost2010Prop49
280
     0
102
RTVSPost2010PropOp49
 70
     1
102
RTVSPost2010Prop50
 90
       50
102
RTVSPost2010PropOp50
 70
     1
102
RTVSPost2010Prop51ColorIndex
 90
      256
102
RTVSPost2010Prop51ColorRGB
 90
-16777216
102
RTVSPost2010PropOp51
 70
     0
102
RTVSPost2010Prop52
140
1.0
102
RTVSPost2010PropOp52
 70
     0
102
RTVSPost2010Prop53
 90
        2
102
RTVSPost2010PropOp53
 70
     1
102
RTVSPost2010Prop54
  1
strokes_ogs.tif
102
RTVSPost2010PropOp54
 70
     1
102
RTVSPost2010Prop55
280
     0
102
RTVSPost2010PropOp55
 70
     1
102
RTVSPost2010Prop56
140
1.0
102
RTVSPost2010PropOp56
 70
     1
102
RTVSPost2010Prop57
140
1.0
102
RTVSPost2010PropOp57
 70
     1
  0
XRECORD
  5
5C3
102
{ACAD_REACTORS
330
5C2
102
}
330
5C2
100
AcDbXrecord
280
     1
102
RTVSPropertyOp0
 70
     1
102
RTVSPropertyOp1
 70
     1
102
RTVSPropertyOp2
 70
     1
102
RTVSPropertyOp3
 70
     1
102
RTVSPropertyOp4
 70
     1
102
RTVSPropertyOp5
 70
     1
102
RTVSPropertyOp6
 70
     1
102
RTVSPropertyOp7
 70
     1
102
RTVSPropertyOp8
 70
     1
102
RTVSPropertyOp9
 70
     1
102
RTVSPropertyOp10
 70
     1
102
RTVSPropertyOp11
 70
     1
102
RTVSPropertyOp12
 70
     1
102
RTVSPropertyOp13
 70
     1
102
RTVSPropertyOp14
 70
     1
102
RTVSPropertyOp15
 70
     1
102
RTVSPropertyOp16
 70
     1
102
RTVSPropertyOp17
 70
     1
102
RTVSPropertyOp18
 70
     1
102
RTVSPropertyOp19
 70
     1
102
RTVSPropertyOp20
 70
     1
102
RTVSPropertyOp21
 70
     1
102
RTVSPropertyOp22
 70
     1
102
RTVSPropertyOp23
 70
     1
102
RTVSPropertyOp24
 70
     1
102
RTVSPropertyOp25
 70
     1
102
RTVSPropertyOp26
 70
     1
102
RTVSPropertyOp27
 70
     1
102
RTVSPropertyOp28
 70
     1
102
RTVSPropertyOp29
 70
     1
102
RTVSPropertyOp30
 70
     1
102
RTVSPropertyOp31
 70
     1
102
RTVSPropertyOp32
 70
     1
102
RTVSPropertyOp33
 70
     1
102
RTVSPropertyOp34
 70
     1
102
RTVSPropertyOp35
 70
     1
102
RTVSPropertyOp36
 70
     1
102
RTVSPropertyOp37
 70
     1
102
RTVSPropertyOp38
 70
     1
102
RTVSPropertyOp39
 70
     1
102
RTVSPropertyOp40
 70
     1
102
RTVSPropertyOp41
 70
     1
102
RTVSPropertyOp42
 70
     1
102
RTVSPropertyOp43
 70
     1
102
RTVSPropertyOp44
 70
     1
102
RTVSPropertyOp45
 70
     1
102
RTVSPropertyOp46
 70
     1
102
RTVSPropertyOp47
 70
     1
102
RTVSPropertyOp48
 70
     1
102
RTVSPropertyOp49
 70
     1
102
RTVSPropertyOp50
 70
     1
102
RTVSPropertyOp51
 70
     0
102
RTVSPropertyOp52
 70
     0
102
RTVSPropertyOp53
 70
     1
102
RTVSPropertyOp54
 70
     1
102
RTVSPropertyOp55
 70
     1
102
RTVSPropertyOp56
 70
     1
102
RTVSPropertyOp57
 70
     1
102
RTVSPost2010Prop28
280
     0
102
RTVSPost2010PropOp28
 70
     1
102
RTVSPost2010Prop29
280
     1
102
RTVSPost2010PropOp29
 70
     1
102
RTVSPost2010Prop30
280
     1
102
RTVSPost2010PropOp30
 70
     1
102
RTVSPost2010Prop31
280
     0
102
RTVSPost2010PropOp31
 70
     1
102
RTVSPost2010Prop32
280
     0
102
RTVSPost2010PropOp32
 70
     1
102
RTVSPost2010Prop33
280
     0
102
RTVSPost2010PropOp33
 70
     1
102
RTVSPost2010Prop34
280
     0
102
RTVSPost2010PropOp34
 70
     1
102
RTVSPost2010Prop35
280
     0
102
RTVSPost2010PropOp35
 70
     1
102
RTVSPost2010Prop36
280
     0
102
RTVSPost2010PropOp36
 70
     1
102
RTVSPost2010Prop37
 90
       50
102
RTVSPost2010PropOp37
 70
     1
102
RTVSPost2010Prop38
140
0.0
102
RTVSPost2010PropOp38
 70
     1
102
RTVSPost2010Prop39
140
1.0
102
RTVSPost2010PropOp39
 70
     1
102
RTVSPost2010Prop40
 90
        0
102
RTVSPost2010PropOp40
 70
     1
102
RTVSPost2010Prop41ColorIndex
 90
       18
102
RTVSPost2010Prop41ColorRGB
 90
        0
102
RTVSPost2010PropOp41
 70
     1
102
RTVSPost2010Prop42
 90
       50
102
RTVSPost2010PropOp42
 70
     1
102
RTVSPost2010Prop43
 90
        3
102
RTVSPost2010PropOp43
 70
     1
102
RTVSPost2010Prop44ColorIndex
 90
        5
102
RTVSPost2010Prop44ColorRGB
 90
      255
102
RTVSPost2010PropOp44
 70
     1
102
RTVSPost2010Prop45
280
     0
102
RTVSPost2010PropOp45
 70
     1
102
RTVSPost2010Prop46
 90
       50
102
RTVSPost2010PropOp46
 70
     1
102
RTVSPost2010Prop47
 90
       50
102
RTVSPost2010PropOp47
 70
     1
102
RTVSPost2010Prop48
 90
       50
102
RTVSPost2010PropOp48
 70
     1
102
RTVSPost2010Prop49
280
     0
102
RTVSPost2010PropOp49
 70
     1
102
RTVSPost2010Prop50
 90
       50
102
RTVSPost2010PropOp50
 70
     1
102
RTVSPost2010Prop51ColorIndex
 90
      256
102
RTVSPost2010Prop51ColorRGB
 90
-16777216
102
RTVSPost2010PropOp51
 70
     0
102
RTVSPost2010Prop52
140
1.0
102
RTVSPost2010PropOp52
 70
     0
102
RTVSPost2010Prop53
 90
        2
102
RTVSPost2010PropOp53
 70
     1
102
RTVSPost2010Prop54
  1
strokes_ogs.tif
102
RTVSPost2010PropOp54
 70
     1
102
RTVSPost2010Prop55
280
     0
102
RTVSPost2010PropOp55
 70
     1
102
RTVSPost2010Prop56
140
1.0
102
RTVSPost2010PropOp56
 70
     1
102
RTVSPost2010Prop57
140
1.0
102
RTVSPost2010PropOp57
 70
     1
  0
XRECORD
  5
5C1
102
{ACAD_REACTORS
330
5C0
102
}
330
5C0
100
AcDbXrecord
280
     1
102
RTVSPropertyOp0
 70
     1
102
RTVSPropertyOp1
 70
     1
102
RTVSPropertyOp2
 70
     1
102
RTVSPropertyOp3
 70
     1
102
RTVSPropertyOp4
 70
     1
102
RTVSPropertyOp5
 70
     1
102
RTVSPropertyOp6
 70
     1
102
RTVSPropertyOp7
 70
     1
102
RTVSPropertyOp8
 70
     1
102
RTVSPropertyOp9
 70
     1
102
RTVSPropertyOp10
 70
     1
102
RTVSPropertyOp11
 70
     1
102
RTVSPropertyOp12
 70
     1
102
RTVSPropertyOp13
 70
     1
102
RTVSPropertyOp14
 70
     1
102
RTVSPropertyOp15
 70
     1
102
RTVSPropertyOp16
 70
     1
102
RTVSPropertyOp17
 70
     1
102
RTVSPropertyOp18
 70
     1
102
RTVSPropertyOp19
 70
     1
102
RTVSPropertyOp20
 70
     1
102
RTVSPropertyOp21
 70
     1
102
RTVSPropertyOp22
 70
     1
102
RTVSPropertyOp23
 70
     1
102
RTVSPropertyOp24
 70
     1
102
RTVSPropertyOp25
 70
     1
102
RTVSPropertyOp26
 70
     1
102
RTVSPropertyOp27
 70
     1
102
RTVSPropertyOp28
 70
     1
102
RTVSPropertyOp29
 70
     1
102
RTVSPropertyOp30
 70
     1
102
RTVSPropertyOp31
 70
     1
102
RTVSPropertyOp32
 70
     1
102
RTVSPropertyOp33
 70
     1
102
RTVSPropertyOp34
 70
     1
102
RTVSPropertyOp35
 70
     1
102
RTVSPropertyOp36
 70
     1
102
RTVSPropertyOp37
 70
     1
102
RTVSPropertyOp38
 70
     1
102
RTVSPropertyOp39
 70
     1
102
RTVSPropertyOp40
 70
     1
102
RTVSPropertyOp41
 70
     1
102
RTVSPropertyOp42
 70
     1
102
RTVSPropertyOp43
 70
     1
102
RTVSPropertyOp44
 70
     1
102
RTVSPropertyOp45
 70
     1
102
RTVSPropertyOp46
 70
     1
102
RTVSPropertyOp47
 70
     1
102
RTVSPropertyOp48
 70
     1
102
RTVSPropertyOp49
 70
     1
102
RTVSPropertyOp50
 70
     1
102
RTVSPropertyOp51
 70
     0
102
RTVSPropertyOp52
 70
     0
102
RTVSPropertyOp53
 70
     1
102
RTVSPropertyOp54
 70
     1
102
RTVSPropertyOp55
 70
     1
102
RTVSPropertyOp56
 70
     1
102
RTVSPropertyOp57
 70
     1
102
RTVSPost2010Prop28
280
     0
102
RTVSPost2010PropOp28
 70
     1
102
RTVSPost2010Prop29
280
     1
102
RTVSPost2010PropOp29
 70
     1
102
RTVSPost2010Prop30
280
     1
102
RTVSPost2010PropOp30
 70
     1
102
RTVSPost2010Prop31
280
     0
102
RTVSPost2010PropOp31
 70
     1
102
RTVSPost2010Prop32
280
     0
102
RTVSPost2010PropOp32
 70
     1
102
RTVSPost2010Prop33
280
     0
102
RTVSPost2010PropOp33
 70
     1
102
RTVSPost2010Prop34
280
     0
102
RTVSPost2010PropOp34
 70
     1
102
RTVSPost2010Prop35
280
     0
102
RTVSPost2010PropOp35
 70
     1
102
RTVSPost2010Prop36
280
     0
102
RTVSPost2010PropOp36
 70
     1
102
RTVSPost2010Prop37
 90
       50
102
RTVSPost2010PropOp37
 70
     1
102
RTVSPost2010Prop38
140
0.0
102
RTVSPost2010PropOp38
 70
     1
102
RTVSPost2010Prop39
140
1.0
102
RTVSPost2010PropOp39
 70
     1
102
RTVSPost2010Prop40
 90
        0
102
RTVSPost2010PropOp40
 70
     1
102
RTVSPost2010Prop41ColorIndex
 90
       18
102
RTVSPost2010Prop41ColorRGB
 90
        0
102
RTVSPost2010PropOp41
 70
     1
102
RTVSPost2010Prop42
 90
       50
102
RTVSPost2010PropOp42
 70
     1
102
RTVSPost2010Prop43
 90
        3
102
RTVSPost2010PropOp43
 70
     1
102
RTVSPost2010Prop44ColorIndex
 90
        5
102
RTVSPost2010Prop44ColorRGB
 90
      255
102
RTVSPost2010PropOp44
 70
     1
102
RTVSPost2010Prop45
280
     0
102
RTVSPost2010PropOp45
 70
     1
102
RTVSPost2010Prop46
 90
       50
102
RTVSPost2010PropOp46
 70
     1
102
RTVSPost2010Prop47
 90
       50
102
RTVSPost2010PropOp47
 70
     1
102
RTVSPost2010Prop48
 90
       50
102
RTVSPost2010PropOp48
 70
     1
102
RTVSPost2010Prop49
280
     0
102
RTVSPost2010PropOp49
 70
     1
102
RTVSPost2010Prop50
 90
       50
102
RTVSPost2010PropOp50
 70
     1
102
RTVSPost2010Prop51ColorIndex
 90
      256
102
RTVSPost2010Prop51ColorRGB
 90
-16777216
102
RTVSPost2010PropOp51
 70
     0
102
RTVSPost2010Prop52
140
1.0
102
RTVSPost2010PropOp52
 70
     0
102
RTVSPost2010Prop53
 90
        2
102
RTVSPost2010PropOp53
 70
     1
102
RTVSPost2010Prop54
  1
strokes_ogs.tif
102
RTVSPost2010PropOp54
 70
     1
102
RTVSPost2010Prop55
280
     0
102
RTVSPost2010PropOp55
 70
     1
102
RTVSPost2010Prop56
140
1.0
102
RTVSPost2010PropOp56
 70
     1
102
RTVSPost2010Prop57
140
1.0
102
RTVSPost2010PropOp57
 70
     1
  0
XRECORD
  5
5BB
102
{ACAD_REACTORS
330
5BA
102
}
330
5BA
100
AcDbXrecord
280
     1
102
RTVSPropertyOp0
 70
     1
102
RTVSPropertyOp1
 70
     1
102
RTVSPropertyOp2
 70
     1
102
RTVSPropertyOp3
 70
     1
102
RTVSPropertyOp4
 70
     1
102
RTVSPropertyOp5
 70
     1
102
RTVSPropertyOp6
 70
     1
102
RTVSPropertyOp7
 70
     1
102
RTVSPropertyOp8
 70
     1
102
RTVSPropertyOp9
 70
     1
102
RTVSPropertyOp10
 70
     1
102
RTVSPropertyOp11
 70
     1
102
RTVSPropertyOp12
 70
     1
102
RTVSPropertyOp13
 70
     1
102
RTVSPropertyOp14
 70
     1
102
RTVSPropertyOp15
 70
     1
102
RTVSPropertyOp16
 70
     1
102
RTVSPropertyOp17
 70
     1
102
RTVSPropertyOp18
 70
     1
102
RTVSPropertyOp19
 70
     1
102
RTVSPropertyOp20
 70
     1
102
RTVSPropertyOp21
 70
     1
102
RTVSPropertyOp22
 70
     1
102
RTVSPropertyOp23
 70
     1
102
RTVSPropertyOp24
 70
     1
102
RTVSPropertyOp25
 70
     1
102
RTVSPropertyOp26
 70
     1
102
RTVSPropertyOp27
 70
     1
102
RTVSPropertyOp28
 70
     1
102
RTVSPropertyOp29
 70
     1
102
RTVSPropertyOp30
 70
     1
102
RTVSPropertyOp31
 70
     1
102
RTVSPropertyOp32
 70
     1
102
RTVSPropertyOp33
 70
     1
102
RTVSPropertyOp34
 70
     1
102
RTVSPropertyOp35
 70
     1
102
RTVSPropertyOp36
 70
     1
102
RTVSPropertyOp37
 70
     1
102
RTVSPropertyOp38
 70
     1
102
RTVSPropertyOp39
 70
     1
102
RTVSPropertyOp40
 70
     1
102
RTVSPropertyOp41
 70
     1
102
RTVSPropertyOp42
 70
     1
102
RTVSPropertyOp43
 70
     1
102
RTVSPropertyOp44
 70
     1
102
RTVSPropertyOp45
 70
     1
102
RTVSPropertyOp46
 70
     1
102
RTVSPropertyOp47
 70
     1
102
RTVSPropertyOp48
 70
     1
102
RTVSPropertyOp49
 70
     1
102
RTVSPropertyOp50
 70
     1
102
RTVSPropertyOp51
 70
     0
102
RTVSPropertyOp52
 70
     0
102
RTVSPropertyOp53
 70
     1
102
RTVSPropertyOp54
 70
     1
102
RTVSPropertyOp55
 70
     1
102
RTVSPropertyOp56
 70
     1
102
RTVSPropertyOp57
 70
     1
102
RTVSPost2010Prop28
280
     0
102
RTVSPost2010PropOp28
 70
     1
102
RTVSPost2010Prop29
280
     1
102
RTVSPost2010PropOp29
 70
     1
102
RTVSPost2010Prop30
280
     1
102
RTVSPost2010PropOp30
 70
     1
102
RTVSPost2010Prop31
280
     0
102
RTVSPost2010PropOp31
 70
     1
102
RTVSPost2010Prop32
280
     0
102
RTVSPost2010PropOp32
 70
     1
102
RTVSPost2010Prop33
280
     0
102
RTVSPost2010PropOp33
 70
     1
102
RTVSPost2010Prop34
280
     0
102
RTVSPost2010PropOp34
 70
     1
102
RTVSPost2010Prop35
280
     0
102
RTVSPost2010PropOp35
 70
     1
102
RTVSPost2010Prop36
280
     0
102
RTVSPost2010PropOp36
 70
     1
102
RTVSPost2010Prop37
 90
       50
102
RTVSPost2010PropOp37
 70
     1
102
RTVSPost2010Prop38
140
0.0
102
RTVSPost2010PropOp38
 70
     1
102
RTVSPost2010Prop39
140
1.0
102
RTVSPost2010PropOp39
 70
     1
102
RTVSPost2010Prop40
 90
        0
102
RTVSPost2010PropOp40
 70
     1
102
RTVSPost2010Prop41ColorIndex
 90
       18
102
RTVSPost2010Prop41ColorRGB
 90
        0
102
RTVSPost2010PropOp41
 70
     1
102
RTVSPost2010Prop42
 90
       50
102
RTVSPost2010PropOp42
 70
     1
102
RTVSPost2010Prop43
 90
        3
102
RTVSPost2010PropOp43
 70
     1
102
RTVSPost2010Prop44ColorIndex
 90
        5
102
RTVSPost2010Prop44ColorRGB
 90
      255
102
RTVSPost2010PropOp44
 70
     1
102
RTVSPost2010Prop45
280
     0
102
RTVSPost2010PropOp45
 70
     1
102
RTVSPost2010Prop46
 90
       50
102
RTVSPost2010PropOp46
 70
     1
102
RTVSPost2010Prop47
 90
       50
102
RTVSPost2010PropOp47
 70
     1
102
RTVSPost2010Prop48
 90
       50
102
RTVSPost2010PropOp48
 70
     1
102
RTVSPost2010Prop49
280
     0
102
RTVSPost2010PropOp49
 70
     1
102
RTVSPost2010Prop50
 90
       50
102
RTVSPost2010PropOp50
 70
     1
102
RTVSPost2010Prop51ColorIndex
 90
      256
102
RTVSPost2010Prop51ColorRGB
 90
-16777216
102
RTVSPost2010PropOp51
 70
     0
102
RTVSPost2010Prop52
140
1.0
102
RTVSPost2010PropOp52
 70
     0
102
RTVSPost2010Prop53
 90
        2
102
RTVSPost2010PropOp53
 70
     1
102
RTVSPost2010Prop54
  1
strokes_ogs.tif
102
RTVSPost2010PropOp54
 70
     1
102
RTVSPost2010Prop55
280
     0
102
RTVSPost2010PropOp55
 70
     1
102
RTVSPost2010Prop56
140
1.0
102
RTVSPost2010PropOp56
 70
     1
102
RTVSPost2010Prop57
140
1.0
102
RTVSPost2010PropOp57
 70
     1
  0
XRECORD
  5
5BD
102
{ACAD_REACTORS
330
5BC
102
}
330
5BC
100
AcDbXrecord
280
     1
102
RTVSPropertyOp0
 70
     1
102
RTVSPropertyOp1
 70
     1
102
RTVSPropertyOp2
 70
     1
102
RTVSPropertyOp3
 70
     1
102
RTVSPropertyOp4
 70
     1
102
RTVSPropertyOp5
 70
     1
102
RTVSPropertyOp6
 70
     1
102
RTVSPropertyOp7
 70
     1
102
RTVSPropertyOp8
 70
     1
102
RTVSPropertyOp9
 70
     1
102
RTVSPropertyOp10
 70
     1
102
RTVSPropertyOp11
 70
     1
102
RTVSPropertyOp12
 70
     1
102
RTVSPropertyOp13
 70
     1
102
RTVSPropertyOp14
 70
     1
102
RTVSPropertyOp15
 70
     1
102
RTVSPropertyOp16
 70
     1
102
RTVSPropertyOp17
 70
     1
102
RTVSPropertyOp18
 70
     1
102
RTVSPropertyOp19
 70
     1
102
RTVSPropertyOp20
 70
     1
102
RTVSPropertyOp21
 70
     1
102
RTVSPropertyOp22
 70
     1
102
RTVSPropertyOp23
 70
     1
102
RTVSPropertyOp24
 70
     1
102
RTVSPropertyOp25
 70
     1
102
RTVSPropertyOp26
 70
     1
102
RTVSPropertyOp27
 70
     1
102
RTVSPropertyOp28
 70
     1
102
RTVSPropertyOp29
 70
     1
102
RTVSPropertyOp30
 70
     1
102
RTVSPropertyOp31
 70
     1
102
RTVSPropertyOp32
 70
     1
102
RTVSPropertyOp33
 70
     1
102
RTVSPropertyOp34
 70
     1
102
RTVSPropertyOp35
 70
     1
102
RTVSPropertyOp36
 70
     1
102
RTVSPropertyOp37
 70
     1
102
RTVSPropertyOp38
 70
     1
102
RTVSPropertyOp39
 70
     1
102
RTVSPropertyOp40
 70
     1
102
RTVSPropertyOp41
 70
     1
102
RTVSPropertyOp42
 70
     1
102
RTVSPropertyOp43
 70
     1
102
RTVSPropertyOp44
 70
     1
102
RTVSPropertyOp45
 70
     1
102
RTVSPropertyOp46
 70
     1
102
RTVSPropertyOp47
 70
     1
102
RTVSPropertyOp48
 70
     1
102
RTVSPropertyOp49
 70
     1
102
RTVSPropertyOp50
 70
     1
102
RTVSPropertyOp51
 70
     0
102
RTVSPropertyOp52
 70
     0
102
RTVSPropertyOp53
 70
     1
102
RTVSPropertyOp54
 70
     1
102
RTVSPropertyOp55
 70
     1
102
RTVSPropertyOp56
 70
     1
102
RTVSPropertyOp57
 70
     1
102
RTVSPost2010Prop28
280
     0
102
RTVSPost2010PropOp28
 70
     1
102
RTVSPost2010Prop29
280
     1
102
RTVSPost2010PropOp29
 70
     1
102
RTVSPost2010Prop30
280
     1
102
RTVSPost2010PropOp30
 70
     1
102
RTVSPost2010Prop31
280
     0
102
RTVSPost2010PropOp31
 70
     1
102
RTVSPost2010Prop32
280
     0
102
RTVSPost2010PropOp32
 70
     1
102
RTVSPost2010Prop33
280
     0
102
RTVSPost2010PropOp33
 70
     1
102
RTVSPost2010Prop34
280
     0
102
RTVSPost2010PropOp34
 70
     1
102
RTVSPost2010Prop35
280
     0
102
RTVSPost2010PropOp35
 70
     1
102
RTVSPost2010Prop36
280
     0
102
RTVSPost2010PropOp36
 70
     1
102
RTVSPost2010Prop37
 90
       50
102
RTVSPost2010PropOp37
 70
     1
102
RTVSPost2010Prop38
140
0.0
102
RTVSPost2010PropOp38
 70
     1
102
RTVSPost2010Prop39
140
1.0
102
RTVSPost2010PropOp39
 70
     1
102
RTVSPost2010Prop40
 90
        0
102
RTVSPost2010PropOp40
 70
     1
102
RTVSPost2010Prop41ColorIndex
 90
       18
102
RTVSPost2010Prop41ColorRGB
 90
        0
102
RTVSPost2010PropOp41
 70
     1
102
RTVSPost2010Prop42
 90
       50
102
RTVSPost2010PropOp42
 70
     1
102
RTVSPost2010Prop43
 90
        3
102
RTVSPost2010PropOp43
 70
     1
102
RTVSPost2010Prop44ColorIndex
 90
        5
102
RTVSPost2010Prop44ColorRGB
 90
      255
102
RTVSPost2010PropOp44
 70
     1
102
RTVSPost2010Prop45
280
     0
102
RTVSPost2010PropOp45
 70
     1
102
RTVSPost2010Prop46
 90
       50
102
RTVSPost2010PropOp46
 70
     1
102
RTVSPost2010Prop47
 90
       50
102
RTVSPost2010PropOp47
 70
     1
102
RTVSPost2010Prop48
 90
       50
102
RTVSPost2010PropOp48
 70
     1
102
RTVSPost2010Prop49
280
     0
102
RTVSPost2010PropOp49
 70
     1
102
RTVSPost2010Prop50
 90
       50
102
RTVSPost2010PropOp50
 70
     1
102
RTVSPost2010Prop51ColorIndex
 90
      256
102
RTVSPost2010Prop51ColorRGB
 90
-16777216
102
RTVSPost2010PropOp51
 70
     0
102
RTVSPost2010Prop52
140
1.0
102
RTVSPost2010PropOp52
 70
     0
102
RTVSPost2010Prop53
 90
        2
102
RTVSPost2010PropOp53
 70
     1
102
RTVSPost2010Prop54
  1
strokes_ogs.tif
102
RTVSPost2010PropOp54
 70
     1
102
RTVSPost2010Prop55
280
     0
102
RTVSPost2010PropOp55
 70
     1
102
RTVSPost2010Prop56
140
1.0
102
RTVSPost2010PropOp56
 70
     1
102
RTVSPost2010Prop57
140
1.0
102
RTVSPost2010PropOp57
 70
     1
  0
XRECORD
  5
5AD
102
{ACAD_REACTORS
330
5AC
102
}
330
5AC
100
AcDbXrecord
280
     1
102
RTVSPropertyOp0
 70
     1
102
RTVSPropertyOp1
 70
     1
102
RTVSPropertyOp2
 70
     1
102
RTVSPropertyOp3
 70
     1
102
RTVSPropertyOp4
 70
     1
102
RTVSPropertyOp5
 70
     1
102
RTVSPropertyOp6
 70
     1
102
RTVSPropertyOp7
 70
     1
102
RTVSPropertyOp8
 70
     1
102
RTVSPropertyOp9
 70
     1
102
RTVSPropertyOp10
 70
     1
102
RTVSPropertyOp11
 70
     1
102
RTVSPropertyOp12
 70
     1
102
RTVSPropertyOp13
 70
     1
102
RTVSPropertyOp14
 70
     1
102
RTVSPropertyOp15
 70
     1
102
RTVSPropertyOp16
 70
     1
102
RTVSPropertyOp17
 70
     1
102
RTVSPropertyOp18
 70
     1
102
RTVSPropertyOp19
 70
     1
102
RTVSPropertyOp20
 70
     1
102
RTVSPropertyOp21
 70
     1
102
RTVSPropertyOp22
 70
     1
102
RTVSPropertyOp23
 70
     1
102
RTVSPropertyOp24
 70
     1
102
RTVSPropertyOp25
 70
     1
102
RTVSPropertyOp26
 70
     1
102
RTVSPropertyOp27
 70
     1
102
RTVSPropertyOp28
 70
     1
102
RTVSPropertyOp29
 70
     1
102
RTVSPropertyOp30
 70
     1
102
RTVSPropertyOp31
 70
     1
102
RTVSPropertyOp32
 70
     1
102
RTVSPropertyOp33
 70
     1
102
RTVSPropertyOp34
 70
     1
102
RTVSPropertyOp35
 70
     1
102
RTVSPropertyOp36
 70
     1
102
RTVSPropertyOp37
 70
     1
102
RTVSPropertyOp38
 70
     1
102
RTVSPropertyOp39
 70
     1
102
RTVSPropertyOp40
 70
     1
102
RTVSPropertyOp41
 70
     1
102
RTVSPropertyOp42
 70
     1
102
RTVSPropertyOp43
 70
     1
102
RTVSPropertyOp44
 70
     1
102
RTVSPropertyOp45
 70
     1
102
RTVSPropertyOp46
 70
     1
102
RTVSPropertyOp47
 70
     1
102
RTVSPropertyOp48
 70
     1
102
RTVSPropertyOp49
 70
     1
102
RTVSPropertyOp50
 70
     1
102
RTVSPropertyOp51
 70
     0
102
RTVSPropertyOp52
 70
     0
102
RTVSPropertyOp53
 70
     1
102
RTVSPropertyOp54
 70
     1
102
RTVSPropertyOp55
 70
     1
102
RTVSPropertyOp56
 70
     1
102
RTVSPropertyOp57
 70
     1
102
RTVSPost2010Prop28
280
     0
102
RTVSPost2010PropOp28
 70
     1
102
RTVSPost2010Prop29
280
     1
102
RTVSPost2010PropOp29
 70
     1
102
RTVSPost2010Prop30
280
     1
102
RTVSPost2010PropOp30
 70
     1
102
RTVSPost2010Prop31
280
     0
102
RTVSPost2010PropOp31
 70
     1
102
RTVSPost2010Prop32
280
     0
102
RTVSPost2010PropOp32
 70
     1
102
RTVSPost2010Prop33
280
     0
102
RTVSPost2010PropOp33
 70
     1
102
RTVSPost2010Prop34
280
     0
102
RTVSPost2010PropOp34
 70
     1
102
RTVSPost2010Prop35
280
     0
102
RTVSPost2010PropOp35
 70
     1
102
RTVSPost2010Prop36
280
     0
102
RTVSPost2010PropOp36
 70
     1
102
RTVSPost2010Prop37
 90
       50
102
RTVSPost2010PropOp37
 70
     1
102
RTVSPost2010Prop38
140
0.0
102
RTVSPost2010PropOp38
 70
     1
102
RTVSPost2010Prop39
140
1.0
102
RTVSPost2010PropOp39
 70
     1
102
RTVSPost2010Prop40
 90
        0
102
RTVSPost2010PropOp40
 70
     1
102
RTVSPost2010Prop41ColorIndex
 90
       18
102
RTVSPost2010Prop41ColorRGB
 90
        0
102
RTVSPost2010PropOp41
 70
     1
102
RTVSPost2010Prop42
 90
       50
102
RTVSPost2010PropOp42
 70
     1
102
RTVSPost2010Prop43
 90
        3
102
RTVSPost2010PropOp43
 70
     1
102
RTVSPost2010Prop44ColorIndex
 90
        5
102
RTVSPost2010Prop44ColorRGB
 90
      255
102
RTVSPost2010PropOp44
 70
     1
102
RTVSPost2010Prop45
280
     0
102
RTVSPost2010PropOp45
 70
     1
102
RTVSPost2010Prop46
 90
       50
102
RTVSPost2010PropOp46
 70
     1
102
RTVSPost2010Prop47
 90
       50
102
RTVSPost2010PropOp47
 70
     1
102
RTVSPost2010Prop48
 90
       50
102
RTVSPost2010PropOp48
 70
     1
102
RTVSPost2010Prop49
280
     0
102
RTVSPost2010PropOp49
 70
     1
102
RTVSPost2010Prop50
 90
       50
102
RTVSPost2010PropOp50
 70
     1
102
RTVSPost2010Prop51ColorIndex
 90
      256
102
RTVSPost2010Prop51ColorRGB
 90
-16777216
102
RTVSPost2010PropOp51
 70
     0
102
RTVSPost2010Prop52
140
1.0
102
RTVSPost2010PropOp52
 70
     0
102
RTVSPost2010Prop53
 90
        2
102
RTVSPost2010PropOp53
 70
     1
102
RTVSPost2010Prop54
  1
strokes_ogs.tif
102
RTVSPost2010PropOp54
 70
     1
102
RTVSPost2010Prop55
280
     0
102
RTVSPost2010PropOp55
 70
     1
102
RTVSPost2010Prop56
140
1.0
102
RTVSPost2010PropOp56
 70
     1
102
RTVSPost2010Prop57
140
1.0
102
RTVSPost2010PropOp57
 70
     1
  0
XRECORD
  5
59F
102
{ACAD_REACTORS
330
59E
102
}
330
59E
100
AcDbXrecord
280
     1
102
RTVSPropertyOp0
 70
     1
102
RTVSPropertyOp1
 70
     1
102
RTVSPropertyOp2
 70
     1
102
RTVSPropertyOp3
 70
     1
102
RTVSPropertyOp4
 70
     1
102
RTVSPropertyOp5
 70
     1
102
RTVSPropertyOp6
 70
     1
102
RTVSPropertyOp7
 70
     1
102
RTVSPropertyOp8
 70
     1
102
RTVSPropertyOp9
 70
     1
102
RTVSPropertyOp10
 70
     1
102
RTVSPropertyOp11
 70
     1
102
RTVSPropertyOp12
 70
     1
102
RTVSPropertyOp13
 70
     1
102
RTVSPropertyOp14
 70
     1
102
RTVSPropertyOp15
 70
     1
102
RTVSPropertyOp16
 70
     1
102
RTVSPropertyOp17
 70
     1
102
RTVSPropertyOp18
 70
     1
102
RTVSPropertyOp19
 70
     1
102
RTVSPropertyOp20
 70
     1
102
RTVSPropertyOp21
 70
     1
102
RTVSPropertyOp22
 70
     1
102
RTVSPropertyOp23
 70
     1
102
RTVSPropertyOp24
 70
     1
102
RTVSPropertyOp25
 70
     1
102
RTVSPropertyOp26
 70
     1
102
RTVSPropertyOp27
 70
     1
102
RTVSPropertyOp28
 70
     1
102
RTVSPropertyOp29
 70
     1
102
RTVSPropertyOp30
 70
     1
102
RTVSPropertyOp31
 70
     1
102
RTVSPropertyOp32
 70
     1
102
RTVSPropertyOp33
 70
     1
102
RTVSPropertyOp34
 70
     1
102
RTVSPropertyOp35
 70
     1
102
RTVSPropertyOp36
 70
     1
102
RTVSPropertyOp37
 70
     1
102
RTVSPropertyOp38
 70
     1
102
RTVSPropertyOp39
 70
     1
102
RTVSPropertyOp40
 70
     1
102
RTVSPropertyOp41
 70
     1
102
RTVSPropertyOp42
 70
     1
102
RTVSPropertyOp43
 70
     1
102
RTVSPropertyOp44
 70
     1
102
RTVSPropertyOp45
 70
     1
102
RTVSPropertyOp46
 70
     1
102
RTVSPropertyOp47
 70
     1
102
RTVSPropertyOp48
 70
     1
102
RTVSPropertyOp49
 70
     1
102
RTVSPropertyOp50
 70
     1
102
RTVSPropertyOp51
 70
     0
102
RTVSPropertyOp52
 70
     0
102
RTVSPropertyOp53
 70
     1
102
RTVSPropertyOp54
 70
     1
102
RTVSPropertyOp55
 70
     1
102
RTVSPropertyOp56
 70
     1
102
RTVSPropertyOp57
 70
     1
102
RTVSPost2010Prop28
280
     0
102
RTVSPost2010PropOp28
 70
     1
102
RTVSPost2010Prop29
280
     1
102
RTVSPost2010PropOp29
 70
     1
102
RTVSPost2010Prop30
280
     1
102
RTVSPost2010PropOp30
 70
     1
102
RTVSPost2010Prop31
280
     0
102
RTVSPost2010PropOp31
 70
     1
102
RTVSPost2010Prop32
280
     0
102
RTVSPost2010PropOp32
 70
     1
102
RTVSPost2010Prop33
280
     0
102
RTVSPost2010PropOp33
 70
     1
102
RTVSPost2010Prop34
280
     0
102
RTVSPost2010PropOp34
 70
     1
102
RTVSPost2010Prop35
280
     0
102
RTVSPost2010PropOp35
 70
     1
102
RTVSPost2010Prop36
280
     0
102
RTVSPost2010PropOp36
 70
     1
102
RTVSPost2010Prop37
 90
       50
102
RTVSPost2010PropOp37
 70
     1
102
RTVSPost2010Prop38
140
0.0
102
RTVSPost2010PropOp38
 70
     1
102
RTVSPost2010Prop39
140
1.0
102
RTVSPost2010PropOp39
 70
     1
102
RTVSPost2010Prop40
 90
        0
102
RTVSPost2010PropOp40
 70
     1
102
RTVSPost2010Prop41ColorIndex
 90
       18
102
RTVSPost2010Prop41ColorRGB
 90
        0
102
RTVSPost2010PropOp41
 70
     1
102
RTVSPost2010Prop42
 90
       50
102
RTVSPost2010PropOp42
 70
     1
102
RTVSPost2010Prop43
 90
        3
102
RTVSPost2010PropOp43
 70
     1
102
RTVSPost2010Prop44ColorIndex
 90
        5
102
RTVSPost2010Prop44ColorRGB
 90
      255
102
RTVSPost2010PropOp44
 70
     1
102
RTVSPost2010Prop45
280
     0
102
RTVSPost2010PropOp45
 70
     1
102
RTVSPost2010Prop46
 90
       50
102
RTVSPost2010PropOp46
 70
     1
102
RTVSPost2010Prop47
 90
       50
102
RTVSPost2010PropOp47
 70
     1
102
RTVSPost2010Prop48
 90
       50
102
RTVSPost2010PropOp48
 70
     1
102
RTVSPost2010Prop49
280
     0
102
RTVSPost2010PropOp49
 70
     1
102
RTVSPost2010Prop50
 90
       50
102
RTVSPost2010PropOp50
 70
     1
102
RTVSPost2010Prop51ColorIndex
 90
      256
102
RTVSPost2010Prop51ColorRGB
 90
-16777216
102
RTVSPost2010PropOp51
 70
     0
102
RTVSPost2010Prop52
140
1.0
102
RTVSPost2010PropOp52
 70
     0
102
RTVSPost2010Prop53
 90
        2
102
RTVSPost2010PropOp53
 70
     1
102
RTVSPost2010Prop54
  1
strokes_ogs.tif
102
RTVSPost2010PropOp54
 70
     1
102
RTVSPost2010Prop55
280
     0
102
RTVSPost2010PropOp55
 70
     1
102
RTVSPost2010Prop56
140
1.0
102
RTVSPost2010PropOp56
 70
     1
102
RTVSPost2010Prop57
140
1.0
102
RTVSPost2010PropOp57
 70
     1
  0
XRECORD
  5
5BF
102
{ACAD_REACTORS
330
5BE
102
}
330
5BE
100
AcDbXrecord
280
     1
102
RTVSPropertyOp0
 70
     1
102
RTVSPropertyOp1
 70
     1
102
RTVSPropertyOp2
 70
     1
102
RTVSPropertyOp3
 70
     1
102
RTVSPropertyOp4
 70
     1
102
RTVSPropertyOp5
 70
     1
102
RTVSPropertyOp6
 70
     1
102
RTVSPropertyOp7
 70
     1
102
RTVSPropertyOp8
 70
     1
102
RTVSPropertyOp9
 70
     1
102
RTVSPropertyOp10
 70
     1
102
RTVSPropertyOp11
 70
     1
102
RTVSPropertyOp12
 70
     1
102
RTVSPropertyOp13
 70
     1
102
RTVSPropertyOp14
 70
     1
102
RTVSPropertyOp15
 70
     1
102
RTVSPropertyOp16
 70
     1
102
RTVSPropertyOp17
 70
     1
102
RTVSPropertyOp18
 70
     1
102
RTVSPropertyOp19
 70
     1
102
RTVSPropertyOp20
 70
     1
102
RTVSPropertyOp21
 70
     1
102
RTVSPropertyOp22
 70
     1
102
RTVSPropertyOp23
 70
     1
102
RTVSPropertyOp24
 70
     1
102
RTVSPropertyOp25
 70
     1
102
RTVSPropertyOp26
 70
     1
102
RTVSPropertyOp27
 70
     1
102
RTVSPropertyOp28
 70
     1
102
RTVSPropertyOp29
 70
     1
102
RTVSPropertyOp30
 70
     1
102
RTVSPropertyOp31
 70
     1
102
RTVSPropertyOp32
 70
     1
102
RTVSPropertyOp33
 70
     1
102
RTVSPropertyOp34
 70
     1
102
RTVSPropertyOp35
 70
     1
102
RTVSPropertyOp36
 70
     1
102
RTVSPropertyOp37
 70
     1
102
RTVSPropertyOp38
 70
     1
102
RTVSPropertyOp39
 70
     1
102
RTVSPropertyOp40
 70
     1
102
RTVSPropertyOp41
 70
     1
102
RTVSPropertyOp42
 70
     1
102
RTVSPropertyOp43
 70
     1
102
RTVSPropertyOp44
 70
     1
102
RTVSPropertyOp45
 70
     1
102
RTVSPropertyOp46
 70
     1
102
RTVSPropertyOp47
 70
     1
102
RTVSPropertyOp48
 70
     1
102
RTVSPropertyOp49
 70
     1
102
RTVSPropertyOp50
 70
     1
102
RTVSPropertyOp51
 70
     0
102
RTVSPropertyOp52
 70
     0
102
RTVSPropertyOp53
 70
     1
102
RTVSPropertyOp54
 70
     1
102
RTVSPropertyOp55
 70
     1
102
RTVSPropertyOp56
 70
     1
102
RTVSPropertyOp57
 70
     1
102
RTVSPost2010Prop28
280
     0
102
RTVSPost2010PropOp28
 70
     1
102
RTVSPost2010Prop29
280
     1
102
RTVSPost2010PropOp29
 70
     1
102
RTVSPost2010Prop30
280
     1
102
RTVSPost2010PropOp30
 70
     1
102
RTVSPost2010Prop31
280
     0
102
RTVSPost2010PropOp31
 70
     1
102
RTVSPost2010Prop32
280
     0
102
RTVSPost2010PropOp32
 70
     1
102
RTVSPost2010Prop33
280
     0
102
RTVSPost2010PropOp33
 70
     1
102
RTVSPost2010Prop34
280
     0
102
RTVSPost2010PropOp34
 70
     1
102
RTVSPost2010Prop35
280
     0
102
RTVSPost2010PropOp35
 70
     1
102
RTVSPost2010Prop36
280
     0
102
RTVSPost2010PropOp36
 70
     1
102
RTVSPost2010Prop37
 90
       50
102
RTVSPost2010PropOp37
 70
     1
102
RTVSPost2010Prop38
140
0.0
102
RTVSPost2010PropOp38
 70
     1
102
RTVSPost2010Prop39
140
1.0
102
RTVSPost2010PropOp39
 70
     1
102
RTVSPost2010Prop40
 90
        0
102
RTVSPost2010PropOp40
 70
     1
102
RTVSPost2010Prop41ColorIndex
 90
       18
102
RTVSPost2010Prop41ColorRGB
 90
        0
102
RTVSPost2010PropOp41
 70
     1
102
RTVSPost2010Prop42
 90
       50
102
RTVSPost2010PropOp42
 70
     1
102
RTVSPost2010Prop43
 90
        3
102
RTVSPost2010PropOp43
 70
     1
102
RTVSPost2010Prop44ColorIndex
 90
        5
102
RTVSPost2010Prop44ColorRGB
 90
      255
102
RTVSPost2010PropOp44
 70
     1
102
RTVSPost2010Prop45
280
     0
102
RTVSPost2010PropOp45
 70
     1
102
RTVSPost2010Prop46
 90
       50
102
RTVSPost2010PropOp46
 70
     1
102
RTVSPost2010Prop47
 90
       50
102
RTVSPost2010PropOp47
 70
     1
102
RTVSPost2010Prop48
 90
       50
102
RTVSPost2010PropOp48
 70
     1
102
RTVSPost2010Prop49
280
     0
102
RTVSPost2010PropOp49
 70
     1
102
RTVSPost2010Prop50
 90
       50
102
RTVSPost2010PropOp50
 70
     1
102
RTVSPost2010Prop51ColorIndex
 90
      256
102
RTVSPost2010Prop51ColorRGB
 90
-16777216
102
RTVSPost2010PropOp51
 70
     0
102
RTVSPost2010Prop52
140
1.0
102
RTVSPost2010PropOp52
 70
     0
102
RTVSPost2010Prop53
 90
        2
102
RTVSPost2010PropOp53
 70
     1
102
RTVSPost2010Prop54
  1
strokes_ogs.tif
102
RTVSPost2010PropOp54
 70
     1
102
RTVSPost2010Prop55
280
     0
102
RTVSPost2010PropOp55
 70
     1
102
RTVSPost2010Prop56
140
1.0
102
RTVSPost2010PropOp56
 70
     1
102
RTVSPost2010Prop57
140
1.0
102
RTVSPost2010PropOp57
 70
     1
  0
ENDSEC
  0
EOF
