  0
SECTION
  2
HEADER
  9
$ACADVER
  1
AC1015
  9
$ACADMAINTVER
 70
     6
  9
$DWGCODEPAGE
  3
ANSI_932
  9
$INSBASE
 10
422.8101138723018
 20
305.6294857352502
 30
0.0
  9
$EXTMIN
 10
61.32261456566994
 20
11.50876247708459
 30
0.0
  9
$EXTMAX
 10
367.1499051280804
 20
308.5041319647019
 30
0.0
  9
$LIMMIN
 10
0.0
 20
0.0
  9
$LIMMAX
 10
816.5000000000001
 20
565.0
  9
$ORTHOMODE
 70
     0
  9
$REGENMODE
 70
     1
  9
$FILLMODE
 70
     1
  9
$QTEXTMODE
 70
     0
  9
$MIRRTEXT
 70
     1
  9
$LTSCALE
 40
20.0
  9
$ATTMODE
 70
     1
  9
$TEXTSIZE
 40
4.5
  9
$TRACEWID
 40
0.05
  9
$TEXTSTYLE
  7
KANJI
  9
$CLAYER
  8
2
  9
$CELTYPE
  6
BYLAYER
  9
$CECOLOR
 62
   256
  9
$CELTSCALE
 40
1.0
  9
$DISPSILH
 70
     0
  9
$DIMSCALE
 40
1.0
  9
$DIMASZ
 40
2.0
  9
$DIMEXO
 40
0.5
  9
$DIMDLI
 40
0.0
  9
$DIMRND
 40
0.0
  9
$DIMDLE
 40
0.0
  9
$DIMEXE
 40
1.0
  9
$DIMTP
 40
0.0
  9
$DIMTM
 40
0.0
  9
$DIMTXT
 40
3.0
  9
$DIMCEN
 40
0.09
  9
$DIMTSZ
 40
0.0
  9
$DIMTOL
 70
     0
  9
$DIMLIM
 70
     0
  9
$DIMTIH
 70
     0
  9
$DIMTOH
 70
     0
  9
$DIMSE1
 70
     0
  9
$DIMSE2
 70
     0
  9
$DIMTAD
 70
     0
  9
$DIMZIN
 70
     8
  9
$DIMBLK
  1

  9
$DIMASO
 70
     0
  9
$DIMSHO
 70
     0
  9
$DIMPOST
  1

  9
$DIMAPOST
  1

  9
$DIMALT
 70
     0
  9
$DIMALTD
 70
     2
  9
$DIMALTF
 40
25.4
  9
$DIMLFAC
 40
1.0
  9
$DIMTOFL
 70
     1
  9
$DIMTVP
 40
1.0
  9
$DIMTIX
 70
     1
  9
$DIMSOXD
 70
     1
  9
$DIMSAH
 70
     0
  9
$DIMBLK1
  1

  9
$DIMBLK2
  1

  9
$DIMSTYLE
  2
STANDARD
  9
$DIMCLRD
 70
   256
  9
$DIMCLRE
 70
   256
  9
$DIMCLRT
 70
   256
  9
$DIMTFAC
 40
1.0
  9
$DIMGAP
 40
0.09
  9
$DIMJUST
 70
     0
  9
$DIMSD1
 70
     0
  9
$DIMSD2
 70
     0
  9
$DIMTOLJ
 70
     1
  9
$DIMTZIN
 70
     0
  9
$DIMALTZ
 70
     0
  9
$DIMALTTZ
 70
     0
  9
$DIMUPT
 70
     0
  9
$DIMDEC
 70
     1
  9
$DIMTDEC
 70
     4
  9
$DIMALTU
 70
     2
  9
$DIMALTTD
 70
     2
  9
$DIMTXSTY
  7
STANDARD
  9
$DIMAUNIT
 70
     0
  9
$DIMADEC
 70
     0
  9
$DIMALTRND
 40
0.0
  9
$DIMAZIN
 70
     0
  9
$DIMDSEP
 70
    46
  9
$DIMATFIT
 70
     3
  9
$DIMFRAC
 70
     0
  9
$DIMLDRBLK
  1

  9
$DIMLUNIT
 70
     2
  9
$DIMLWD
 70
    -2
  9
$DIMLWE
 70
    -2
  9
$DIMTMOVE
 70
     0
  9
$LUNITS
 70
     2
  9
$LUPREC
 70
     3
  9
$SKETCHINC
 40
0.1
  9
$FILLETRAD
 40
1.0
  9
$AUNITS
 70
     0
  9
$AUPREC
 70
     3
  9
$MENU
  1
C:\R13\WIN\SUPPORT\ACADFULL
  9
$ELEVATION
 40
0.0
  9
$PELEVATION
 40
0.0
  9
$THICKNESS
 40
0.0
  9
$LIMCHECK
 70
     0
  9
$CHAMFERA
 40
0.0
  9
$CHAMFERB
 40
0.0
  9
$CHAMFERC
 40
0.5
  9
$CHAMFERD
 40
0.7853981633974483
  9
$SKPOLY
 70
     0
  9
$TDCREATE
 40
2457345.815903194
  9
$TDUCREATE
 40
2457345.440903194
  9
$TDUPDATE
 40
2457871.825868484
  9
$TDUUPDATE
 40
2457871.450868484
  9
$TDINDWG
 40
0.0233277894
  9
$TDUSRTIMER
 40
0.0233272917
  9
$USRTIMER
 70
     1
  9
$ANGBASE
 50
0.0
  9
$ANGDIR
 70
     0
  9
$PDMODE
 70
     0
  9
$PDSIZE
 40
0.0
  9
$PLINEWID
 40
0.0
  9
$SPLFRAME
 70
     0
  9
$SPLINETYPE
 70
     6
  9
$SPLINESEGS
 70
     8
  9
$HANDSEED
  5
612
  9
$SURFTAB1
 70
     6
  9
$SURFTAB2
 70
     6
  9
$SURFTYPE
 70
     6
  9
$SURFU
 70
     6
  9
$SURFV
 70
     6
  9
$UCSBASE
  2

  9
$UCSNAME
  2

  9
$UCSORG
 10
0.0
 20
0.0
 30
0.0
  9
$UCSXDIR
 10
1.0
 20
0.0
 30
0.0
  9
$UCSYDIR
 10
0.0
 20
1.0
 30
0.0
  9
$UCSORTHOREF
  2

  9
$UCSORTHOVIEW
 70
     0
  9
$UCSORGTOP
 10
0.0
 20
0.0
 30
0.0
  9
$UCSORGBOTTOM
 10
0.0
 20
0.0
 30
0.0
  9
$UCSORGLEFT
 10
0.0
 20
0.0
 30
0.0
  9
$UCSORGRIGHT
 10
0.0
 20
0.0
 30
0.0
  9
$UCSORGFRONT
 10
0.0
 20
0.0
 30
0.0
  9
$UCSORGBACK
 10
0.0
 20
0.0
 30
0.0
  9
$PUCSBASE
  2

  9
$PUCSNAME
  2

  9
$PUCSORG
 10
0.0
 20
0.0
 30
0.0
  9
$PUCSXDIR
 10
1.0
 20
0.0
 30
0.0
  9
$PUCSYDIR
 10
0.0
 20
1.0
 30
0.0
  9
$PUCSORTHOREF
  2

  9
$PUCSORTHOVIEW
 70
     0
  9
$PUCSORGTOP
 10
0.0
 20
0.0
 30
0.0
  9
$PUCSORGBOTTOM
 10
0.0
 20
0.0
 30
0.0
  9
$PUCSORGLEFT
 10
0.0
 20
0.0
 30
0.0
  9
$PUCSORGRIGHT
 10
0.0
 20
0.0
 30
0.0
  9
$PUCSORGFRONT
 10
0.0
 20
0.0
 30
0.0
  9
$PUCSORGBACK
 10
0.0
 20
0.0
 30
0.0
  9
$USERI1
 70
     0
  9
$USERI2
 70
     0
  9
$USERI3
 70
     0
  9
$USERI4
 70
     0
  9
$USERI5
 70
     0
  9
$USERR1
 40
0.0
  9
$USERR2
 40
0.0
  9
$USERR3
 40
0.0
  9
$USERR4
 40
2448925.372986111
  9
$USERR5
 40
0.04166667
  9
$WORLDVIEW
 70
     1
  9
$SHADEDGE
 70
     3
  9
$SHADEDIF
 70
    70
  9
$TILEMODE
 70
     1
  9
$MAXACTVP
 70
    16
  9
$PINSBASE
 10
0.0
 20
0.0
 30
0.0
  9
$PLIMCHECK
 70
     0
  9
$PEXTMIN
 10
1.000000000000000E+20
 20
1.000000000000000E+20
 30
1.000000000000000E+20
  9
$PEXTMAX
 10
-1.000000000000000E+20
 20
-1.000000000000000E+20
 30
-1.000000000000000E+20
  9
$PLIMMIN
 10
0.0
 20
0.0
  9
$PLIMMAX
 10
12.0
 20
9.0
  9
$UNITMODE
 70
     0
  9
$VISRETAIN
 70
     0
  9
$PLINEGEN
 70
     0
  9
$PSLTSCALE
 70
     0
  9
$TREEDEPTH
 70
  3020
  9
$CMLSTYLE
  2
STANDARD
  9
$CMLJUST
 70
     0
  9
$CMLSCALE
 40
1.0
  9
$PROXYGRAPHICS
 70
     1
  9
$MEASUREMENT
 70
     0
  9
$CELWEIGHT
370
    -1
  9
$ENDCAPS
280
     0
  9
$JOINSTYLE
280
     0
  9
$LWDISPLAY
290
     0
  9
$INSUNITS
 70
     0
  9
$HYPERLINKBASE
  1

  9
$STYLESHEET
  1
monochrome.ctb
  9
$XEDIT
290
     1
  9
$CEPSNTYPE
380
     0
  9
$PSTYLEMODE
290
     1
  9
$FINGERPRINTGUID
  2
{4801EAB1-516B-4B7A-BB61-8FD92F525E75}
  9
$VERSIONGUID
  2
{3B99BE32-FD16-45B3-B606-B45C6CE906FB}
  9
$EXTNAMES
290
     1
  9
$PSVPSCALE
 40
0.0
  9
$OLESTARTUP
290
     0
  0
ENDSEC
  0
SECTION
  2
CLASSES
  0
CLASS
  1
LWPOLYLINE
  2
AcDbPolyline
  3
AutoCAD 2000
 90
        0
280
     0
281
     1
  0
CLASS
  1
ACDBDICTIONARYWDFLT
  2
AcDbDictionaryWithDefault
  3
ObjectDBX Classes
 90
        0
280
     0
281
     0
  0
CLASS
  1
ACDBPLACEHOLDER
  2
AcDbPlaceHolder
  3
ObjectDBX Classes
 90
        0
280
     0
281
     0
  0
CLASS
  1
LAYOUT
  2
AcDbLayout
  3
ObjectDBX Classes
 90
        0
280
     0
281
     0
  0
CLASS
  1
DICTIONARYVAR
  2
AcDbDictionaryVar
  3
ObjectDBX Classes
 90
        0
280
     0
281
     0
  0
CLASS
  1
DUMMY
  2
AcDbLongTransaction
  3
DUMMY
 90
        0
280
     0
281
     0
  0
CLASS
  1
LWPOLYLINE
  2
AcDbPolyline
  3
AutoCAD 2000
 90
        0
280
     0
281
     1
  0
CLASS
  1
HATCH
  2
AcDbHatch
  3
AutoCAD 2000
 90
        0
280
     0
281
     1
  0
CLASS
  1
XRECORD
  2
AcDbXrecord
  3
AutoCAD 2000
 90
        0
280
     0
281
     0
  0
CLASS
  1
DUMMY
  2
AcDbLongTransaction
  3
DUMMY
 90
        0
280
     0
281
     0
  0
CLASS
  1
LWPOLYLINE
  2
AcDbPolyline
  3
AutoCAD 2000
 90
        0
280
     0
281
     1
  0
CLASS
  1
HATCH
  2
AcDbHatch
  3
AutoCAD 2000
 90
        0
280
     0
281
     1
  0
CLASS
  1
XRECORD
  2
AcDbXrecord
  3
AutoCAD 2000
 90
        0
280
     0
281
     0
  0
CLASS
  1
DUMMY
  2
AcDbLongTransaction
  3
DUMMY
 90
        0
280
     0
281
     0
  0
CLASS
  1
LWPOLYLINE
  2
AcDbPolyline
  3
AutoCAD 2000
 90
        0
280
     0
281
     1
  0
CLASS
  1
HATCH
  2
AcDbHatch
  3
AutoCAD 2000
 90
        0
280
     0
281
     1
  0
CLASS
  1
XRECORD
  2
AcDbXrecord
  3
AutoCAD 2000
 90
        0
280
     0
281
     0
  0
CLASS
  1
DUMMY
  2
AcDbLongTransaction
  3
DUMMY
 90
        0
280
     0
281
     0
  0
CLASS
  1
LWPOLYLINE
  2
AcDbPolyline
  3
AutoCAD 2000
 90
        0
280
     0
281
     1
  0
CLASS
  1
HATCH
  2
AcDbHatch
  3
AutoCAD 2000
 90
        0
280
     0
281
     1
  0
CLASS
  1
XRECORD
  2
AcDbXrecord
  3
AutoCAD 2000
 90
        0
280
     0
281
     0
  0
CLASS
  1
DUMMY
  2
AcDbLongTransaction
  3
DUMMY
 90
        0
280
     0
281
     0
  0
CLASS
  1
LWPOLYLINE
  2
AcDbPolyline
  3
AutoCAD 2000
 90
        0
280
     0
281
     1
  0
CLASS
  1
HATCH
  2
AcDbHatch
  3
AutoCAD 2000
 90
        0
280
     0
281
     1
  0
CLASS
  1
XRECORD
  2
AcDbXrecord
  3
AutoCAD 2000
 90
        0
280
     0
281
     0
  0
CLASS
  1
MATERIAL
  2
AcDbMaterial
  3
ObjectDBX Classes
 90
     1153
280
     0
281
     0
  0
CLASS
  1
VISUALSTYLE
  2
AcDbVisualStyle
  3
ObjectDBX Classes
 90
     4095
280
     0
281
     0
  0
CLASS
  1
TABLESTYLE
  2
AcDbTableStyle
  3
ObjectDBX Classes
 90
     4095
280
     0
281
     0
  0
CLASS
  1
SCALE
  2
AcDbScale
  3
ObjectDBX Classes
 90
     1153
280
     0
281
     0
  0
CLASS
  1
MLEADERSTYLE
  2
AcDbMLeaderStyle
  3
ACDB_MLEADERSTYLE_CLASS
 90
     4095
280
     0
281
     0
  0
CLASS
  1
ACDBSECTIONVIEWSTYLE
  2
AcDbSectionViewStyle
  3
ObjectDBX Classes
 90
     1025
280
     0
281
     0
  0
CLASS
  1
ACDBDETAILVIEWSTYLE
  2
AcDbDetailViewStyle
  3
ObjectDBX Classes
 90
     1025
280
     0
281
     0
  0
CLASS
  1
SORTENTSTABLE
  2
AcDbSortentsTable
  3
ObjectDBX Classes
 90
        0
280
     0
281
     0
  0
ENDSEC
  0
SECTION
  2
TABLES
  0
TABLE
  2
VPORT
  5
2D
102
{ACAD_XDICTIONARY
360
5D6
102
}
330
0
100
AcDbSymbolTable
 70
     1
  0
VPORT
  5
2E
330
2D
100
AcDbSymbolTableRecord
100
AcDbViewportTableRecord
  2
*ACTIVE
 70
     0
 10
0.0
 20
0.0
 11
1.0
 21
1.0
 12
312.1681132818281
 22
158.4160663588096
 13
0.0
 23
0.0
 14
1.0
 24
1.0
 15
50.0
 25
50.0
 16
0.0
 26
0.0
 36
1.0
 17
0.0
 27
0.0
 37
0.0
 40
309.5866949684032
 41
2.171641791044776
 42
50.0
 43
0.0
 44
0.0
 50
0.0
 51
0.0
 71
     0
 72
  5000
 73
     1
 74
     0
 75
     0
 76
     0
 77
     0
 78
     0
281
     0
 65
     1
110
0.0
120
0.0
130
0.0
111
1.0
121
0.0
131
0.0
112
0.0
122
1.0
132
0.0
 79
     0
146
0.0
1001
ACAD_NAV_VCDISPLAY
1070
     3
  0
ENDTAB
  0
TABLE
  2
LTYPE
  5
28
330
0
100
AcDbSymbolTable
 70
     2
  0
LTYPE
  5
29
330
28
100
AcDbSymbolTableRecord
100
AcDbLinetypeTableRecord
  2
BYBLOCK
 70
     0
  3

 72
    65
 73
     0
 40
0.0
  0
LTYPE
  5
2A
330
28
100
AcDbSymbolTableRecord
100
AcDbLinetypeTableRecord
  2
BYLAYER
 70
     0
  3

 72
    65
 73
     0
 40
0.0
  0
LTYPE
  5
16
330
28
100
AcDbSymbolTableRecord
100
AcDbLinetypeTableRecord
  2
CONTINUOUS
 70
     0
  3
Solid line
 72
    65
 73
     0
 40
0.0
  0
LTYPE
  5
74
330
28
100
AcDbSymbolTableRecord
100
AcDbLinetypeTableRecord
  2
CENTER
 70
     0
  3
Center ____ _ ____ _ ____ _ ____ _ ____ _ ____
 72
    65
 73
     4
 40
2.0
 49
1.25
 74
     0
 49
-0.25
 74
     0
 49
0.25
 74
     0
 49
-0.25
 74
     0
  0
ENDTAB
  0
TABLE
  2
LAYER
  5
22
102
{ACAD_XDICTIONARY
360
23
102
}
330
0
100
AcDbSymbolTable
 70
     8
  0
LAYER
  5
7
102
{ACAD_XDICTIONARY
360
8
102
}
330
22
100
AcDbSymbolTableRecord
100
AcDbLayerTableRecord
  2
0
 70
     0
 62
     7
  6
CONTINUOUS
370
    -3
390
A
  0
LAYER
  5
2AE
102
{ACAD_XDICTIONARY
360
2AF
102
}
330
22
100
AcDbSymbolTableRecord
100
AcDbLayerTableRecord
  2
1
 70
     0
 62
     9
  6
CONTINUOUS
370
    -3
390
A
  0
LAYER
  5
4E
102
{ACAD_XDICTIONARY
360
4F
102
}
330
22
100
AcDbSymbolTableRecord
100
AcDbLayerTableRecord
  2
2
 70
     0
 62
     4
  6
CONTINUOUS
370
    -3
390
A
  0
LAYER
  5
69
102
{ACAD_XDICTIONARY
360
6A
102
}
330
22
100
AcDbSymbolTableRecord
100
AcDbLayerTableRecord
  2
4
 70
     0
 62
     3
  6
CONTINUOUS
370
    -3
390
A
  0
LAYER
  5
71
102
{ACAD_XDICTIONARY
360
72
102
}
330
22
100
AcDbSymbolTableRecord
100
AcDbLayerTableRecord
  2
L-CENTER
 70
     0
 62
     1
  6
CENTER
370
    -3
390
A
  0
LAYER
  5
78
102
{ACAD_XDICTIONARY
360
79
102
}
330
22
100
AcDbSymbolTableRecord
100
AcDbLayerTableRecord
  2
3
 70
     0
 62
     2
  6
CONTINUOUS
370
    -3
390
A
  0
LAYER
  5
2A7
330
22
100
AcDbSymbolTableRecord
100
AcDbLayerTableRecord
  2
5
 70
     0
 62
     6
  6
CONTINUOUS
370
    -3
390
A
  0
LAYER
  5
574
330
22
100
AcDbSymbolTableRecord
100
AcDbLayerTableRecord
  2
Defpoints
 70
     0
 62
     7
  6
CONTINUOUS
290
     0
370
    -3
390
A
  0
ENDTAB
  0
TABLE
  2
STYLE
  5
25
330
0
100
AcDbSymbolTable
 70
     2
  0
STYLE
  5
26
330
25
100
AcDbSymbolTableRecord
100
AcDbTextStyleTableRecord
  2
STANDARD
 70
     0
 40
0.0
 41
1.0
 50
0.0
 71
     0
 42
1.8
  3
TXT
  4

  0
STYLE
  5
51
330
25
100
AcDbSymbolTableRecord
100
AcDbTextStyleTableRecord
  2
KANJI
 70
     0
 40
0.0
 41
1.0
 50
0.0
 71
     0
 42
4.5
  3
TXT
  4
BIGFONT
  0
ENDTAB
  0
TABLE
  2
VIEW
  5
2B
330
0
100
AcDbSymbolTable
 70
     0
  0
ENDTAB
  0
TABLE
  2
UCS
  5
2C
330
0
100
AcDbSymbolTable
 70
     0
  0
ENDTAB
  0
TABLE
  2
APPID
  5
32
330
0
100
AcDbSymbolTable
 70
     5
  0
APPID
  5
33
330
32
100
AcDbSymbolTableRecord
100
AcDbRegAppTableRecord
  2
ACAD
 70
     0
  0
APPID
  5
31
330
32
100
AcDbSymbolTableRecord
100
AcDbRegAppTableRecord
  2
ACAD_NAV_VCDISPLAY
 70
     0
  0
APPID
  5
1B
330
32
100
AcDbSymbolTableRecord
100
AcDbRegAppTableRecord
  2
ACAD_PSEXT
 70
     0
  0
APPID
  5
420
330
32
100
AcDbSymbolTableRecord
100
AcDbRegAppTableRecord
  2
ACAD_EXEMPT_FROM_CAD_STANDARDS
 70
     0
  0
APPID
  5
55B
330
32
100
AcDbSymbolTableRecord
100
AcDbRegAppTableRecord
  2
ACAD_MLEADERVER
 70
     0
  0
ENDTAB
  0
TABLE
  2
DIMSTYLE
  5
34
330
0
100
AcDbSymbolTable
 70
     1
100
AcDbDimStyleTable
  0
DIMSTYLE
105
35
330
34
100
AcDbSymbolTableRecord
100
AcDbDimStyleTableRecord
  2
STANDARD
 70
     0
178
     0
340
26
  0
ENDTAB
  0
TABLE
  2
BLOCK_RECORD
  5
1
330
0
100
AcDbSymbolTable
 70
     0
  0
BLOCK_RECORD
  5
2
102
{ACAD_XDICTIONARY
360
3
102
}
330
1
100
AcDbSymbolTableRecord
100
AcDbBlockTableRecord
  2
*MODEL_SPACE
340
18
  0
BLOCK_RECORD
  5
1C
330
1
100
AcDbSymbolTableRecord
100
AcDbBlockTableRecord
  2
*PAPER_SPACE
340
21
  0
ENDTAB
  0
ENDSEC
  0
SECTION
  2
BLOCKS
  0
BLOCK
  5
6
330
2
100
AcDbEntity
  8
0
100
AcDbBlockBegin
  2
*MODEL_SPACE
 70
     0
 10
0.0
 20
0.0
 30
0.0
  3
*MODEL_SPACE
  1

  0
ENDBLK
  5
17
330
2
100
AcDbEntity
  8
0
100
AcDbBlockEnd
  0
BLOCK
  5
1F
330
1C
100
AcDbEntity
 67
     1
  8
0
100
AcDbBlockBegin
  2
*PAPER_SPACE
 70
     0
 10
0.0
 20
0.0
 30
0.0
  3
*PAPER_SPACE
  1

  0
ENDBLK
  5
20
330
1C
100
AcDbEntity
 67
     1
  8
0
100
AcDbBlockEnd
  0
ENDSEC
  0
SECTION
  2
ENTITIES
  0
LINE
  5
68
330
2
100
AcDbEntity
  8
4
100
AcDbLine
 10
97.85705420342208
 20
111.6867497862818
 30
0.0
 11
84.85705420342208
 21
111.6867497862818
 31
0.0
  0
LINE
  5
6C
330
2
100
AcDbEntity
  8
4
100
AcDbLine
 10
97.85705420342208
 20
99.68674978628178
 30
0.0
 11
84.85705420342208
 21
99.68674978628178
 31
0.0
  0
LINE
  5
6E
330
2
100
AcDbEntity
  8
4
100
AcDbLine
 10
197.8570542034221
 20
28.68674978628178
 30
0.0
 11
173.8570542034222
 21
28.68674978628178
 31
0.0
  0
LINE
  5
6F
330
2
100
AcDbEntity
  8
4
100
AcDbLine
 10
172.8570542034222
 20
18.68674978628178
 30
0.0
 11
198.8570542034221
 21
18.68674978628178
 31
0.0
  0
LINE
  5
70
330
2
100
AcDbEntity
  8
L-CENTER
 48
0.25
100
AcDbLine
 10
61.32261456566994
 20
105.6867497862818
 30
0.0
 11
226.3914938411742
 21
105.6867497862818
 31
0.0
  0
ARC
  5
A3
330
2
100
AcDbEntity
  8
4
100
AcDbCircle
 10
14.85705420342219
 20
68.68674978628178
 30
0.0
 40
170.0
100
AcDbArc
 50
0.0
 51
11.90463641835897
  0
ARC
  5
A4
330
2
100
AcDbEntity
  8
4
100
AcDbCircle
 10
156.8570542034221
 20
88.18674978628178
 30
0.0
 40
1.0
100
AcDbArc
 50
90.0
 51
180.0
  0
ARC
  5
A5
330
2
100
AcDbEntity
  8
4
100
AcDbCircle
 10
130.8570542034221
 20
88.18674978628178
 30
0.0
 40
1.0
100
AcDbArc
 50
0.0
 51
90.0
  0
ARC
  5
A6
330
2
100
AcDbEntity
  8
4
100
AcDbCircle
 10
143.8570542034221
 20
68.68674978628178
 30
0.0
 40
20.5
100
AcDbArc
 50
90.0
 51
270.0
  0
ARC
  5
A7
330
2
100
AcDbEntity
  8
4
100
AcDbCircle
 10
143.8570542034221
 20
68.68674978628178
 30
0.0
 40
20.5
100
AcDbArc
 50
270.0
 51
90.0
  0
ARC
  5
A8
330
2
100
AcDbEntity
  8
4
100
AcDbCircle
 10
143.8570542034221
 20
68.68674978628178
 30
0.0
 40
28.0
100
AcDbArc
 50
270.0
 51
56.25101140411083
  0
ARC
  5
A9
330
2
100
AcDbEntity
  8
4
100
AcDbCircle
 10
272.857054203422
 20
68.68674978628178
 30
0.0
 40
170.0
100
AcDbArc
 50
168.095363581641
 51
180.0
  0
ARC
  5
AA
330
2
100
AcDbEntity
  8
4
100
AcDbCircle
 10
143.8570542034221
 20
68.68674978628178
 30
0.0
 40
40.0
100
AcDbArc
 50
90.0
 51
270.0
  0
ARC
  5
AB
330
2
100
AcDbEntity
  8
4
100
AcDbCircle
 10
143.8570542034221
 20
68.68674978628178
 30
0.0
 40
28.0
100
AcDbArc
 50
123.7489885958892
 51
270.0
  0
LINE
  5
AC
330
2
100
AcDbEntity
  8
4
100
AcDbLine
 10
188.8570542034221
 20
128.1867497862818
 30
0.0
 11
188.8570542034221
 21
83.18674978628178
 31
0.0
  0
LINE
  5
AD
330
2
100
AcDbEntity
  8
4
100
AcDbLine
 10
98.85705420342208
 20
128.1867497862818
 30
0.0
 11
98.85705420342208
 21
83.18674978628178
 31
0.0
  0
LINE
  5
AE
330
2
100
AcDbEntity
  8
L-CENTER
 48
0.25
100
AcDbLine
 10
143.8570542034221
 20
20.61015862901863
 30
0.0
 11
143.8570542034221
 21
134.562237580917
 31
0.0
  0
ARC
  5
AF
330
2
100
AcDbEntity
  8
4
100
AcDbCircle
 10
143.8570542034221
 20
68.68674978628178
 30
0.0
 40
40.0
100
AcDbArc
 50
270.0
 51
90.0
  0
ARC
  5
B0
330
2
100
AcDbEntity
  8
4
100
AcDbCircle
 10
143.8570542034221
 20
68.68674978628178
 30
0.0
 40
19.0
100
AcDbArc
 50
90.0
 51
270.0
  0
LINE
  5
B1
330
2
100
AcDbEntity
  8
4
100
AcDbLine
 10
116.8570542034221
 20
23.68674978628178
 30
0.0
 11
170.8570542034222
 21
23.68674978628178
 31
0.0
  0
ARC
  5
B2
330
2
100
AcDbEntity
  8
4
100
AcDbCircle
 10
143.8570542034221
 20
197.6867497862818
 30
0.0
 40
170.0
100
AcDbArc
 50
261.3522816298837
 51
278.6477183701163
  0
LINE
  5
B3
330
2
100
AcDbEntity
  8
L-CENTER
 48
0.25
100
AcDbLine
 10
187.7974962140647
 20
68.68674978628178
 30
0.0
 11
99.66439093871941
 21
68.68674978628178
 31
0.0
  0
LINE
  5
B5
330
2
100
AcDbEntity
  8
4
100
AcDbLine
 10
99.85705420342208
 20
34.18674978628178
 30
0.0
 11
99.85705420342208
 21
43.18674978628178
 31
0.0
  0
LINE
  5
B6
330
2
100
AcDbEntity
  8
4
100
AcDbLine
 10
100.8570542034221
 20
46.85832266153568
 30
0.0
 11
100.8570542034221
 21
31.68674978628178
 31
0.0
  0
LINE
  5
B7
330
2
100
AcDbEntity
  8
4
100
AcDbLine
 10
102.8570542034221
 20
68.68674978628178
 30
0.0
 11
102.8570542034221
 21
31.68674978628178
 31
0.0
  0
ARC
  5
B8
330
2
100
AcDbEntity
  8
4
100
AcDbCircle
 10
162.8570542034221
 20
68.68674978628178
 30
0.0
 40
60.0
100
AcDbArc
 50
180.0
 51
219.2983770286993
  0
ARC
  5
B9
330
2
100
AcDbEntity
  8
4
100
AcDbCircle
 10
97.85705420342208
 20
31.68674978628178
 30
0.0
 40
3.0
100
AcDbArc
 50
270.0
 51
0.0
  0
LINE
  5
BA
330
2
100
AcDbEntity
  8
4
100
AcDbLine
 10
89.85705420342208
 20
28.68674978628178
 30
0.0
 11
113.857054203422
 21
28.68674978628178
 31
0.0
  0
LINE
  5
BB
330
2
100
AcDbEntity
  8
L-CENTER
 48
0.25
100
AcDbLine
 10
107.2702845239583
 20
38.68674978628178
 30
0.0
 11
97.19356784332331
 21
38.68674978628178
 31
0.0
  0
LINE
  5
BC
330
2
100
AcDbEntity
  8
4
100
AcDbLine
 10
88.85705420342208
 20
18.68674978628178
 30
0.0
 11
114.8570542034221
 21
18.68674978628178
 31
0.0
  0
LINE
  5
BE
330
2
100
AcDbEntity
  8
L-CENTER
 48
0.25
100
AcDbLine
 10
98.85705420342208
 20
31.68674978628178
 30
0.0
 11
98.85705420342208
 21
15.68674978628178
 31
0.0
  0
LINE
  5
BF
330
2
100
AcDbEntity
  8
4
100
AcDbLine
 10
88.85705420342208
 20
27.68674978628178
 30
0.0
 11
88.85705420342208
 21
18.68674978628178
 31
0.0
  0
ARC
  5
C1
330
2
100
AcDbEntity
  8
4
100
AcDbCircle
 10
89.85705420342208
 20
27.68674978628178
 30
0.0
 40
1.0
100
AcDbArc
 50
90.0
 51
180.0
  0
LINE
  5
C2
330
2
100
AcDbEntity
  8
4
100
AcDbLine
 10
114.857054203422
 20
27.68674978628178
 30
0.0
 11
114.857054203422
 21
18.68674978628178
 31
0.0
  0
ARC
  5
C3
330
2
100
AcDbEntity
  8
4
100
AcDbCircle
 10
116.857054203422
 20
21.68674978628178
 30
0.0
 40
2.0
100
AcDbArc
 50
90.0
 51
180.0
  0
ARC
  5
C4
330
2
100
AcDbEntity
  8
4
100
AcDbCircle
 10
107.857054203422
 20
31.68674978628178
 30
0.0
 40
3.0
100
AcDbArc
 50
270.0
 51
0.0
  0
ARC
  5
C5
330
2
100
AcDbEntity
  8
4
100
AcDbCircle
 10
99.85705420342208
 20
31.68674978628178
 30
0.0
 40
3.0
100
AcDbArc
 50
270.0
 51
0.0
  0
ARC
  5
C6
330
2
100
AcDbEntity
  8
4
100
AcDbCircle
 10
113.857054203422
 20
27.68674978628178
 30
0.0
 40
1.0
100
AcDbArc
 50
0.0
 51
90.0
  0
LINE
  5
C7
330
2
100
AcDbEntity
  8
4
100
AcDbLine
 10
99.85705420342208
 20
34.18674978628178
 30
0.0
 11
100.8570542034221
 21
34.18674978628178
 31
0.0
  0
ARC
  5
C8
330
2
100
AcDbEntity
  8
4
100
AcDbCircle
 10
108.8570542034219
 20
38.22365736282632
 30
0.0
 40
2.0
100
AcDbArc
 50
0.0
 51
29.42870717686714
  0
LINE
  5
C9
330
2
100
AcDbEntity
  8
4
100
AcDbLine
 10
110.8570542034219
 20
38.22365736282643
 30
0.0
 11
110.857054203422
 21
31.68674978628178
 31
0.0
  0
ARC
  5
CA
330
2
100
AcDbEntity
  8
4
100
AcDbCircle
 10
118.7471396143892
 20
32.5852894979746
 30
0.0
 40
3.0
100
AcDbArc
 50
219.2983770286993
 51
261.3522816298844
  0
LINE
  5
CB
330
2
100
AcDbEntity
  8
4
100
AcDbLine
 10
102.3907818795398
 20
83.18674978628178
 30
0.0
 11
98.85705420342208
 21
83.18674978628178
 31
0.0
  0
ARC
  5
CC
330
2
100
AcDbEntity
  8
4
100
AcDbCircle
 10
99.85705420342208
 20
49.68674978628178
 30
0.0
 40
3.0
100
AcDbArc
 50
289.471220634491
 51
0.0
  0
LINE
  5
CD
330
2
100
AcDbEntity
  8
4
100
AcDbLine
 10
99.85705420342208
 20
43.18674978628178
 30
0.0
 11
100.8570542034221
 21
43.18674978628178
 31
0.0
  0
ARC
  5
CE
330
2
100
AcDbEntity
  8
4
100
AcDbCircle
 10
102.3907818795398
 20
82.18674978628178
 30
0.0
 40
1.0
100
AcDbArc
 50
355.4719369861921
 51
90.0
  0
LINE
  5
CF
330
2
100
AcDbEntity
  8
4
100
AcDbLine
 10
184.8570542034221
 20
68.68674978628178
 30
0.0
 11
184.8570542034221
 21
31.68674978628178
 31
0.0
  0
ARC
  5
D0
330
2
100
AcDbEntity
  8
4
100
AcDbCircle
 10
124.8570542034221
 20
68.68674978628178
 30
0.0
 40
60.0
100
AcDbArc
 50
320.7016229713007
 51
0.0
  0
LINE
  5
D2
330
2
100
AcDbEntity
  8
4
100
AcDbLine
 10
193.3860909172374
 20
28.64692803302466
 30
0.0
 11
193.3860909172374
 21
18.64692803302466
 31
0.0
  0
ARC
  5
D3
330
2
100
AcDbEntity
  8
4
100
AcDbCircle
 10
178.642958203422
 20
19.91431978628179
 30
0.0
 40
1.283133
100
AcDbArc
 50
286.9237430000014
 51
37.01255599999936
  0
ARC
  5
D4
330
2
100
AcDbEntity
  8
4
100
AcDbCircle
 10
178.642958203422
 20
19.91431978628179
 30
0.0
 40
1.283133
100
AcDbArc
 50
286.9237430000014
 51
37.01255599999936
  0
LINE
  5
D5
330
2
100
AcDbEntity
  8
L-CENTER
 48
0.25
100
AcDbLine
 10
188.8570542034221
 20
31.68674978628178
 30
0.0
 11
188.8570542034221
 21
15.68674978628178
 31
0.0
  0
LINE
  5
D6
330
2
100
AcDbEntity
  8
4
100
AcDbLine
 10
184.3860909172374
 20
28.64692803302466
 30
0.0
 11
184.3860909172374
 21
18.64692803302466
 31
0.0
  0
LINE
  5
D7
330
2
100
AcDbEntity
  8
4
100
AcDbLine
 10
172.8570542034222
 20
27.68674978628178
 30
0.0
 11
172.8570542034222
 21
18.68674978628178
 31
0.0
  0
ARC
  5
DB
330
2
100
AcDbEntity
  8
4
100
AcDbCircle
 10
179.8570542034222
 20
31.68674978628178
 30
0.0
 40
3.0
100
AcDbArc
 50
180.0
 51
270.0
  0
ARC
  5
DC
330
2
100
AcDbEntity
  8
4
100
AcDbCircle
 10
168.966968792455
 20
32.5852894979746
 30
0.0
 40
3.0
100
AcDbArc
 50
278.6477183701159
 51
320.7016229713008
  0
ARC
  5
DD
330
2
100
AcDbEntity
  8
4
100
AcDbCircle
 10
170.8570542034222
 20
21.68674978628178
 30
0.0
 40
2.0
100
AcDbArc
 50
0.0
 51
90.0
  0
ARC
  5
DE
330
2
100
AcDbEntity
  8
4
100
AcDbCircle
 10
173.8570542034222
 20
27.68674978628178
 30
0.0
 40
1.0
100
AcDbArc
 50
90.0
 51
180.0
  0
LINE
  5
DF
330
2
100
AcDbEntity
  8
4
100
AcDbLine
 10
176.8570542034223
 20
38.22365736282643
 30
0.0
 11
176.8570542034222
 21
31.68674978628178
 31
0.0
  0
ARC
  5
E0
330
2
100
AcDbEntity
  8
4
100
AcDbCircle
 10
178.8570542034223
 20
38.22365736282632
 30
0.0
 40
2.0
100
AcDbArc
 50
150.5712928231331
 51
180.0
  0
ARC
  5
E1
330
2
100
AcDbEntity
  8
4
100
AcDbCircle
 10
187.8570542034221
 20
31.68674978628178
 30
0.0
 40
3.0
100
AcDbArc
 50
180.0
 51
270.0
  0
ARC
  5
E2
330
2
100
AcDbEntity
  8
4
100
AcDbCircle
 10
180.692137203422
 20
21.45918078628176
 30
0.0
 40
1.283133
100
AcDbArc
 50
106.9237559999994
 51
217.0125920000013
  0
ARC
  5
E3
330
2
100
AcDbEntity
  8
4
100
AcDbCircle
 10
180.692137203422
 20
21.45918078628176
 30
0.0
 40
1.283133
100
AcDbArc
 50
106.9237559999994
 51
217.0125920000013
  0
ARC
  5
E4
330
2
100
AcDbEntity
  8
4
100
AcDbCircle
 10
179.9451282034221
 20
23.91431978628179
 30
0.0
 40
1.283133
100
AcDbArc
 50
286.9237430000014
 51
37.01255599999936
  0
ARC
  5
E5
330
2
100
AcDbEntity
  8
4
100
AcDbCircle
 10
179.9451282034221
 20
23.91431978628179
 30
0.0
 40
1.283133
100
AcDbArc
 50
286.9237430000014
 51
37.01255599999936
  0
ARC
  5
E6
330
2
100
AcDbEntity
  8
4
100
AcDbCircle
 10
181.2472822034221
 20
27.91431978628179
 30
0.0
 40
1.283133
100
AcDbArc
 50
286.9237430000014
 51
37.01255599999936
  0
ARC
  5
E7
330
2
100
AcDbEntity
  8
4
100
AcDbCircle
 10
181.2472822034221
 20
27.91431978628179
 30
0.0
 40
1.283133
100
AcDbArc
 50
286.9237430000014
 51
37.01255599999936
  0
ARC
  5
E8
330
2
100
AcDbEntity
  8
4
100
AcDbCircle
 10
181.9943072034221
 20
25.45918078628176
 30
0.0
 40
1.283133
100
AcDbArc
 50
106.9237559999994
 51
217.0125920000013
  0
ARC
  5
E9
330
2
100
AcDbEntity
  8
4
100
AcDbCircle
 10
181.9943072034221
 20
25.45918078628176
 30
0.0
 40
1.283133
100
AcDbArc
 50
106.9237559999994
 51
217.0125920000013
  0
ARC
  5
EA
330
2
100
AcDbEntity
  8
4
100
AcDbCircle
 10
143.8570542034221
 20
68.68674978628178
 30
0.0
 40
19.0
100
AcDbArc
 50
270.0
 51
90.0
  0
LINE
  5
EB
330
2
100
AcDbEntity
  8
4
100
AcDbLine
 10
131.8570542034221
 20
88.18674978628178
 30
0.0
 11
131.8570542034221
 21
85.34143696873798
 31
0.0
  0
LINE
  5
EC
330
2
100
AcDbEntity
  8
4
100
AcDbLine
 10
155.8570542034221
 20
88.18674978628178
 30
0.0
 11
155.8570542034221
 21
85.34143696873798
 31
0.0
  0
LINE
  5
ED
330
2
100
AcDbEntity
  8
4
100
AcDbLine
 10
185.3233265273044
 20
83.18674978628178
 30
0.0
 11
188.8570542034221
 21
83.18674978628178
 31
0.0
  0
ARC
  5
EE
330
2
100
AcDbEntity
  8
4
100
AcDbCircle
 10
185.3233265273044
 20
82.18674978628178
 30
0.0
 40
1.0
100
AcDbArc
 50
90.0
 51
184.5280630138078
  0
LINE
  5
F0
330
2
100
AcDbEntity
  8
4
100
AcDbLine
 10
114.3570542034221
 20
136.1863687862818
 30
0.0
 11
139.3570542034221
 21
136.1863687862818
 31
0.0
  0
LINE
  5
F1
330
2
100
AcDbEntity
  8
4
100
AcDbLine
 10
114.3570542034221
 20
140.1863687862818
 30
0.0
 11
139.3570542034221
 21
140.1863687862818
 31
0.0
  0
LINE
  5
F2
330
2
100
AcDbEntity
  8
4
100
AcDbLine
 10
115.3570542034221
 20
132.6865977862818
 30
0.0
 11
138.3570542034221
 21
132.6865977862818
 31
0.0
  0
LINE
  5
F3
330
2
100
AcDbEntity
  8
4
100
AcDbLine
 10
114.3570542034221
 20
134.1865977862818
 30
0.0
 11
139.3570542034221
 21
134.1865977862818
 31
0.0
  0
LINE
  5
F4
330
2
100
AcDbEntity
  8
4
100
AcDbLine
 10
112.8570542034221
 20
132.6867497862818
 30
0.0
 11
140.8570542034221
 21
132.6867497862818
 31
0.0
  0
LINE
  5
F5
330
2
100
AcDbEntity
  8
4
100
AcDbLine
 10
103.8570542034222
 20
131.6867497862818
 30
0.0
 11
183.8570542034221
 21
131.6867497862818
 31
0.0
  0
ARC
  5
F6
330
2
100
AcDbEntity
  8
4
100
AcDbCircle
 10
143.8570542034221
 20
-60.31325021371822
 30
0.0
 40
170.0
100
AcDbArc
 50
78.10726871754633
 51
101.8927312824537
  0
LINE
  5
F8
330
2
100
AcDbEntity
  8
L-CENTER
 48
0.25
100
AcDbLine
 10
126.8570542034221
 20
142.9834929332834
 30
0.0
 11
126.8570542034221
 21
126.6842879775564
 31
0.0
  0
LINE
  5
F9
330
2
100
AcDbEntity
  8
4
100
AcDbLine
 10
114.3570542034221
 20
134.1865977862818
 30
0.0
 11
114.3570542034221
 21
140.1863687862818
 31
0.0
  0
LINE
  5
FA
330
2
100
AcDbEntity
  8
4
100
AcDbLine
 10
98.85705420342208
 20
128.1867497862818
 30
0.0
 11
101.8570542034221
 21
128.1867497862818
 31
0.0
  0
LINE
  5
FB
330
2
100
AcDbEntity
  8
4
100
AcDbLine
 10
97.85717620342211
 20
121.6867497862818
 30
0.0
 11
97.85717620342211
 21
89.68674978628178
 31
0.0
  0
LINE
  5
FC
330
2
100
AcDbEntity
  8
4
100
AcDbLine
 10
98.85717620342211
 20
89.68674978628178
 30
0.0
 11
97.85717620342211
 21
89.68674978628178
 31
0.0
  0
LINE
  5
FD
330
2
100
AcDbEntity
  8
4
100
AcDbLine
 10
97.85717620342211
 20
121.6867497862818
 30
0.0
 11
98.85717620342211
 21
121.6867497862818
 31
0.0
  0
LINE
  5
FE
330
2
100
AcDbEntity
  8
4
100
AcDbLine
 10
102.8570542034221
 20
130.6867497862818
 30
0.0
 11
102.8570542034221
 21
110.6867497862818
 31
0.0
  0
ARC
  5
FF
330
2
100
AcDbEntity
  8
4
100
AcDbCircle
 10
109.4416863377562
 20
103.1021176519477
 30
0.0
 40
3.0
100
AcDbArc
 50
101.8927312824538
 51
168.1072687175457
  0
ARC
  5
100
330
2
100
AcDbEntity
  8
4
100
AcDbCircle
 10
101.8570542034221
 20
110.6867497862818
 30
0.0
 40
1.0
100
AcDbArc
 50
270.0
 51
0.0
  0
ARC
  5
101
330
2
100
AcDbEntity
  8
4
100
AcDbCircle
 10
128.8570542034221
 20
91.13669410692546
 30
0.0
 40
1.0
100
AcDbArc
 50
0.0
 51
123.7489885958898
  0
ARC
  5
102
330
2
100
AcDbEntity
  8
4
100
AcDbCircle
 10
130.8570542034221
 20
90.18674978628178
 30
0.0
 40
1.0
100
AcDbArc
 50
180.0
 51
270.0
  0
LINE
  5
103
330
2
100
AcDbEntity
  8
4
100
AcDbLine
 10
129.8570542034221
 20
91.13669410692546
 30
0.0
 11
129.8570542034221
 21
90.18674978628178
 31
0.0
  0
ARC
  5
104
330
2
100
AcDbEntity
  8
4
100
AcDbCircle
 10
101.8570542034221
 20
129.1867497862818
 30
0.0
 40
1.0
100
AcDbArc
 50
270.0
 51
0.0
  0
ARC
  5
105
330
2
100
AcDbEntity
  8
4
100
AcDbCircle
 10
103.8570542034221
 20
130.6867497862818
 30
0.0
 40
1.0
100
AcDbArc
 50
90.0
 51
180.0
  0
LINE
  5
106
330
2
100
AcDbEntity
  8
4
100
AcDbLine
 10
102.8570542034221
 20
130.6867497862818
 30
0.0
 11
102.8570542034221
 21
129.1867497862818
 31
0.0
  0
ARC
  5
107
330
2
100
AcDbEntity
  8
4
100
AcDbCircle
 10
111.8570542034221
 20
132.6867497862818
 30
0.0
 40
1.0
100
AcDbArc
 50
270.0
 51
0.0
  0
LINE
  5
108
330
2
100
AcDbEntity
  8
4
100
AcDbLine
 10
115.3570542034221
 20
132.6865977862818
 30
0.0
 11
115.3570542034221
 21
134.1865977862818
 31
0.0
  0
LINE
  5
10D
330
2
100
AcDbEntity
  8
4
100
AcDbLine
 10
120.6070542034221
 20
136.1863687862818
 30
0.0
 11
120.6070542034221
 21
140.1863687862818
 31
0.0
  0
LINE
  5
10E
330
2
100
AcDbEntity
  8
4
100
AcDbLine
 10
139.3570542034221
 20
134.1865977862818
 30
0.0
 11
139.3570542034221
 21
140.1863687862818
 31
0.0
  0
LINE
  5
10F
330
2
100
AcDbEntity
  8
4
100
AcDbLine
 10
146.8570542034221
 20
96.18674978628178
 30
0.0
 11
147.8570542034221
 21
96.18674978628178
 31
0.0
  0
LINE
  5
110
330
2
100
AcDbEntity
  8
4
100
AcDbLine
 10
146.8570542034221
 20
94.18674978628178
 30
0.0
 11
147.8570542034221
 21
94.18674978628178
 31
0.0
  0
ARC
  5
111
330
2
100
AcDbEntity
  8
4
100
AcDbCircle
 10
139.3570542034221
 20
98.68674978628178
 30
0.0
 40
0.5
100
AcDbArc
 50
90.0
 51
180.0
  0
ARC
  5
112
330
2
100
AcDbEntity
  8
4
100
AcDbCircle
 10
139.3570542034221
 20
91.68674978628178
 30
0.0
 40
0.5
100
AcDbArc
 50
180.0
 51
270.0
  0
LINE
  5
113
330
2
100
AcDbEntity
  8
4
100
AcDbLine
 10
133.8570542034221
 20
98.68674978628178
 30
0.0
 11
133.8570542034221
 21
93.68674978628178
 31
0.0
  0
ARC
  5
114
330
2
100
AcDbEntity
  8
4
100
AcDbCircle
 10
133.3570542034221
 20
98.68674978628178
 30
0.0
 40
0.5
100
AcDbArc
 50
0.0
 51
90.0
  0
LINE
  5
115
330
2
100
AcDbEntity
  8
4
100
AcDbLine
 10
133.3570542034221
 20
99.18674978628178
 30
0.0
 11
132.3570542034221
 21
99.18674978628178
 31
0.0
  0
ARC
  5
116
330
2
100
AcDbEntity
  8
4
100
AcDbCircle
 10
132.3570542034221
 20
98.68674978628178
 30
0.0
 40
0.5
100
AcDbArc
 50
90.0
 51
180.0
  0
ARC
  5
117
330
2
100
AcDbEntity
  8
4
100
AcDbCircle
 10
136.8570542034221
 20
91.68674978628178
 30
0.0
 40
0.5
100
AcDbArc
 50
270.0
 51
0.0
  0
LINE
  5
118
330
2
100
AcDbEntity
  8
4
100
AcDbLine
 10
136.8570542034221
 20
91.18674978628178
 30
0.0
 11
132.3570542034221
 21
91.18674978628178
 31
0.0
  0
LINE
  5
119
330
2
100
AcDbEntity
  8
4
100
AcDbLine
 10
136.8570542034221
 20
93.18674978628178
 30
0.0
 11
134.3570542034221
 21
93.18674978628178
 31
0.0
  0
LINE
  5
11A
330
2
100
AcDbEntity
  8
4
100
AcDbLine
 10
137.3570542034221
 20
92.68674978628178
 30
0.0
 11
137.3570542034221
 21
91.68674978628178
 31
0.0
  0
ARC
  5
11B
330
2
100
AcDbEntity
  8
4
100
AcDbCircle
 10
132.3570542034221
 20
91.68674978628178
 30
0.0
 40
0.5
100
AcDbArc
 50
180.0
 51
270.0
  0
LINE
  5
11C
330
2
100
AcDbEntity
  8
4
100
AcDbLine
 10
138.8570542034221
 20
98.68674978628178
 30
0.0
 11
138.8570542034221
 21
91.68674978628178
 31
0.0
  0
LINE
  5
11D
330
2
100
AcDbEntity
  8
4
100
AcDbLine
 10
131.8570542034221
 20
98.68674978628178
 30
0.0
 11
131.8570542034221
 21
91.68674978628178
 31
0.0
  0
ARC
  5
11E
330
2
100
AcDbEntity
  8
4
100
AcDbCircle
 10
134.3570542034221
 20
93.68674978628178
 30
0.0
 40
0.5
100
AcDbArc
 50
180.0
 51
270.0
  0
ARC
  5
11F
330
2
100
AcDbEntity
  8
4
100
AcDbCircle
 10
136.8570542034221
 20
92.68674978628178
 30
0.0
 40
0.5
100
AcDbArc
 50
0.0
 51
90.0
  0
ARC
  5
120
330
2
100
AcDbEntity
  8
4
100
AcDbCircle
 10
143.3570542034221
 20
96.68674978628178
 30
0.0
 40
1.5
100
AcDbArc
 50
323.1301023541586
 51
0.0
  0
ARC
  5
121
330
2
100
AcDbEntity
  8
4
100
AcDbCircle
 10
143.3570542034222
 20
93.68674978628178
 30
0.0
 40
1.5
100
AcDbArc
 50
0.0
 51
36.86989764584533
  0
ARC
  5
122
330
2
100
AcDbEntity
  8
4
100
AcDbCircle
 10
145.3570542034222
 20
95.1867497862819
 30
0.0
 40
1.0
100
AcDbArc
 50
143.1301023541579
 51
216.8698976458456
  0
ARC
  5
123
330
2
100
AcDbEntity
  8
4
100
AcDbCircle
 10
143.3570542034221
 20
97.68674978628178
 30
0.0
 40
1.5
100
AcDbArc
 50
0.0
 51
70.52877936550911
  0
LINE
  5
124
330
2
100
AcDbEntity
  8
4
100
AcDbLine
 10
144.8570542034221
 20
96.68674978628178
 30
0.0
 11
144.8570542034221
 21
97.68674978628178
 31
0.0
  0
ARC
  5
125
330
2
100
AcDbEntity
  8
4
100
AcDbCircle
 10
143.3570542034221
 20
97.68674978628178
 30
0.0
 40
1.5
100
AcDbArc
 50
70.52877936550911
 51
90.0
  0
ARC
  5
126
330
2
100
AcDbEntity
  8
4
100
AcDbCircle
 10
146.8570542034221
 20
95.68674978628178
 30
0.0
 40
0.5
100
AcDbArc
 50
90.0
 51
180.0
  0
ARC
  5
127
330
2
100
AcDbEntity
  8
4
100
AcDbCircle
 10
146.8570542034221
 20
94.68674978628178
 30
0.0
 40
0.5
100
AcDbArc
 50
180.0
 51
270.0
  0
LINE
  5
128
330
2
100
AcDbEntity
  8
4
100
AcDbLine
 10
146.3570542034221
 20
95.68674978628178
 30
0.0
 11
146.3570542034221
 21
94.68674978628178
 31
0.0
  0
LINE
  5
129
330
2
100
AcDbEntity
  8
4
100
AcDbLine
 10
143.3570542034221
 20
99.18674978628178
 30
0.0
 11
139.3570542034221
 21
99.18674978628178
 31
0.0
  0
ARC
  5
12A
330
2
100
AcDbEntity
  8
4
100
AcDbCircle
 10
143.3570542034221
 20
92.68674978628178
 30
0.0
 40
1.5
100
AcDbArc
 50
270.0
 51
289.4712206344905
  0
ARC
  5
12B
330
2
100
AcDbEntity
  8
4
100
AcDbCircle
 10
143.3570542034221
 20
92.68674978628178
 30
0.0
 40
1.5
100
AcDbArc
 50
289.4712206344905
 51
0.0
  0
LINE
  5
12C
330
2
100
AcDbEntity
  8
4
100
AcDbLine
 10
143.3570542034221
 20
91.18674978628178
 30
0.0
 11
139.3570542034221
 21
91.18674978628178
 31
0.0
  0
LINE
  5
12D
330
2
100
AcDbEntity
  8
4
100
AcDbLine
 10
144.8570542034222
 20
92.68674978628178
 30
0.0
 11
144.8570542034222
 21
93.6867497862819
 31
0.0
  0
ARC
  5
12E
330
2
100
AcDbEntity
  8
4
100
AcDbCircle
 10
152.8570542034221
 20
96.18674978628178
 30
0.0
 40
3.0
100
AcDbArc
 50
0.0
 51
180.0
  0
ARC
  5
12F
330
2
100
AcDbEntity
  8
4
100
AcDbCircle
 10
152.8570542034221
 20
94.18674978628178
 30
0.0
 40
3.0
100
AcDbArc
 50
180.0
 51
359.4444324220575
  0
LINE
  5
130
330
2
100
AcDbEntity
  8
4
100
AcDbLine
 10
149.8570542034221
 20
96.18674978628178
 30
0.0
 11
149.8570542034221
 21
94.18674978628178
 31
0.0
  0
LINE
  5
131
330
2
100
AcDbEntity
  8
4
100
AcDbLine
 10
148.3570542034221
 20
95.68674978628178
 30
0.0
 11
148.3570542034221
 21
94.68674978628178
 31
0.0
  0
ARC
  5
132
330
2
100
AcDbEntity
  8
4
100
AcDbCircle
 10
147.8570542034221
 20
95.68674978628178
 30
0.0
 40
0.5
100
AcDbArc
 50
0.0
 51
90.0
  0
ARC
  5
133
330
2
100
AcDbEntity
  8
4
100
AcDbCircle
 10
147.8570542034221
 20
94.68674978628178
 30
0.0
 40
0.5
100
AcDbArc
 50
270.0
 51
0.0
  0
LINE
  5
134
330
2
100
AcDbEntity
  8
4
100
AcDbLine
 10
157.8570542034221
 20
91.13669410692546
 30
0.0
 11
157.8570542034221
 21
90.18674978628178
 31
0.0
  0
LINE
  5
135
330
2
100
AcDbEntity
  8
4
100
AcDbLine
 10
155.8570542034221
 20
96.18674978628178
 30
0.0
 11
155.8570542034221
 21
94.18674978628178
 31
0.0
  0
ARC
  5
136
330
2
100
AcDbEntity
  8
4
100
AcDbCircle
 10
156.8570542034221
 20
90.18674978628178
 30
0.0
 40
1.0
100
AcDbArc
 50
270.0
 51
0.0
  0
ARC
  5
137
330
2
100
AcDbEntity
  8
4
100
AcDbCircle
 10
158.8570542034221
 20
91.13669410692546
 30
0.0
 40
1.0
100
AcDbArc
 50
56.25101140411023
 51
180.0
  0
LINE
  5
138
330
2
100
AcDbEntity
  8
4
100
AcDbLine
 10
138.3570542034221
 20
132.6865977862818
 30
0.0
 11
138.3570542034221
 21
134.1865977862818
 31
0.0
  0
ARC
  5
139
330
2
100
AcDbEntity
  8
4
100
AcDbCircle
 10
141.8570542034221
 20
132.6867497862817
 30
0.0
 40
1.0
100
AcDbArc
 50
180.0
 51
270.0
  0
LINE
  5
13A
330
2
100
AcDbEntity
  8
4
100
AcDbLine
 10
189.8570542034221
 20
121.6867497862818
 30
0.0
 11
189.8570542034221
 21
89.68674978628178
 31
0.0
  0
LINE
  5
13B
330
2
100
AcDbEntity
  8
4
100
AcDbLine
 10
184.8570542034221
 20
130.6867497862818
 30
0.0
 11
184.8570542034221
 21
110.6867497862818
 31
0.0
  0
ARC
  5
13C
330
2
100
AcDbEntity
  8
4
100
AcDbCircle
 10
178.272422069088
 20
103.1021176519477
 30
0.0
 40
3.0
100
AcDbArc
 50
11.89273128245432
 51
78.10726871754623
  0
LINE
  5
13D
330
2
100
AcDbEntity
  8
4
100
AcDbLine
 10
188.8570542034221
 20
89.68674978628178
 30
0.0
 11
189.8570542034221
 21
89.68674978628178
 31
0.0
  0
ARC
  5
13E
330
2
100
AcDbEntity
  8
4
100
AcDbCircle
 10
185.8570542034221
 20
110.6867497862818
 30
0.0
 40
1.0
100
AcDbArc
 50
180.0
 51
270.0
  0
LINE
  5
13F
330
2
100
AcDbEntity
  8
4
100
AcDbLine
 10
189.8570542034221
 20
121.6867497862818
 30
0.0
 11
188.8570542034221
 21
121.6867497862818
 31
0.0
  0
LINE
  5
140
330
2
100
AcDbEntity
  8
4
100
AcDbLine
 10
185.8570542034221
 20
128.1867497862818
 30
0.0
 11
188.8570542034221
 21
128.1867497862818
 31
0.0
  0
LINE
  5
141
330
2
100
AcDbEntity
  8
4
100
AcDbLine
 10
184.8570542034221
 20
130.6867497862818
 30
0.0
 11
184.8570542034221
 21
129.1867497862818
 31
0.0
  0
ARC
  5
142
330
2
100
AcDbEntity
  8
4
100
AcDbCircle
 10
185.8570542034221
 20
129.1867497862818
 30
0.0
 40
1.0
100
AcDbArc
 50
180.0
 51
270.0
  0
ARC
  5
143
330
2
100
AcDbEntity
  8
4
100
AcDbCircle
 10
183.8570542034221
 20
130.6867497862818
 30
0.0
 40
1.0
100
AcDbArc
 50
0.0
 51
90.0
  0
LINE
  5
146
330
2
100
AcDbEntity
  8
4
100
AcDbLine
 10
133.1070542034221
 20
136.1863687862818
 30
0.0
 11
133.1070542034221
 21
140.1863687862818
 31
0.0
  0
ARC
  5
155
330
2
100
AcDbEntity
  8
4
100
AcDbCircle
 10
299.7467155135311
 20
109.6867497862818
 30
0.0
 40
1.0
100
AcDbArc
 50
270.0
 51
0.0
  0
LINE
  5
158
330
2
100
AcDbEntity
  8
L-CENTER
 48
0.25
100
AcDbLine
 10
365.502975331751
 20
68.68674978628178
 30
0.0
 11
254.3475455820222
 21
68.68674978628178
 31
0.0
  0
LINE
  5
159
330
2
100
AcDbEntity
  8
L-CENTER
 48
0.25
100
AcDbLine
 10
352.607330535763
 20
105.6867497862818
 30
0.0
 11
298.8861004912989
 21
105.6867497862818
 31
0.0
  0
LINE
  5
15A
330
2
100
AcDbEntity
  8
4
100
AcDbLine
 10
291.7467155135309
 20
28.68674978628178
 30
0.0
 11
359.7467155135309
 21
28.68674978628178
 31
0.0
  0
LINE
  5
15B
330
2
100
AcDbEntity
  8
4
100
AcDbLine
 10
290.7467155135309
 20
18.68674978628178
 30
0.0
 11
360.7467155135309
 21
18.68674978628178
 31
0.0
  0
LINE
  5
15C
330
2
100
AcDbEntity
  8
4
100
AcDbLine
 10
289.5371864248001
 20
87.85613641012515
 30
0.0
 11
294.1657736909928
 21
88.84797653859493
 31
0.0
  0
LINE
  5
160
330
2
100
AcDbEntity
  8
4
100
AcDbLine
 10
295.7467155135309
 20
107.6867497862818
 30
0.0
 11
295.7467155135309
 21
29.68674978628178
 31
0.0
  0
LINE
  5
164
330
2
100
AcDbEntity
  8
4
100
AcDbLine
 10
198.8570542034221
 20
27.68674978628178
 30
0.0
 11
198.8570542034222
 21
18.68674978628178
 31
0.0
  0
TEXT
  5
166
330
2
100
AcDbEntity
  8
3
100
AcDbText
 10
234.6544234708236
 20
11.50876247708459
 30
0.0
 40
3.123035995835638
  1
LB0-08
  7
KANJI
100
AcDbText
  0
ARC
  5
169
330
2
100
AcDbEntity
  8
4
100
AcDbCircle
 10
197.8570542034221
 20
27.68674978628178
 30
0.0
 40
1.0
100
AcDbArc
 50
0.0
 51
90.0
  0
LINE
  5
175
330
2
100
AcDbEntity
  8
4
100
AcDbLine
 10
290.7467155135309
 20
27.68674978628178
 30
0.0
 11
290.7467155135309
 21
18.68674978628178
 31
0.0
  0
ARC
  5
176
330
2
100
AcDbEntity
  8
4
100
AcDbCircle
 10
291.7467155135309
 20
27.68674978628178
 30
0.0
 40
1.0
100
AcDbArc
 50
90.0
 51
180.0
  0
ARC
  5
177
330
2
100
AcDbEntity
  8
4
100
AcDbCircle
 10
296.7467155135309
 20
29.68674978628178
 30
0.0
 40
1.0
100
AcDbArc
 50
180.0
 51
270.0
  0
LINE
  5
17E
330
2
100
AcDbEntity
  8
4
100
AcDbLine
 10
288.7467155135309
 20
86.87833399604779
 30
0.0
 11
288.7467155135309
 21
50.51667607353795
 31
0.0
  0
LINE
  5
17F
330
2
100
AcDbEntity
  8
4
100
AcDbLine
 10
289.5371864248001
 20
49.51736316243841
 30
0.0
 11
294.1657736909928
 21
48.52552303396862
 31
0.0
  0
ARC
  5
180
330
2
100
AcDbEntity
  8
4
100
AcDbCircle
 10
289.7467155135309
 20
50.51667607353795
 30
0.0
 40
1.0
100
AcDbArc
 50
180.0
 51
259.380344723844
  0
ARC
  5
181
330
2
100
AcDbEntity
  8
4
100
AcDbCircle
 10
293.7467155135309
 20
46.56991820581368
 30
0.0
 40
2.0
100
AcDbArc
 50
0.0
 51
77.90524292298791
  0
ARC
  5
182
330
2
100
AcDbEntity
  8
4
100
AcDbCircle
 10
289.7467155135309
 20
86.87833399604779
 30
0.0
 40
1.0
100
AcDbArc
 50
102.0947570770105
 51
180.0
  0
LINE
  5
184
330
2
100
AcDbEntity
  8
4
100
AcDbLine
 10
84.85705420342208
 20
99.68674978628178
 30
0.0
 11
84.85705420342208
 21
111.6867497862818
 31
0.0
  0
LINE
  5
186
330
2
100
AcDbEntity
  8
4
100
AcDbLine
 10
62.85705420342208
 20
109.6867497862818
 30
0.0
 11
81.85705420342208
 21
109.6867497862818
 31
0.0
  0
LINE
  5
187
330
2
100
AcDbEntity
  8
4
100
AcDbLine
 10
84.85705420342208
 20
100.6867497862818
 30
0.0
 11
63.35705420342208
 21
100.6867497862818
 31
0.0
  0
LINE
  5
188
330
2
100
AcDbEntity
  8
4
100
AcDbLine
 10
82.85705420342208
 20
110.6867497862818
 30
0.0
 11
84.85705420342208
 21
110.6867497862818
 31
0.0
  0
ARC
  5
189
330
2
100
AcDbEntity
  8
4
100
AcDbCircle
 10
81.85705420342208
 20
110.6867497862818
 30
0.0
 40
1.0
100
AcDbArc
 50
270.0
 51
0.0
  0
LINE
  5
18A
330
2
100
AcDbEntity
  8
4
100
AcDbLine
 10
62.85705420342208
 20
101.1867497862818
 30
0.0
 11
63.35705420342208
 21
100.6867497862818
 31
0.0
  0
LINE
  5
18B
330
2
100
AcDbEntity
  8
4
100
AcDbLine
 10
62.85705420342208
 20
109.6867497862818
 30
0.0
 11
62.85705420342208
 21
101.1867497862818
 31
0.0
  0
LINE
  5
18C
330
2
100
AcDbEntity
  8
4
100
AcDbLine
 10
63.35705420342208
 20
109.6867497862818
 30
0.0
 11
63.35705420342208
 21
100.6867497862818
 31
0.0
  0
ARC
  5
1A0
330
2
100
AcDbEntity
  8
4
100
AcDbCircle
 10
293.7467155135309
 20
90.80358136674988
 30
0.0
 40
2.0
100
AcDbArc
 50
282.0947570770121
 51
0.0
  0
LINE
  5
1A1
330
2
100
AcDbEntity
  8
4
100
AcDbLine
 10
296.7467155135309
 20
108.6867497862818
 30
0.0
 11
299.7467155135311
 21
108.6867497862818
 31
0.0
  0
ARC
  5
1A2
330
2
100
AcDbEntity
  8
4
100
AcDbCircle
 10
296.7467155135309
 20
107.6867497862818
 30
0.0
 40
1.0
100
AcDbArc
 50
90.0
 51
180.0
  0
LINE
  5
1AB
330
2
100
AcDbEntity
  8
4
100
AcDbLine
 10
358.7467155135308
 20
29.68674978628178
 30
0.0
 11
358.7467155135309
 21
107.6867497862818
 31
0.0
  0
LINE
  5
1AC
330
2
100
AcDbEntity
  8
4
100
AcDbLine
 10
349.6644597247639
 20
110.6536372035004
 30
0.0
 11
349.6644597247639
 21
28.68674978628178
 31
0.0
  0
LINE
  5
1AD
330
2
100
AcDbEntity
  8
4
100
AcDbLine
 10
350.7467155135309
 20
109.6867497862818
 30
0.0
 11
350.7467155135311
 21
28.68674978628178
 31
0.0
  0
LINE
  5
1AE
330
2
100
AcDbEntity
  8
4
100
AcDbLine
 10
354.2467155135309
 20
108.6867497862817
 30
0.0
 11
354.2467155135309
 21
28.68674978628178
 31
0.0
  0
LINE
  5
1AF
330
2
100
AcDbEntity
  8
L-CENTER
 48
0.25
100
AcDbLine
 10
325.7467155135309
 20
16.67209075057957
 30
0.0
 11
325.7467155135309
 21
141.7573485222646
 31
0.0
  0
LINE
  5
1B0
330
2
100
AcDbEntity
  8
4
100
AcDbLine
 10
301.8000583317184
 20
109.6867497862818
 30
0.0
 11
301.8000583317183
 21
28.68674978628178
 31
0.0
  0
LINE
  5
1B1
330
2
100
AcDbEntity
  8
4
100
AcDbLine
 10
300.7467155135311
 20
109.6867497862818
 30
0.0
 11
300.7467155135311
 21
28.68674978628178
 31
0.0
  0
CIRCLE
  5
1B2
330
2
100
AcDbEntity
  8
4
100
AcDbCircle
 10
325.7467155135309
 20
105.6867497862818
 30
0.0
 40
22.5
  0
LINE
  5
1B3
330
2
100
AcDbEntity
  8
L-CENTER
 48
0.25
100
AcDbLine
 10
367.1499051280804
 20
43.93801578628177
 30
0.0
 11
347.717196513531
 21
43.93801578628177
 31
0.0
  0
LINE
  5
1B4
330
2
100
AcDbEntity
  8
4
100
AcDbLine
 10
365.0467155135308
 20
39.68801578628177
 30
0.0
 11
358.7467155135309
 21
39.68801578628177
 31
0.0
  0
LINE
  5
1B5
330
2
100
AcDbEntity
  8
4
100
AcDbLine
 10
365.0467155135308
 20
48.18801578628177
 30
0.0
 11
358.7467155135309
 21
48.18801578628177
 31
0.0
  0
LINE
  5
1B8
330
2
100
AcDbEntity
  8
4
100
AcDbLine
 10
360.0467155135308
 20
39.68801578628177
 30
0.0
 11
360.0467155135308
 21
48.18801578628177
 31
0.0
  0
LINE
  5
1BA
330
2
100
AcDbEntity
  8
L-CENTER
 48
0.25
100
AcDbLine
 10
300.7467155135309
 20
15.68674978628178
 30
0.0
 11
300.7467155135309
 21
31.68674978628178
 31
0.0
  0
LINE
  5
1BE
330
2
100
AcDbEntity
  8
4
100
AcDbLine
 10
360.7467155135309
 20
27.68674978628178
 30
0.0
 11
360.7467155135309
 21
18.68674978628178
 31
0.0
  0
LINE
  5
1BF
330
2
100
AcDbEntity
  8
L-CENTER
 48
0.25
100
AcDbLine
 10
350.7467155135309
 20
15.68674978628178
 30
0.0
 11
350.7467155135309
 21
31.68674978628178
 31
0.0
  0
LINE
  5
1C2
330
2
100
AcDbEntity
  8
4
100
AcDbLine
 10
357.7467155135308
 20
28.68674978628178
 30
0.0
 11
354.5467155135309
 21
28.68674978628178
 31
0.0
  0
ARC
  5
1C3
330
2
100
AcDbEntity
  8
4
100
AcDbCircle
 10
359.7467155135309
 20
27.68674978628178
 30
0.0
 40
1.0
100
AcDbArc
 50
0.0
 51
90.0
  0
ARC
  5
1C4
330
2
100
AcDbEntity
  8
4
100
AcDbCircle
 10
357.7467155135308
 20
29.68674978628178
 30
0.0
 40
1.0
100
AcDbArc
 50
270.0
 51
0.0
  0
ARC
  5
1C5
330
2
100
AcDbEntity
  8
4
100
AcDbCircle
 10
357.7467155135308
 20
29.68674978628178
 30
0.0
 40
1.0
100
AcDbArc
 50
270.0
 51
0.0
  0
LINE
  5
1C6
330
2
100
AcDbEntity
  8
4
100
AcDbLine
 10
362.7467155135308
 20
53.4540767862818
 30
0.0
 11
362.7467155135308
 21
83.91942278628176
 31
0.0
  0
LINE
  5
1C7
330
2
100
AcDbEntity
  8
4
100
AcDbLine
 10
362.7467155135308
 20
53.4540767862818
 30
0.0
 11
362.7467155135308
 21
83.91942278628176
 31
0.0
  0
LINE
  5
1C8
330
2
100
AcDbEntity
  8
4
100
AcDbLine
 10
363.7467155135309
 20
80.6867497862819
 30
0.0
 11
363.7467155135309
 21
56.68674978628189
 31
0.0
  0
LINE
  5
1C9
330
2
100
AcDbEntity
  8
2
100
AcDbLine
 10
358.7467155135309
 20
43.93801578628177
 30
0.0
 11
360.0467155135308
 21
42.63801578628181
 31
0.0
  0
LINE
  5
1CA
330
2
100
AcDbEntity
  8
2
100
AcDbLine
 10
358.7467155135309
 20
45.77649341736674
 30
0.0
 11
360.046715513531
 21
44.47649341736667
 31
0.0
  0
LINE
  5
1CB
330
2
100
AcDbEntity
  8
4
100
AcDbLine
 10
359.4878965135308
 20
51.81355178628178
 30
0.0
 11
362.0055355135308
 21
52.48815078628184
 31
0.0
  0
LINE
  5
1CC
330
2
100
AcDbEntity
  8
4
100
AcDbLine
 10
359.4878965135308
 20
51.81355178628178
 30
0.0
 11
362.0055355135308
 21
52.48815078628184
 31
0.0
  0
ARC
  5
1CD
330
2
100
AcDbEntity
  8
4
100
AcDbCircle
 10
359.7467155135308
 20
50.84762578628181
 30
0.0
 40
1.0
100
AcDbArc
 50
104.999999999998
 51
180.0
  0
ARC
  5
1CE
330
2
100
AcDbEntity
  8
4
100
AcDbCircle
 10
359.7467155135308
 20
50.84762578628181
 30
0.0
 40
1.0
100
AcDbArc
 50
104.999999999998
 51
180.0
  0
ARC
  5
1CF
330
2
100
AcDbEntity
  8
4
100
AcDbCircle
 10
361.7467155135308
 20
53.4540767862818
 30
0.0
 40
1.0
100
AcDbArc
 50
284.999999999998
 51
0.0
  0
LINE
  5
1D0
330
2
100
AcDbEntity
  8
4
100
AcDbLine
 10
363.7467155135309
 20
56.68674978628189
 30
0.0
 11
362.7467155135309
 21
56.68674978628189
 31
0.0
  0
LINE
  5
1D1
330
2
100
AcDbEntity
  8
4
100
AcDbLine
 10
359.4878965135308
 20
85.55994778628178
 30
0.0
 11
362.0055355135308
 21
84.88534878628172
 31
0.0
  0
LINE
  5
1D2
330
2
100
AcDbEntity
  8
4
100
AcDbLine
 10
359.4878965135308
 20
85.55994778628178
 30
0.0
 11
362.0055355135308
 21
84.88534878628172
 31
0.0
  0
ARC
  5
1D3
330
2
100
AcDbEntity
  8
4
100
AcDbCircle
 10
359.7467155135308
 20
86.52587378628175
 30
0.0
 40
1.0
100
AcDbArc
 50
180.0
 51
255.0000000000019
  0
ARC
  5
1D4
330
2
100
AcDbEntity
  8
4
100
AcDbCircle
 10
359.7467155135308
 20
86.52587378628175
 30
0.0
 40
1.0
100
AcDbArc
 50
180.0
 51
255.0000000000019
  0
LINE
  5
1D5
330
2
100
AcDbEntity
  8
4
100
AcDbLine
 10
363.7467155135309
 20
80.6867497862819
 30
0.0
 11
362.7467155135309
 21
80.6867497862819
 31
0.0
  0
ARC
  5
1D6
330
2
100
AcDbEntity
  8
4
100
AcDbCircle
 10
361.7467155135308
 20
83.91942278628176
 30
0.0
 40
1.0
100
AcDbArc
 50
0.0
 51
75.00000000000199
  0
ARC
  5
1D7
330
2
100
AcDbEntity
  8
4
100
AcDbCircle
 10
361.7467155135308
 20
83.91942278628176
 30
0.0
 40
1.0
100
AcDbArc
 50
0.0
 51
75.00000000000199
  0
LINE
  5
1D9
330
2
100
AcDbEntity
  8
4
100
AcDbLine
 10
365.0467155135308
 20
39.68801578628177
 30
0.0
 11
365.0467155135308
 21
48.18801578628177
 31
0.0
  0
LINE
  5
1E7
330
2
100
AcDbEntity
  8
4
100
AcDbLine
 10
365.0467155135308
 20
89.1854837862818
 30
0.0
 11
358.7467155135309
 21
89.1854837862818
 31
0.0
  0
LINE
  5
1E8
330
2
100
AcDbEntity
  8
4
100
AcDbLine
 10
365.0467155135308
 20
97.6854837862818
 30
0.0
 11
358.7467155135309
 21
97.6854837862818
 31
0.0
  0
LINE
  5
1E9
330
2
100
AcDbEntity
  8
L-CENTER
 48
0.25
100
AcDbLine
 10
367.1499051280804
 20
93.4354837862818
 30
0.0
 11
347.717196513531
 21
93.4354837862818
 31
0.0
  0
LINE
  5
1EC
330
2
100
AcDbEntity
  8
4
100
AcDbLine
 10
338.2467155135309
 20
133.1867497862818
 30
0.0
 11
338.2467155135309
 21
135.1865207862818
 31
0.0
  0
LINE
  5
1ED
330
2
100
AcDbEntity
  8
4
100
AcDbLine
 10
313.2467155135309
 20
133.1867497862818
 30
0.0
 11
313.2467155135309
 21
135.1865207862818
 31
0.0
  0
LINE
  5
1EE
330
2
100
AcDbEntity
  8
4
100
AcDbLine
 10
338.2467155135309
 20
133.1867497862818
 30
0.0
 11
313.2467155135309
 21
133.1867497862818
 31
0.0
  0
LINE
  5
1EF
330
2
100
AcDbEntity
  8
4
100
AcDbLine
 10
339.7467155135311
 20
131.6867497862818
 30
0.0
 11
311.7467155135311
 21
131.6867497862818
 31
0.0
  0
CIRCLE
  5
1F0
330
2
100
AcDbEntity
  8
4
100
AcDbCircle
 10
325.7467155135309
 20
105.6867497862818
 30
0.0
 40
16.0
  0
LINE
  5
1F1
330
2
100
AcDbEntity
  8
4
100
AcDbLine
 10
337.2467155135309
 20
131.6867497862818
 30
0.0
 11
314.2467155135309
 21
131.6867497862818
 31
0.0
  0
ARC
  5
1F2
330
2
100
AcDbEntity
  8
4
100
AcDbCircle
 10
451.7467155135309
 20
105.6867497862817
 30
0.0
 40
150.0
100
AcDbArc
 50
171.9064509658834
 51
178.4719314053905
  0
LINE
  5
1F4
330
2
100
AcDbEntity
  8
4
100
AcDbLine
 10
300.7467155135311
 20
109.6867497862818
 30
0.0
 11
300.7467155135311
 21
109.6867497862818
 31
0.0
  0
LINE
  5
1F5
330
2
100
AcDbEntity
  8
4
100
AcDbLine
 10
300.7467155135309
 20
109.6867497862818
 30
0.0
 11
301.8000583317184
 21
109.6867497862818
 31
0.0
  0
ARC
  5
1F8
330
2
100
AcDbEntity
  8
4
100
AcDbCircle
 10
325.7467155135309
 20
-19.31325021371822
 30
0.0
 40
150.0
100
AcDbArc
 50
95.70103636904439
 51
97.63701137381024
  0
ARC
  5
1F9
330
2
100
AcDbEntity
  8
4
100
AcDbCircle
 10
306.2109067210781
 20
126.3828450490743
 30
0.0
 40
3.0
100
AcDbArc
 50
97.6370113738089
 51
171.9064509658833
  0
LINE
  5
1FA
330
2
100
AcDbEntity
  8
4
100
AcDbLine
 10
314.2467155135309
 20
131.6867497862818
 30
0.0
 11
314.2467155135309
 21
133.1867497862818
 31
0.0
  0
LINE
  5
1FB
330
2
100
AcDbEntity
  8
4
100
AcDbLine
 10
311.7467155135311
 20
130.9398695542254
 30
0.0
 11
311.7467155135311
 21
131.6867497862818
 31
0.0
  0
ARC
  5
1FC
330
2
100
AcDbEntity
  8
4
100
AcDbCircle
 10
310.7467155135309
 20
130.9398695542254
 30
0.0
 40
1.0
100
AcDbArc
 50
275.7010363690458
 51
0.0
  0
ARC
  5
1FD
330
2
100
AcDbEntity
  8
4
100
AcDbCircle
 10
199.7467155135309
 20
105.6867497862818
 30
0.0
 40
150.0
100
AcDbArc
 50
1.897558110703246
 51
8.386140400203697
  0
LINE
  5
1FE
330
2
100
AcDbEntity
  8
2
100
AcDbLine
 10
358.7467155135309
 20
91.59700615519682
 30
0.0
 11
360.046715513531
 21
92.89700615519689
 31
0.0
  0
LINE
  5
1FF
330
2
100
AcDbEntity
  8
2
100
AcDbLine
 10
358.7467155135309
 20
93.4354837862818
 30
0.0
 11
360.0467155135308
 21
94.73548378628175
 31
0.0
  0
LINE
  5
200
330
2
100
AcDbEntity
  8
4
100
AcDbLine
 10
360.0467155135308
 20
97.6854837862818
 30
0.0
 11
360.0467155135308
 21
89.1854837862818
 31
0.0
  0
LINE
  5
201
330
2
100
AcDbEntity
  8
4
100
AcDbLine
 10
358.7467155135308
 20
88.71066210623735
 30
0.0
 11
358.7467155135308
 21
97.94826641327131
 31
0.0
  0
LINE
  5
202
330
2
100
AcDbEntity
  8
4
100
AcDbLine
 10
357.7467155135308
 20
108.6867497862818
 30
0.0
 11
354.2467155135309
 21
108.6867497862818
 31
0.0
  0
LINE
  5
203
330
2
100
AcDbEntity
  8
4
100
AcDbLine
 10
351.7467155135309
 20
108.6867497862818
 30
0.0
 11
354.2467155135309
 21
108.6867497862818
 31
0.0
  0
LINE
  5
204
330
2
100
AcDbEntity
  8
4
100
AcDbLine
 10
350.6639113528388
 20
109.6867497862818
 30
0.0
 11
350.7467155135309
 21
109.6867497862818
 31
0.0
  0
ARC
  5
205
330
2
100
AcDbEntity
  8
4
100
AcDbCircle
 10
350.6639113528388
 20
110.6867497862818
 30
0.0
 40
1.0
100
AcDbArc
 50
181.8975581107
 51
270.0
  0
ARC
  5
206
330
2
100
AcDbEntity
  8
4
100
AcDbCircle
 10
351.7467155135309
 20
109.6867497862818
 30
0.0
 40
1.0
100
AcDbArc
 50
180.0
 51
270.0
  0
ARC
  5
207
330
2
100
AcDbEntity
  8
4
100
AcDbCircle
 10
357.7467155135308
 20
107.6867497862818
 30
0.0
 40
1.0
100
AcDbArc
 50
0.0
 51
90.0
  0
ARC
  5
208
330
2
100
AcDbEntity
  8
4
100
AcDbCircle
 10
346.1642463621153
 20
127.2716208816547
 30
0.0
 40
2.0
100
AcDbArc
 50
8.386140400203653
 51
82.07039726010183
  0
ARC
  5
209
330
2
100
AcDbEntity
  8
4
100
AcDbCircle
 10
340.7467155135311
 20
130.9398695542254
 30
0.0
 40
1.0
100
AcDbArc
 50
180.0
 51
264.2989636309542
  0
LINE
  5
20A
330
2
100
AcDbEntity
  8
4
100
AcDbLine
 10
339.7467155135311
 20
130.9398695542254
 30
0.0
 11
339.7467155135311
 21
131.6867497862818
 31
0.0
  0
LINE
  5
20B
330
2
100
AcDbEntity
  8
4
100
AcDbLine
 10
337.2467155135309
 20
131.6867497862818
 30
0.0
 11
337.2467155135309
 21
133.1867497862818
 31
0.0
  0
ARC
  5
20C
330
2
100
AcDbEntity
  8
4
100
AcDbCircle
 10
325.7467155135309
 20
-19.31325021371822
 30
0.0
 40
150.0
100
AcDbArc
 50
82.07039726010211
 51
84.29896363095556
  0
LINE
  5
20D
330
2
100
AcDbEntity
  8
4
100
AcDbLine
 10
338.2467155135309
 20
135.1865207862818
 30
0.0
 11
313.2467155135309
 21
135.1865207862818
 31
0.0
  0
LINE
  5
20E
330
2
100
AcDbEntity
  8
4
100
AcDbLine
 10
336.5721545135309
 20
139.1865207862818
 30
0.0
 11
314.9215205135309
 21
139.1865207862818
 31
0.0
  0
LINE
  5
210
330
2
100
AcDbEntity
  8
4
100
AcDbLine
 10
314.9215205135309
 20
135.1865207862818
 30
0.0
 11
314.9215205135309
 21
139.1865207862818
 31
0.0
  0
LINE
  5
217
330
2
100
AcDbEntity
  8
4
100
AcDbLine
 10
336.5721545135309
 20
135.1865207862818
 30
0.0
 11
336.5721545135309
 21
139.1865207862818
 31
0.0
  0
LINE
  5
21C
330
2
100
AcDbEntity
  8
4
100
AcDbLine
 10
365.0467155135308
 20
97.6854837862818
 30
0.0
 11
365.0467155135308
 21
89.1854837862818
 31
0.0
  0
LINE
  5
221
330
2
100
AcDbEntity
  8
L-CENTER
 48
0.25
100
AcDbLine
 10
61.32261456566994
 20
267.7305374046455
 30
0.0
 11
226.3914938411742
 21
267.7305374046455
 31
0.0
  0
LINE
  5
222
330
2
100
AcDbEntity
  8
4
100
AcDbLine
 10
174.8570542034221
 20
232.7305374046455
 30
0.0
 11
196.8570542034221
 21
232.7305374046455
 31
0.0
  0
LINE
  5
223
330
2
100
AcDbEntity
  8
L-CENTER
 48
0.25
100
AcDbLine
 10
179.2761935943796
 20
242.7305374046455
 30
0.0
 11
198.4379148124646
 21
242.7305374046455
 31
0.0
  0
LINE
  5
224
330
2
100
AcDbEntity
  8
4
100
AcDbLine
 10
174.8570542034221
 20
302.7305374046455
 30
0.0
 11
196.8570542034221
 21
302.7305374046455
 31
0.0
  0
LINE
  5
225
330
2
100
AcDbEntity
  8
L-CENTER
 48
0.25
100
AcDbLine
 10
179.2761935943796
 20
292.7305374046455
 30
0.0
 11
198.4379148124646
 21
292.7305374046455
 31
0.0
  0
LINE
  5
226
330
2
100
AcDbEntity
  8
4
100
AcDbLine
 10
84.85705420342208
 20
261.7305374046455
 30
0.0
 11
97.85705420342208
 21
261.7305374046455
 31
0.0
  0
LINE
  5
227
330
2
100
AcDbEntity
  8
4
100
AcDbLine
 10
84.85705420342208
 20
273.7305374046455
 30
0.0
 11
97.85705420342208
 21
273.7305374046455
 31
0.0
  0
LINE
  5
228
330
2
100
AcDbEntity
  8
4
100
AcDbLine
 10
198.8570542034221
 20
300.7305374046455
 30
0.0
 11
198.8570542034221
 21
273.7305374046455
 31
0.0
  0
LINE
  5
229
330
2
100
AcDbEntity
  8
L-CENTER
 48
0.25
100
AcDbLine
 10
98.85705420342208
 20
302.311398013688
 30
0.0
 11
98.85705420342208
 21
283.1496767956031
 31
0.0
  0
LINE
  5
22A
330
2
100
AcDbEntity
  8
L-CENTER
 48
0.25
100
AcDbLine
 10
143.8570542034221
 20
196.3313674731368
 30
0.0
 11
143.8570542034221
 21
307.4527608022758
 31
0.0
  0
LINE
  5
22B
330
2
100
AcDbEntity
  8
L-CENTER
 48
0.25
100
AcDbLine
 10
188.8570542034221
 20
302.311398013688
 30
0.0
 11
188.8570542034221
 21
283.1496767956031
 31
0.0
  0
LINE
  5
22C
330
2
100
AcDbEntity
  8
4
100
AcDbLine
 10
102.8570542034221
 20
242.7305374046455
 30
0.0
 11
102.8570542034221
 21
292.7305374046455
 31
0.0
  0
LINE
  5
22D
330
2
100
AcDbEntity
  8
4
100
AcDbLine
 10
184.857054203422
 20
242.7305374046455
 30
0.0
 11
184.8570542034221
 21
292.7305374046455
 31
0.0
  0
LINE
  5
22E
330
2
100
AcDbEntity
  8
4
100
AcDbLine
 10
188.857054203422
 20
245.2305374046455
 30
0.0
 11
188.8570542034221
 21
290.2305374046455
 31
0.0
  0
LINE
  5
22F
330
2
100
AcDbEntity
  8
4
100
AcDbLine
 10
98.85705420342208
 20
245.2305374046455
 30
0.0
 11
98.85705420342208
 21
290.2305374046455
 31
0.0
  0
LINE
  5
230
330
2
100
AcDbEntity
  8
4
100
AcDbLine
 10
125.6654699936561
 20
230.7305374046455
 30
0.0
 11
162.0271279161658
 21
230.7305374046455
 31
0.0
  0
LINE
  5
231
330
2
100
AcDbEntity
  8
4
100
AcDbLine
 10
184.857054203422
 20
242.7305374046455
 30
0.0
 11
102.8570542034221
 21
242.7305374046455
 31
0.0
  0
LINE
  5
232
330
2
100
AcDbEntity
  8
4
100
AcDbLine
 10
183.8570542034221
 20
237.7305374046455
 30
0.0
 11
103.8570542034221
 21
237.7305374046455
 31
0.0
  0
LINE
  5
233
330
2
100
AcDbEntity
  8
4
100
AcDbLine
 10
184.857054203422
 20
243.7305374046455
 30
0.0
 11
102.8570542034221
 21
243.7305374046455
 31
0.0
  0
CIRCLE
  5
234
330
2
100
AcDbEntity
  8
4
100
AcDbCircle
 10
126.8570542034221
 20
267.7305374046455
 30
0.0
 40
14.0
  0
CIRCLE
  5
235
330
2
100
AcDbEntity
  8
4
100
AcDbCircle
 10
126.8570542034221
 20
267.7305374046455
 30
0.0
 40
12.5
  0
LWPOLYLINE
  5
236
330
2
100
AcDbEntity
  8
4
100
AcDbPolyline
 90
        6
 70
     1
 43
0.0
 10
139.3570542034221
 20
267.7305374046455
 10
133.1070542034221
 20
278.5558549519511
 10
120.6070542034221
 20
278.5558549519511
 10
114.3570542034221
 20
267.7305374046455
 10
120.6070542034221
 20
256.90521985734
 10
133.1070542034221
 20
256.90521985734
  0
LINE
  5
237
330
2
100
AcDbEntity
  8
4
100
AcDbLine
 10
198.8570542034221
 20
234.7305374046455
 30
0.0
 11
198.8570542034221
 21
261.7305374046455
 31
0.0
  0
ARC
  5
238
330
2
100
AcDbEntity
  8
4
100
AcDbCircle
 10
98.85705420342208
 20
242.7305374046455
 30
0.0
 40
4.5
100
AcDbArc
 50
89.99999999999982
 51
0.0
  0
LINE
  5
239
330
2
100
AcDbEntity
  8
L-CENTER
 48
0.25
100
AcDbLine
 10
98.85705420342208
 20
233.1496767956031
 30
0.0
 11
98.85705420342208
 21
252.311398013688
 31
0.0
  0
LINE
  5
23A
330
2
100
AcDbEntity
  8
4
100
AcDbLine
 10
103.8570542034221
 20
237.7305374046455
 30
0.0
 11
103.8570542034221
 21
242.7305374046455
 31
0.0
  0
LINE
  5
23B
330
2
100
AcDbEntity
  8
4
100
AcDbLine
 10
90.85705420342208
 20
232.7305374046455
 30
0.0
 11
112.8570542034221
 21
232.7305374046455
 31
0.0
  0
ARC
  5
23C
330
2
100
AcDbEntity
  8
4
100
AcDbCircle
 10
90.85705420342208
 20
234.7305374046455
 30
0.0
 40
2.0
100
AcDbArc
 50
180.0
 51
270.0
  0
ARC
  5
23D
330
2
100
AcDbEntity
  8
4
100
AcDbCircle
 10
112.8570542034221
 20
234.7305374046455
 30
0.0
 40
2.0
100
AcDbArc
 50
270.0
 51
0.0
  0
LINE
  5
23E
330
2
100
AcDbEntity
  8
4
100
AcDbLine
 10
114.8570542034221
 20
234.7305374046455
 30
0.0
 11
114.8570542034221
 21
237.7305374046455
 31
0.0
  0
LINE
  5
23F
330
2
100
AcDbEntity
  8
4
100
AcDbLine
 10
124.6876675795787
 20
231.5210083159146
 30
0.0
 11
123.3570542034221
 21
237.7305374046455
 31
0.0
  0
ARC
  5
240
330
2
100
AcDbEntity
  8
4
100
AcDbCircle
 10
125.6654699936561
 20
231.7305374046455
 30
0.0
 40
1.0
100
AcDbArc
 50
192.0947570770105
 51
270.0
  0
LINE
  5
241
330
2
100
AcDbEntity
  8
L-CENTER
 48
0.25
100
AcDbLine
 10
108.4379148124646
 20
242.7305374046455
 30
0.0
 11
89.2761935943796
 21
242.7305374046455
 31
0.0
  0
LINE
  5
242
330
2
100
AcDbEntity
  8
4
100
AcDbLine
 10
102.8570542034221
 20
245.2305374046455
 30
0.0
 11
98.85705420342208
 21
245.2305374046455
 31
0.0
  0
LINE
  5
243
330
2
100
AcDbEntity
  8
4
100
AcDbLine
 10
97.85717620342211
 20
283.7305374046455
 30
0.0
 11
97.85717620342211
 21
251.7305374046455
 31
0.0
  0
LINE
  5
244
330
2
100
AcDbEntity
  8
4
100
AcDbLine
 10
98.85717620342211
 20
251.7305374046455
 30
0.0
 11
97.85717620342211
 21
251.7305374046455
 31
0.0
  0
LINE
  5
245
330
2
100
AcDbEntity
  8
4
100
AcDbLine
 10
97.85717620342211
 20
283.7305374046455
 30
0.0
 11
98.85717620342211
 21
283.7305374046455
 31
0.0
  0
LINE
  5
246
330
2
100
AcDbEntity
  8
L-CENTER
 48
0.25
100
AcDbLine
 10
126.8570542034221
 20
249.8499651309876
 30
0.0
 11
126.8570542034221
 21
285.6111096783034
 31
0.0
  0
ARC
  5
247
330
2
100
AcDbEntity
  8
4
100
AcDbCircle
 10
98.85705420342208
 20
242.7305374046455
 30
0.0
 40
4.5
100
AcDbArc
 50
27.26604445073196
 51
33.74898859588772
  0
LINE
  5
248
330
2
100
AcDbEntity
  8
L-CENTER
 48
0.25
100
AcDbLine
 10
188.8570542034221
 20
233.1496767956031
 30
0.0
 11
188.8570542034221
 21
252.311398013688
 31
0.0
  0
LINE
  5
249
330
2
100
AcDbEntity
  8
4
100
AcDbLine
 10
183.8570542034221
 20
237.7305374046455
 30
0.0
 11
183.8570542034221
 21
242.7305374046455
 31
0.0
  0
ARC
  5
24A
330
2
100
AcDbEntity
  8
4
100
AcDbCircle
 10
188.8570542034221
 20
242.7305374046455
 30
0.0
 40
4.5
100
AcDbArc
 50
180.0
 51
90.00000000000072
  0
LINE
  5
24B
330
2
100
AcDbEntity
  8
4
100
AcDbLine
 10
163.0100001031002
 20
231.5462488695953
 30
0.0
 11
164.1695542034221
 21
237.7305374046455
 31
0.0
  0
ARC
  5
24C
330
2
100
AcDbEntity
  8
4
100
AcDbCircle
 10
162.0271279161658
 20
231.7305374046455
 30
0.0
 40
1.0
100
AcDbArc
 50
270.0
 51
349.380344723844
  0
LINE
  5
24D
330
2
100
AcDbEntity
  8
4
100
AcDbLine
 10
172.8570542034221
 20
234.7305374046455
 30
0.0
 11
172.8570542034221
 21
237.7305374046455
 31
0.0
  0
ARC
  5
24E
330
2
100
AcDbEntity
  8
4
100
AcDbCircle
 10
174.8570542034221
 20
234.7305374046455
 30
0.0
 40
2.0
100
AcDbArc
 50
180.0
 51
270.0
  0
LINE
  5
24F
330
2
100
AcDbEntity
  8
4
100
AcDbLine
 10
189.8570542034221
 20
283.7305374046455
 30
0.0
 11
189.8570542034221
 21
251.7305374046455
 31
0.0
  0
LINE
  5
250
330
2
100
AcDbEntity
  8
4
100
AcDbLine
 10
188.857054203422
 20
245.2305374046455
 30
0.0
 11
184.857054203422
 21
245.2305374046455
 31
0.0
  0
ARC
  5
251
330
2
100
AcDbEntity
  8
4
100
AcDbCircle
 10
188.8570542034221
 20
242.7305374046455
 30
0.0
 40
4.5
100
AcDbArc
 50
146.2510114041122
 51
152.733955549268
  0
LINE
  5
252
330
2
100
AcDbEntity
  8
4
100
AcDbLine
 10
188.8570542034221
 20
251.7305374046455
 30
0.0
 11
189.8570542034221
 21
251.7305374046455
 31
0.0
  0
LINE
  5
253
330
2
100
AcDbEntity
  8
4
100
AcDbLine
 10
189.8570542034221
 20
283.7305374046455
 30
0.0
 11
188.8570542034221
 21
283.7305374046455
 31
0.0
  0
LINE
  5
254
330
2
100
AcDbEntity
  8
4
100
AcDbLine
 10
183.8570542034221
 20
296.2305374046455
 30
0.0
 11
103.8570542034221
 21
296.2305374046455
 31
0.0
  0
LINE
  5
255
330
2
100
AcDbEntity
  8
4
100
AcDbLine
 10
184.8570542034221
 20
292.7305374046455
 30
0.0
 11
102.8570542034221
 21
292.7305374046455
 31
0.0
  0
LINE
  5
256
330
2
100
AcDbEntity
  8
4
100
AcDbLine
 10
184.8570542034221
 20
291.7305374046455
 30
0.0
 11
102.8570542034221
 21
291.7305374046455
 31
0.0
  0
LINE
  5
257
330
2
100
AcDbEntity
  8
4
100
AcDbLine
 10
182.8570542034221
 20
300.7305374046454
 30
0.0
 11
104.8570542034221
 21
300.7305374046454
 31
0.0
  0
LINE
  5
258
330
2
100
AcDbEntity
  8
4
100
AcDbLine
 10
183.8570542034221
 20
296.5305374046455
 30
0.0
 11
103.8570542034221
 21
296.5305374046455
 31
0.0
  0
LINE
  5
259
330
2
100
AcDbEntity
  8
4
100
AcDbLine
 10
159.0897272034222
 20
304.7305374046454
 30
0.0
 11
128.6243812034221
 21
304.7305374046454
 31
0.0
  0
LINE
  5
25A
330
2
100
AcDbEntity
  8
4
100
AcDbLine
 10
159.0897272034222
 20
304.7305374046454
 30
0.0
 11
128.6243812034221
 21
304.7305374046454
 31
0.0
  0
LINE
  5
25B
330
2
100
AcDbEntity
  8
4
100
AcDbLine
 10
90.85705420342208
 20
302.7305374046455
 30
0.0
 11
112.8570542034221
 21
302.7305374046455
 31
0.0
  0
LINE
  5
25C
330
2
100
AcDbEntity
  8
L-CENTER
 48
0.25
100
AcDbLine
 10
89.2761935943796
 20
292.7305374046455
 30
0.0
 11
108.4379148124646
 21
292.7305374046455
 31
0.0
  0
LINE
  5
25D
330
2
100
AcDbEntity
  8
4
100
AcDbLine
 10
102.8570542034221
 20
290.2305374046455
 30
0.0
 11
98.85705420342208
 21
290.2305374046455
 31
0.0
  0
ARC
  5
25E
330
2
100
AcDbEntity
  8
4
100
AcDbCircle
 10
98.85705420342208
 20
292.7305374046455
 30
0.0
 40
4.5
100
AcDbArc
 50
0.0
 51
270.0
  0
ARC
  5
25F
330
2
100
AcDbEntity
  8
4
100
AcDbCircle
 10
90.85705420342208
 20
300.7305374046455
 30
0.0
 40
2.0
100
AcDbArc
 50
90.0
 51
180.0
  0
LINE
  5
260
330
2
100
AcDbEntity
  8
4
100
AcDbLine
 10
114.8583202034223
 20
302.0305374046455
 30
0.0
 11
123.3583202034223
 21
302.0305374046455
 31
0.0
  0
LINE
  5
261
330
2
100
AcDbEntity
  8
4
100
AcDbLine
 10
114.8583202034223
 20
307.0305374046455
 30
0.0
 11
123.3583202034223
 21
307.0305374046455
 31
0.0
  0
ARC
  5
262
330
2
100
AcDbEntity
  8
4
100
AcDbCircle
 10
112.8570542034221
 20
300.7305374046455
 30
0.0
 40
2.0
100
AcDbArc
 50
0.0
 51
90.0
  0
LINE
  5
263
330
2
100
AcDbEntity
  8
4
100
AcDbLine
 10
103.8570542034221
 20
299.7305374046454
 30
0.0
 11
103.8570542034221
 21
296.5305374046455
 31
0.0
  0
ARC
  5
264
330
2
100
AcDbEntity
  8
4
100
AcDbCircle
 10
98.85705420342208
 20
292.7305374046455
 30
0.0
 40
4.5
100
AcDbArc
 50
326.2510114041123
 51
332.733955549268
  0
LINE
  5
265
330
2
100
AcDbEntity
  8
4
100
AcDbLine
 10
103.8570542034221
 20
292.7305374046455
 30
0.0
 11
103.8570542034221
 21
296.2305374046455
 31
0.0
  0
ARC
  5
266
330
2
100
AcDbEntity
  8
4
100
AcDbCircle
 10
104.8570542034221
 20
299.7305374046454
 30
0.0
 40
1.0
100
AcDbArc
 50
90.0
 51
180.0
  0
LINE
  5
267
330
2
100
AcDbEntity
  8
4
100
AcDbLine
 10
114.8583202034223
 20
307.0305374046455
 30
0.0
 11
114.8583202034223
 21
300.7305374046455
 31
0.0
  0
LINE
  5
268
330
2
100
AcDbEntity
  8
L-CENTER
 48
0.25
100
AcDbLine
 10
119.1083202034223
 20
308.5041319647019
 30
0.0
 11
119.1083202034223
 21
289.7010184046456
 31
0.0
  0
LINE
  5
269
330
2
100
AcDbEntity
  8
4
100
AcDbLine
 10
123.3583202034223
 20
307.0305374046455
 30
0.0
 11
123.3583202034223
 21
300.7305374046455
 31
0.0
  0
LINE
  5
26A
330
2
100
AcDbEntity
  8
4
100
AcDbLine
 10
126.9838562034221
 20
301.4717184046454
 30
0.0
 11
127.6584552034221
 21
303.9893574046454
 31
0.0
  0
LINE
  5
26B
330
2
100
AcDbEntity
  8
4
100
AcDbLine
 10
126.9838562034221
 20
301.4717184046454
 30
0.0
 11
127.6584552034221
 21
303.9893574046454
 31
0.0
  0
ARC
  5
26C
330
2
100
AcDbEntity
  8
4
100
AcDbCircle
 10
128.6243812034221
 20
303.7305374046454
 30
0.0
 40
1.0
100
AcDbArc
 50
90.0
 51
164.9999999999989
  0
ARC
  5
26D
330
2
100
AcDbEntity
  8
4
100
AcDbCircle
 10
128.6243812034221
 20
303.7305374046454
 30
0.0
 40
1.0
100
AcDbArc
 50
90.0
 51
164.9999999999989
  0
ARC
  5
26E
330
2
100
AcDbEntity
  8
4
100
AcDbCircle
 10
126.0179302034221
 20
301.7305374046454
 30
0.0
 40
1.0
100
AcDbArc
 50
270.0
 51
344.9999999999989
  0
ARC
  5
26F
330
2
100
AcDbEntity
  8
4
100
AcDbCircle
 10
126.0179302034221
 20
301.7305374046454
 30
0.0
 40
1.0
100
AcDbArc
 50
270.0
 51
344.9999999999989
  0
LINE
  5
274
330
2
100
AcDbEntity
  8
4
100
AcDbLine
 10
155.8570542034221
 20
305.7305374046454
 30
0.0
 11
131.8570542034221
 21
305.7305374046454
 31
0.0
  0
LINE
  5
275
330
2
100
AcDbEntity
  8
4
100
AcDbLine
 10
131.857054203422
 20
305.7305374046453
 30
0.0
 11
131.8570542034221
 21
304.7305374046454
 31
0.0
  0
ARC
  5
276
330
2
100
AcDbEntity
  8
4
100
AcDbCircle
 10
159.0897272034221
 20
303.7305374046454
 30
0.0
 40
1.0
100
AcDbArc
 50
15.00000000000113
 51
90.0
  0
ARC
  5
277
330
2
100
AcDbEntity
  8
4
100
AcDbCircle
 10
159.0897272034221
 20
303.7305374046454
 30
0.0
 40
1.0
100
AcDbArc
 50
15.00000000000113
 51
90.0
  0
LINE
  5
278
330
2
100
AcDbEntity
  8
4
100
AcDbLine
 10
155.8570542034221
 20
305.7305374046453
 30
0.0
 11
155.8570542034221
 21
304.7305374046454
 31
0.0
  0
ARC
  5
279
330
2
100
AcDbEntity
  8
4
100
AcDbCircle
 10
161.6961782034221
 20
301.7305374046454
 30
0.0
 40
1.0
100
AcDbArc
 50
195.0000000000011
 51
270.0
  0
ARC
  5
27A
330
2
100
AcDbEntity
  8
4
100
AcDbCircle
 10
161.6961782034221
 20
301.7305374046454
 30
0.0
 40
1.0
100
AcDbArc
 50
195.0000000000011
 51
270.0
  0
LINE
  5
27B
330
2
100
AcDbEntity
  8
4
100
AcDbLine
 10
160.7302522034221
 20
301.4717184046454
 30
0.0
 11
160.055653203422
 21
303.9893574046454
 31
0.0
  0
LINE
  5
27C
330
2
100
AcDbEntity
  8
4
100
AcDbLine
 10
160.7302522034221
 20
301.4717184046454
 30
0.0
 11
160.055653203422
 21
303.9893574046454
 31
0.0
  0
LINE
  5
27E
330
2
100
AcDbEntity
  8
L-CENTER
 48
0.25
100
AcDbLine
 10
168.6057882034219
 20
308.5041319647019
 30
0.0
 11
168.6057882034219
 21
289.7010184046456
 31
0.0
  0
LINE
  5
27F
330
2
100
AcDbEntity
  8
4
100
AcDbLine
 10
172.8557882034219
 20
307.0305374046455
 30
0.0
 11
164.3557882034219
 21
307.0305374046455
 31
0.0
  0
LINE
  5
280
330
2
100
AcDbEntity
  8
4
100
AcDbLine
 10
172.8557882034219
 20
302.0305374046455
 30
0.0
 11
164.3557882034219
 21
302.0305374046455
 31
0.0
  0
LINE
  5
281
330
2
100
AcDbEntity
  8
4
100
AcDbLine
 10
164.3557882034219
 20
307.0305374046455
 30
0.0
 11
164.3557882034219
 21
300.7305374046455
 31
0.0
  0
LINE
  5
282
330
2
100
AcDbEntity
  8
4
100
AcDbLine
 10
172.8557882034219
 20
307.0305374046455
 30
0.0
 11
172.8557882034219
 21
300.7305374046455
 31
0.0
  0
ARC
  5
283
330
2
100
AcDbEntity
  8
4
100
AcDbCircle
 10
174.8570542034221
 20
300.7305374046455
 30
0.0
 40
2.0
100
AcDbArc
 50
90.0
 51
180.0
  0
LINE
  5
284
330
2
100
AcDbEntity
  8
4
100
AcDbLine
 10
183.8570542034221
 20
299.7305374046454
 30
0.0
 11
183.8570542034221
 21
296.5305374046455
 31
0.0
  0
ARC
  5
285
330
2
100
AcDbEntity
  8
4
100
AcDbCircle
 10
188.8570542034221
 20
292.7305374046455
 30
0.0
 40
4.5
100
AcDbArc
 50
270.0000000000003
 51
180.0
  0
LINE
  5
286
330
2
100
AcDbEntity
  8
4
100
AcDbLine
 10
188.8570542034221
 20
290.2305374046455
 30
0.0
 11
184.8570542034221
 21
290.2305374046455
 31
0.0
  0
LINE
  5
287
330
2
100
AcDbEntity
  8
4
100
AcDbLine
 10
183.8570542034221
 20
292.7305374046454
 30
0.0
 11
183.8570542034221
 21
296.2305374046455
 31
0.0
  0
ARC
  5
288
330
2
100
AcDbEntity
  8
4
100
AcDbCircle
 10
188.8570542034221
 20
292.7305374046455
 30
0.0
 40
4.5
100
AcDbArc
 50
207.266044450732
 51
213.7489885958878
  0
ARC
  5
289
330
2
100
AcDbEntity
  8
4
100
AcDbCircle
 10
182.8570542034221
 20
299.7305374046454
 30
0.0
 40
1.0
100
AcDbArc
 50
0.0
 51
90.0
  0
LINE
  5
28F
330
2
100
AcDbEntity
  8
4
100
AcDbLine
 10
88.85705420342208
 20
300.7305374046455
 30
0.0
 11
88.85705420342208
 21
273.7305374046455
 31
0.0
  0
LINE
  5
290
330
2
100
AcDbEntity
  8
4
100
AcDbLine
 10
88.85705420342208
 20
234.7305374046455
 30
0.0
 11
88.85705420342208
 21
261.7305374046455
 31
0.0
  0
ARC
  5
291
330
2
100
AcDbEntity
  8
4
100
AcDbCircle
 10
196.8570542034221
 20
234.7305374046455
 30
0.0
 40
2.0
100
AcDbArc
 50
270.0
 51
0.0
  0
LINE
  5
292
330
2
100
AcDbEntity
  8
4
100
AcDbLine
 10
84.85705420342208
 20
273.7305374046455
 30
0.0
 11
84.85705420342208
 21
261.7305374046455
 31
0.0
  0
LINE
  5
293
330
2
100
AcDbEntity
  8
4
100
AcDbLine
 10
62.85705420342208
 20
272.2305374046455
 30
0.0
 11
62.85705420342208
 21
263.2305374046455
 31
0.0
  0
LINE
  5
294
330
2
100
AcDbEntity
  8
4
100
AcDbLine
 10
63.35705420342208
 20
264.7305374046455
 30
0.0
 11
63.35705420342208
 21
262.7305374046455
 31
0.0
  0
LINE
  5
295
330
2
100
AcDbEntity
  8
4
100
AcDbLine
 10
63.35705420342208
 20
262.7305374046455
 30
0.0
 11
84.35705420342208
 21
262.7305374046455
 31
0.0
  0
ARC
  5
296
330
2
100
AcDbEntity
  8
4
100
AcDbCircle
 10
84.35705420342208
 20
262.2305374046455
 30
0.0
 40
0.5
100
AcDbArc
 50
0.0
 51
90.0
  0
LINE
  5
297
330
2
100
AcDbEntity
  8
4
100
AcDbLine
 10
62.85705420342208
 20
263.2305374046455
 30
0.0
 11
63.35705420342208
 21
262.7305374046455
 31
0.0
  0
LINE
  5
298
330
2
100
AcDbEntity
  8
4
100
AcDbLine
 10
63.35705420342208
 20
272.7305374046455
 30
0.0
 11
84.35705420342208
 21
272.7305374046455
 31
0.0
  0
LINE
  5
299
330
2
100
AcDbEntity
  8
4
100
AcDbLine
 10
62.85705420342208
 20
270.7305374046455
 30
0.0
 11
79.85705420342211
 21
270.7305374046455
 31
0.0
  0
LINE
  5
29A
330
2
100
AcDbEntity
  8
4
100
AcDbLine
 10
62.85705420342208
 20
264.7305374046455
 30
0.0
 11
79.85705420342211
 21
264.7305374046455
 31
0.0
  0
ARC
  5
29B
330
2
100
AcDbEntity
  8
4
100
AcDbCircle
 10
84.35705420342208
 20
273.2305374046455
 30
0.0
 40
0.5
100
AcDbArc
 50
270.0
 51
0.0
  0
ARC
  5
29C
330
2
100
AcDbEntity
  8
4
100
AcDbCircle
 10
79.85705420342208
 20
267.7305374046455
 30
0.0
 40
3.0
100
AcDbArc
 50
270.0
 51
90.0
  0
LINE
  5
29D
330
2
100
AcDbEntity
  8
4
100
AcDbLine
 10
63.35705420342208
 20
272.7305374046455
 30
0.0
 11
63.35705420342208
 21
270.7305374046455
 31
0.0
  0
LINE
  5
29E
330
2
100
AcDbEntity
  8
4
100
AcDbLine
 10
62.85705420342208
 20
272.2305374046455
 30
0.0
 11
63.35705420342208
 21
272.7305374046455
 31
0.0
  0
ARC
  5
29F
330
2
100
AcDbEntity
  8
4
100
AcDbCircle
 10
196.8570542034221
 20
300.7305374046455
 30
0.0
 40
2.0
100
AcDbArc
 50
0.0
 51
90.0
  0
LINE
  5
4A9
330
2
100
AcDbEntity
  8
4
100
AcDbLine
 10
189.8570542034221
 20
111.6867497862818
 30
0.0
 11
202.8570542034221
 21
111.6867497862818
 31
0.0
  0
LINE
  5
4AA
330
2
100
AcDbEntity
  8
4
100
AcDbLine
 10
189.8570542034221
 20
99.68674978628178
 30
0.0
 11
202.8570542034221
 21
99.68674978628178
 31
0.0
  0
LINE
  5
4AB
330
2
100
AcDbEntity
  8
4
100
AcDbLine
 10
202.8570542034221
 20
99.68674978628178
 30
0.0
 11
202.8570542034221
 21
111.6867497862818
 31
0.0
  0
LINE
  5
4AC
330
2
100
AcDbEntity
  8
4
100
AcDbLine
 10
224.8570542034221
 20
109.6867497862818
 30
0.0
 11
205.8570542034221
 21
109.6867497862818
 31
0.0
  0
LINE
  5
4AD
330
2
100
AcDbEntity
  8
4
100
AcDbLine
 10
202.8570542034221
 20
100.6867497862818
 30
0.0
 11
224.3570542034221
 21
100.6867497862818
 31
0.0
  0
LINE
  5
4AE
330
2
100
AcDbEntity
  8
4
100
AcDbLine
 10
204.8570542034221
 20
110.6867497862818
 30
0.0
 11
202.8570542034221
 21
110.6867497862818
 31
0.0
  0
ARC
  5
4AF
330
2
100
AcDbEntity
  8
4
100
AcDbCircle
 10
205.8570542034221
 20
110.6867497862818
 30
0.0
 40
1.0
100
AcDbArc
 50
180.0
 51
270.0
  0
LINE
  5
4B0
330
2
100
AcDbEntity
  8
4
100
AcDbLine
 10
224.8570542034221
 20
101.1867497862818
 30
0.0
 11
224.3570542034221
 21
100.6867497862818
 31
0.0
  0
LINE
  5
4B1
330
2
100
AcDbEntity
  8
4
100
AcDbLine
 10
224.8570542034221
 20
109.6867497862818
 30
0.0
 11
224.8570542034221
 21
101.1867497862818
 31
0.0
  0
LINE
  5
4B2
330
2
100
AcDbEntity
  8
4
100
AcDbLine
 10
224.3570542034221
 20
109.6867497862818
 30
0.0
 11
224.3570542034221
 21
100.6867497862818
 31
0.0
  0
LINE
  5
4B5
330
2
100
AcDbEntity
  8
4
100
AcDbLine
 10
202.8570542034221
 20
261.7305374046455
 30
0.0
 11
189.8570542034221
 21
261.7305374046455
 31
0.0
  0
LINE
  5
4B6
330
2
100
AcDbEntity
  8
4
100
AcDbLine
 10
202.8570542034221
 20
273.7305374046455
 30
0.0
 11
189.8570542034221
 21
273.7305374046455
 31
0.0
  0
LINE
  5
4B7
330
2
100
AcDbEntity
  8
4
100
AcDbLine
 10
202.8570542034221
 20
273.7305374046455
 30
0.0
 11
202.8570542034221
 21
261.7305374046455
 31
0.0
  0
LINE
  5
4B8
330
2
100
AcDbEntity
  8
4
100
AcDbLine
 10
224.8570542034221
 20
272.2305374046455
 30
0.0
 11
224.8570542034221
 21
263.2305374046455
 31
0.0
  0
LINE
  5
4B9
330
2
100
AcDbEntity
  8
4
100
AcDbLine
 10
224.3570542034221
 20
264.7305374046455
 30
0.0
 11
224.3570542034221
 21
262.7305374046455
 31
0.0
  0
LINE
  5
4BA
330
2
100
AcDbEntity
  8
4
100
AcDbLine
 10
224.3570542034221
 20
262.7305374046455
 30
0.0
 11
203.3570542034221
 21
262.7305374046455
 31
0.0
  0
ARC
  5
4BB
330
2
100
AcDbEntity
  8
4
100
AcDbCircle
 10
203.3570542034221
 20
262.2305374046455
 30
0.0
 40
0.5
100
AcDbArc
 50
90.0
 51
180.0
  0
LINE
  5
4BC
330
2
100
AcDbEntity
  8
4
100
AcDbLine
 10
224.8570542034221
 20
263.2305374046455
 30
0.0
 11
224.3570542034221
 21
262.7305374046455
 31
0.0
  0
LINE
  5
4BD
330
2
100
AcDbEntity
  8
4
100
AcDbLine
 10
224.3570542034221
 20
272.7305374046455
 30
0.0
 11
203.3570542034221
 21
272.7305374046455
 31
0.0
  0
LINE
  5
4BE
330
2
100
AcDbEntity
  8
4
100
AcDbLine
 10
224.8570542034221
 20
270.7305374046455
 30
0.0
 11
207.8570542034221
 21
270.7305374046455
 31
0.0
  0
LINE
  5
4BF
330
2
100
AcDbEntity
  8
4
100
AcDbLine
 10
224.8570542034221
 20
264.7305374046455
 30
0.0
 11
207.8570542034221
 21
264.7305374046455
 31
0.0
  0
ARC
  5
4C0
330
2
100
AcDbEntity
  8
4
100
AcDbCircle
 10
203.3570542034221
 20
273.2305374046455
 30
0.0
 40
0.5
100
AcDbArc
 50
180.0
 51
270.0
  0
ARC
  5
4C1
330
2
100
AcDbEntity
  8
4
100
AcDbCircle
 10
207.8570542034221
 20
267.7305374046455
 30
0.0
 40
3.0
100
AcDbArc
 50
90.0
 51
270.0
  0
LINE
  5
4C2
330
2
100
AcDbEntity
  8
4
100
AcDbLine
 10
224.3570542034221
 20
272.7305374046455
 30
0.0
 11
224.3570542034221
 21
270.7305374046455
 31
0.0
  0
LINE
  5
4C3
330
2
100
AcDbEntity
  8
4
100
AcDbLine
 10
224.8570542034221
 20
272.2305374046455
 30
0.0
 11
224.3570542034221
 21
272.7305374046455
 31
0.0
  0
LINE
  5
4D3
330
2
100
AcDbEntity
  8
4
100
AcDbLine
 10
322.7467155135309
 20
109.6867497862817
 30
0.0
 11
328.7467155135309
 21
109.6867497862817
 31
0.0
  0
CIRCLE
  5
4D5
330
2
100
AcDbEntity
  8
4
100
AcDbCircle
 10
325.7467155135309
 20
105.6867497862817
 30
0.0
 40
6.000000000000057
  0
CIRCLE
  5
4D7
330
2
100
AcDbEntity
  8
4
100
AcDbCircle
 10
325.7467155135309
 20
105.6867497862817
 30
0.0
 40
5.0
  0
LINE
  5
561
330
2
100
AcDbEntity
  8
4
100
AcDbLine
 10
287.7467155135309
 20
76.1867497862819
 30
0.0
 11
280.7467155135309
 21
76.1867497862819
 31
0.0
  0
LINE
  5
562
330
2
100
AcDbEntity
  8
4
100
AcDbLine
 10
287.7467155135309
 20
61.18674978628189
 30
0.0
 11
256.2467155135309
 21
61.18674978628189
 31
0.0
  0
LINE
  5
563
330
2
100
AcDbEntity
  8
4
100
AcDbLine
 10
287.7467155135309
 20
80.6867497862819
 30
0.0
 11
287.7467155135309
 21
56.68674978628189
 31
0.0
  0
LINE
  5
564
330
2
100
AcDbEntity
  8
4
100
AcDbLine
 10
287.7467155135309
 20
56.68674978628189
 30
0.0
 11
288.7467155135309
 21
56.68674978628189
 31
0.0
  0
LINE
  5
565
330
2
100
AcDbEntity
  8
4
100
AcDbLine
 10
287.7467155135309
 20
80.6867497862819
 30
0.0
 11
288.7467155135309
 21
80.6867497862819
 31
0.0
  0
LINE
  5
566
330
2
100
AcDbEntity
  8
4
100
AcDbLine
 10
256.2467155135309
 20
75.1867497862819
 30
0.0
 11
256.2467155135309
 21
61.18674978628189
 31
0.0
  0
LINE
  5
567
330
2
100
AcDbEntity
  8
4
100
AcDbLine
 10
255.7467155135309
 20
75.1867497862819
 30
0.0
 11
255.7467155135309
 21
61.68674978628189
 31
0.0
  0
LINE
  5
568
330
2
100
AcDbEntity
  8
4
100
AcDbLine
 10
255.7467155135309
 20
61.68674978628189
 30
0.0
 11
256.2467155135309
 21
61.18674978628189
 31
0.0
  0
LINE
  5
569
330
2
100
AcDbEntity
  8
4
100
AcDbLine
 10
255.7467155135309
 20
75.1867497862819
 30
0.0
 11
279.7467155135309
 21
75.1867497862819
 31
0.0
  0
ARC
  5
56A
330
2
100
AcDbEntity
  8
4
100
AcDbCircle
 10
279.7467155135309
 20
76.1867497862819
 30
0.0
 40
1.0
100
AcDbArc
 50
270.0
 51
0.0
  0
LINE
  5
58D
330
2
100
AcDbEntity
  8
4
100
AcDbLine
 10
151.357054203422
 20
229.7305374046456
 30
0.0
 11
151.357054203422
 21
198.2305374046452
 31
0.0
  0
LINE
  5
58E
330
2
100
AcDbEntity
  8
4
100
AcDbLine
 10
136.3570542034221
 20
229.7305374046458
 30
0.0
 11
136.3570542034221
 21
198.2305374046451
 31
0.0
  0
LINE
  5
58F
330
2
100
AcDbEntity
  8
4
100
AcDbLine
 10
140.1155542034221
 20
218.9890374046452
 30
0.0
 11
140.1155542034221
 21
197.7305374046451
 31
0.0
  0
LINE
  5
590
330
2
100
AcDbEntity
  8
4
100
AcDbLine
 10
147.5985542034221
 20
218.9890374046452
 30
0.0
 11
147.5985542034221
 21
197.7305374046452
 31
0.0
  0
LINE
  5
591
330
2
100
AcDbEntity
  8
4
100
AcDbLine
 10
155.8570542034221
 20
229.7305374046456
 30
0.0
 11
131.8570542034221
 21
229.7305374046456
 31
0.0
  0
LINE
  5
592
330
2
100
AcDbEntity
  8
4
100
AcDbLine
 10
131.857054203422
 20
229.7305374046458
 30
0.0
 11
131.8570542034221
 21
230.7305374046456
 31
0.0
  0
LINE
  5
593
330
2
100
AcDbEntity
  8
4
100
AcDbLine
 10
155.8570542034221
 20
229.7305374046458
 30
0.0
 11
155.8570542034221
 21
230.7305374046456
 31
0.0
  0
ARC
  5
594
330
2
100
AcDbEntity
  8
4
100
AcDbCircle
 10
143.8570542034221
 20
218.9890374046452
 30
0.0
 40
3.741500000000002
100
AcDbArc
 50
0.0
 51
180.0
  0
LINE
  5
595
330
2
100
AcDbEntity
  8
4
100
AcDbLine
 10
136.8570542034221
 20
197.7305374046451
 30
0.0
 11
150.857054203422
 21
197.7305374046452
 31
0.0
  0
LINE
  5
596
330
2
100
AcDbEntity
  8
4
100
AcDbLine
 10
136.3570542034221
 20
198.2305374046453
 30
0.0
 11
140.1155542034221
 21
198.2305374046453
 31
0.0
  0
LINE
  5
597
330
2
100
AcDbEntity
  8
4
100
AcDbLine
 10
136.3570542034221
 20
198.2305374046451
 30
0.0
 11
136.8570542034221
 21
197.7305374046451
 31
0.0
  0
LINE
  5
598
330
2
100
AcDbEntity
  8
4
100
AcDbLine
 10
151.357054203422
 20
198.2305374046452
 30
0.0
 11
150.857054203422
 21
197.7305374046452
 31
0.0
  0
LINE
  5
599
330
2
100
AcDbEntity
  8
4
100
AcDbLine
 10
147.5985542034221
 20
198.2305374046451
 30
0.0
 11
151.3570542034224
 21
198.2305374046452
 31
0.0
  0
LINE
  5
5A1
330
2
100
AcDbEntity
  8
4
100
AcDbLine
 10
140.115354203422
 20
75.18674978628178
 30
0.0
 11
147.598753203422
 21
75.18674978628178
 31
0.0
  0
CIRCLE
  5
5A4
330
2
100
AcDbEntity
  8
4
100
AcDbCircle
 10
143.8570542034221
 20
68.68674978628178
 30
0.0
 40
7.5
  0
CIRCLE
  5
5A5
330
2
100
AcDbEntity
  8
4
100
AcDbCircle
 10
143.8570542034221
 20
68.68674978628178
 30
0.0
 40
12.00000000000011
  0
ENDSEC
  0
SECTION
  2
OBJECTS
  0
DICTIONARY
  5
C
330
0
100
AcDbDictionary
281
     1
  3
ACAD_CIP_PREVIOUS_PRODUCT_INFO
350
402
  3
ACAD_COLOR
350
4A
  3
ACAD_DETAILVIEWSTYLE
350
3FC
  3
ACAD_GROUP
350
37
  3
ACAD_LAYOUT
350
19
  3
ACAD_MATERIAL
350
E
  3
ACAD_MLEADERSTYLE
350
4D
  3
ACAD_MLINESTYLE
350
38
  3
ACAD_PLOTSETTINGS
350
39
  3
ACAD_PLOTSTYLENAME
350
B
  3
ACAD_SCALELIST
350
4B
  3
ACAD_SECTIONVIEWSTYLE
350
3FA
  3
ACAD_TABLESTYLE
350
4C
  3
ACAD_VISUALSTYLE
350
30
  3
ACDBHEADERROUNDTRIPXREC
350
5D2
  3
AcDbVariableDictionary
350
3D9
  3
DWGPROPS
350
5D5
  0
DICTIONARY
  5
5D6
330
2D
100
AcDbDictionary
280
     1
281
     1
  3
ACAD_XREC_ROUNDTRIP
360
5D7
  0
DICTIONARY
  5
23
330
22
100
AcDbDictionary
280
     1
281
     1
  3
ACAD_LAYERSTATES
360
24
  0
DICTIONARY
  5
8
330
7
100
AcDbDictionary
280
     1
281
     1
  3
ADSK_XREC_LAYER_RECONCILED
360
9
  0
DICTIONARY
  5
2AF
330
2AE
100
AcDbDictionary
280
     1
281
     1
  3
ADSK_XREC_LAYER_RECONCILED
360
2B0
  0
DICTIONARY
  5
4F
330
4E
100
AcDbDictionary
280
     1
281
     1
  3
ADSK_XREC_LAYER_RECONCILED
360
50
  0
DICTIONARY
  5
6A
330
69
100
AcDbDictionary
280
     1
281
     1
  3
ADSK_XREC_LAYER_RECONCILED
360
6B
  0
DICTIONARY
  5
72
330
71
100
AcDbDictionary
280
     1
281
     1
  3
ADSK_XREC_LAYER_RECONCILED
360
73
  0
DICTIONARY
  5
79
330
78
100
AcDbDictionary
280
     1
281
     1
  3
ADSK_XREC_LAYER_RECONCILED
360
7A
  0
DICTIONARY
  5
3
330
2
100
AcDbDictionary
280
     1
281
     1
  3
ACAD_SORTENTS
360
3D7
  0
XRECORD
  5
402
102
{ACAD_REACTORS
330
C
102
}
330
C
100
AcDbXrecord
280
     1
300
ACD
300
2014
300
ACD_F_S
  0
DICTIONARY
  5
4A
102
{ACAD_REACTORS
330
C
102
}
330
C
100
AcDbDictionary
281
     1
  0
DICTIONARY
  5
3FC
102
{ACAD_REACTORS
330
C
102
}
330
C
100
AcDbDictionary
281
     1
  3
Imperial24
350
3FD
  0
DICTIONARY
  5
37
102
{ACAD_REACTORS
330
C
102
}
330
C
100
AcDbDictionary
281
     1
  0
DICTIONARY
  5
19
102
{ACAD_REACTORS
330
C
102
}
330
C
100
AcDbDictionary
281
     1
  3
Model
350
18
  3
ﾚｲｱｳﾄ1
350
21
  0
DICTIONARY
  5
E
102
{ACAD_REACTORS
330
C
102
}
330
C
100
AcDbDictionary
281
     1
  3
ByBlock
350
42
  3
ByLayer
350
3A
  3
Global
350
D
  0
DICTIONARY
  5
4D
102
{ACAD_REACTORS
330
C
102
}
330
C
100
AcDbDictionary
281
     1
  3
Standard
350
3F9
  0
DICTIONARY
  5
38
102
{ACAD_REACTORS
330
C
102
}
330
C
100
AcDbDictionary
281
     1
  3
STANDARD
350
52
  0
DICTIONARY
  5
39
102
{ACAD_REACTORS
330
C
102
}
330
C
100
AcDbDictionary
281
     1
  0
ACDBDICTIONARYWDFLT
  5
B
102
{ACAD_REACTORS
330
C
102
}
330
C
100
AcDbDictionary
281
     1
  3
Normal
350
A
100
AcDbDictionaryWithDefault
340
A
  0
DICTIONARY
  5
4B
102
{ACAD_REACTORS
330
C
102
}
330
C
100
AcDbDictionary
281
     1
  3
A0
350
56
  3
A1
350
57
  3
A2
350
58
  3
A3
350
59
  3
A4
350
5A
  3
A5
350
5B
  3
A6
350
5C
  3
A7
350
5D
  3
A8
350
5E
  3
A9
350
5F
  3
B0
350
60
  3
B1
350
61
  3
B2
350
62
  3
B3
350
63
  3
B4
350
64
  3
B5
350
65
  3
B6
350
66
  0
DICTIONARY
  5
3FA
102
{ACAD_REACTORS
330
C
102
}
330
C
100
AcDbDictionary
281
     1
  3
Imperial24
350
3FB
  0
DICTIONARY
  5
4C
102
{ACAD_REACTORS
330
C
102
}
330
C
100
AcDbDictionary
281
     1
  3
Standard
350
53
  0
DICTIONARY
  5
30
102
{ACAD_REACTORS
330
C
102
}
330
C
100
AcDbDictionary
281
     1
  3
2dWireframe
350
2F
  3
Basic
350
3E8
  3
Brighten
350
3EC
  3
ColorChange
350
3F0
  3
Conceptual
350
3EA
  3
Dim
350
3EB
  3
EdgeColorOff
350
3F8
  3
Facepattern
350
3EF
  3
Flat
350
3E4
  3
FlatWithEdges
350
3E5
  3
Gouraud
350
3E6
  3
GouraudWithEdges
350
3E7
  3
Hidden
350
3E9
  3
JitterOff
350
3F6
  3
Linepattern
350
3EE
  3
OverhangOff
350
3F7
  3
Realistic
350
54
  3
Shaded
350
3F5
  3
Shaded with edges
350
3F4
  3
Shades of Gray
350
3F1
  3
Sketchy
350
3F2
  3
Thicken
350
3ED
  3
Wireframe
350
55
  3
X-Ray
350
3F3
  0
DICTIONARY
  5
5D2
102
{ACAD_REACTORS
330
C
102
}
330
C
100
AcDbDictionary
281
     1
  3
COLORDICT
350
5D3
  3
MATERIALDICT
350
5D4
  0
DICTIONARY
  5
3D9
102
{ACAD_REACTORS
330
C
102
}
330
C
100
AcDbDictionary
281
     1
  3
CANNOSCALE
350
3DF
  3
CMLEADERSTYLE
350
3DB
  3
CTABLESTYLE
350
3DA
  3
CVIEWDETAILSTYLE
350
3DC
  3
CVIEWSECTIONSTYLE
350
3DD
  3
DIMASSOC
350
5D0
  3
HIDETEXT
350
5D1
  3
LAYEREVAL
350
3E1
  3
LAYERNOTIFY
350
3E2
  3
LIGHTINGUNITS
350
3E0
  3
MSLTSCALE
350
3DE
  3
XCLIPFRAME
350
55C
  0
XRECORD
  5
5D5
102
{ACAD_REACTORS
330
C
102
}
330
C
100
AcDbXrecord
280
     1
  1
DWGPROPS COOKIE
  2

  3

  4

  6

  7

  8
sg-d04
  9

300
=
301
=
302
=
303
=
304
=
305
=
306
=
307
=
308
=
309
=
 40
0.0
 41
2457345.440903194
 42
2457871.450868484
  1

 90
        0
  0
XRECORD
  5
5D7
102
{ACAD_REACTORS
330
5D6
102
}
330
5D6
100
AcDbXrecord
280
     1
102
VTR_0.000_0.000_1.000_1.000_VISUALSTYLE
340
2F
102
VTR_0.000_0.000_1.000_1.000_GRIDDISPLAY
 70
     3
102
VTR_0.000_0.000_1.000_1.000_GRIDMAJOR
 70
     5
102
VTR_0.000_0.000_1.000_1.000_DEFAULTLIGHTING
280
     1
102
VTR_0.000_0.000_1.000_1.000_DEFAULTLIGHTINGTYPE
 70
     1
102
VTR_0.000_0.000_1.000_1.000_BRIGHTNESS
141
0.0
102
VTR_0.000_0.000_1.000_1.000_CONTRAST
142
0.0
  0
DICTIONARY
  5
24
102
{ACAD_REACTORS
330
23
102
}
330
23
100
AcDbDictionary
281
     1
  0
XRECORD
  5
9
102
{ACAD_REACTORS
330
8
102
}
330
8
100
AcDbXrecord
280
     1
290
     1
  0
XRECORD
  5
2B0
102
{ACAD_REACTORS
330
2AF
102
}
330
2AF
100
AcDbXrecord
280
     1
290
     1
  0
XRECORD
  5
50
102
{ACAD_REACTORS
330
4F
102
}
330
4F
100
AcDbXrecord
280
     1
290
     1
  0
XRECORD
  5
6B
102
{ACAD_REACTORS
330
6A
102
}
330
6A
100
AcDbXrecord
280
     1
290
     1
  0
XRECORD
  5
73
102
{ACAD_REACTORS
330
72
102
}
330
72
100
AcDbXrecord
280
     1
290
     1
  0
XRECORD
  5
7A
102
{ACAD_REACTORS
330
79
102
}
330
79
100
AcDbXrecord
280
     1
290
     1
  0
SORTENTSTABLE
  5
3D7
102
{ACAD_REACTORS
330
3
102
}
330
3
100
AcDbSortentsTable
330
2
331
0
  5
C0
331
BB
  5
BD
331
BC
  5
BE
331
BE
  5
C2
331
BF
  5
C3
331
C1
  5
C5
331
C2
  5
C6
331
C3
  5
C7
331
C4
  5
C8
331
C5
  5
C9
331
C6
  5
CA
331
C7
  5
CB
331
C8
  5
CC
331
C9
  5
CD
331
CA
  5
CE
331
CB
  5
CF
331
CC
  5
D0
331
CD
  5
D1
331
CE
  5
D2
331
CF
  5
D3
331
D0
  5
D4
331
D2
  5
D6
331
D3
  5
D7
331
D4
  5
D8
331
D5
  5
D9
331
D6
  5
DA
331
D7
  5
DB
331
DB
  5
DF
331
DC
  5
E0
331
DD
  5
E1
331
DE
  5
E2
331
DF
  5
E3
331
E0
  5
E4
331
E1
  5
E5
331
E2
  5
E6
331
E3
  5
E7
331
E4
  5
E8
331
E5
  5
E9
331
E6
  5
EA
331
E7
  5
EB
331
E8
  5
EC
331
E9
  5
ED
331
EA
  5
EE
331
EB
  5
F0
331
EC
  5
F1
331
ED
  5
F2
331
EE
  5
F3
331
F0
  5
F4
331
F1
  5
F5
331
F2
  5
F6
331
F3
  5
F8
331
F4
  5
F9
331
F5
  5
FA
331
F6
  5
FB
331
F8
  5
FC
331
F9
  5
FD
331
FA
  5
FE
331
FB
  5
FF
331
FC
  5
100
331
FD
  5
101
331
FE
  5
102
331
FF
  5
103
331
100
  5
104
331
101
  5
105
331
102
  5
106
331
103
  5
107
331
104
  5
108
331
105
  5
10D
331
106
  5
10E
331
107
  5
10F
331
108
  5
110
331
10D
  5
111
331
10E
  5
112
331
10F
  5
113
331
110
  5
114
331
111
  5
115
331
112
  5
116
331
113
  5
117
331
114
  5
118
331
115
  5
119
331
116
  5
11A
331
117
  5
11B
331
118
  5
11C
331
119
  5
11D
331
11A
  5
11E
331
11B
  5
11F
331
11C
  5
120
331
11D
  5
121
331
11E
  5
122
331
11F
  5
123
331
120
  5
124
331
121
  5
125
331
122
  5
126
331
123
  5
127
331
124
  5
128
331
125
  5
129
331
126
  5
12A
331
127
  5
12B
331
128
  5
12C
331
129
  5
12D
331
12A
  5
12E
331
12B
  5
12F
331
12C
  5
130
331
12D
  5
131
331
12E
  5
132
331
12F
  5
133
331
130
  5
134
331
131
  5
135
331
132
  5
136
331
133
  5
137
331
134
  5
138
331
135
  5
139
331
136
  5
13A
331
137
  5
13B
331
138
  5
13C
331
139
  5
13D
331
13A
  5
13E
331
13B
  5
13F
331
13C
  5
140
331
13D
  5
141
331
13E
  5
142
331
13F
  5
143
331
140
  5
146
331
141
  5
14C
331
142
  5
14D
331
143
  5
14E
331
146
  5
14F
331
155
  5
159
331
158
  5
15C
331
159
  5
15D
331
15A
  5
15E
331
15B
  5
15F
331
15C
  5
160
331
160
  5
164
331
164
  5
168
331
166
  5
16A
331
169
  5
16D
331
175
  5
179
331
176
  5
17A
331
177
  5
17B
331
17E
  5
182
331
17F
  5
184
331
180
  5
186
331
181
  5
187
331
182
  5
188
331
184
  5
189
331
186
  5
18A
331
187
  5
18B
331
188
  5
18C
331
189
  5
192
331
18A
  5
193
331
18B
  5
194
331
18C
  5
198
331
1A0
  5
1A4
331
1A1
  5
1A5
331
1A2
  5
1A6
331
1AB
  5
1AF
331
1AC
  5
1B0
331
1AD
  5
1B1
331
1AE
  5
1B2
331
1AF
  5
1B3
331
1B0
  5
1B4
331
1B1
  5
1B5
331
1B2
  5
1B6
331
1B3
  5
1B7
331
1B4
  5
1B8
331
1B5
  5
1B9
331
1B8
  5
1BC
331
1BA
  5
1BE
331
1BE
  5
1C2
331
1BF
  5
1C3
331
1C2
  5
1C6
331
1C3
  5
1C7
331
1C4
  5
1C8
331
1C5
  5
1C9
331
1C6
  5
1CA
331
1C7
  5
1CB
331
1C8
  5
1CC
331
1C9
  5
1CD
331
1CA
  5
1CE
331
1CB
  5
1CF
331
1CC
  5
1D0
331
1CD
  5
1D1
331
1CE
  5
1D2
331
1CF
  5
1D3
331
1D0
  5
1D4
331
1D1
  5
1D5
331
1D2
  5
1D6
331
1D3
  5
1D7
331
1D4
  5
1D8
331
1D5
  5
1D9
331
1D6
  5
1DA
331
1D7
  5
1DB
331
1D9
  5
1DD
331
1E7
  5
1EB
331
1E8
  5
1EC
331
1E9
  5
1ED
331
1EC
  5
1F0
331
1ED
  5
1F1
331
1EE
  5
1F2
331
1EF
  5
1F4
331
1F0
  5
1F5
331
1F1
  5
1F8
331
1F2
  5
1F9
331
1F4
  5
1FA
331
1F5
  5
1FB
331
1F8
  5
1FC
331
1F9
  5
1FD
331
1FA
  5
1FE
331
1FB
  5
1FF
331
1FC
  5
200
331
1FD
  5
201
331
1FE
  5
202
331
1FF
  5
203
331
200
  5
204
331
201
  5
205
331
202
  5
206
331
203
  5
207
331
204
  5
208
331
205
  5
209
331
206
  5
20A
331
207
  5
20B
331
208
  5
20C
331
209
  5
20D
331
20A
  5
20E
331
20B
  5
20F
331
20C
  5
210
331
20D
  5
211
331
20E
  5
212
331
210
  5
214
331
217
  5
21B
331
21C
  5
220
331
221
  5
225
331
222
  5
226
331
223
  5
227
331
224
  5
228
331
225
  5
229
331
226
  5
22A
331
227
  5
22B
331
228
  5
22C
331
229
  5
22D
331
22A
  5
22E
331
22B
  5
22F
331
22C
  5
230
331
22D
  5
231
331
22E
  5
232
331
22F
  5
233
331
230
  5
234
331
231
  5
235
331
232
  5
236
331
233
  5
237
331
234
  5
238
331
235
  5
239
331
236
  5
23A
331
237
  5
23B
331
238
  5
23C
331
239
  5
23D
331
23A
  5
23E
331
23B
  5
23F
331
23C
  5
240
331
23D
  5
241
331
23E
  5
242
331
23F
  5
243
331
240
  5
244
331
241
  5
245
331
242
  5
246
331
243
  5
247
331
244
  5
248
331
245
  5
249
331
246
  5
24A
331
247
  5
24B
331
248
  5
24C
331
249
  5
24D
331
24A
  5
24E
331
24B
  5
24F
331
24C
  5
250
331
24D
  5
251
331
24E
  5
252
331
24F
  5
253
331
250
  5
254
331
251
  5
255
331
252
  5
256
331
253
  5
257
331
254
  5
258
331
255
  5
259
331
256
  5
25A
331
257
  5
25B
331
258
  5
25C
331
259
  5
25D
331
25A
  5
25E
331
25B
  5
25F
331
25C
  5
260
331
25D
  5
261
331
25E
  5
262
331
25F
  5
263
331
260
  5
264
331
261
  5
265
331
262
  5
266
331
263
  5
267
331
264
  5
268
331
265
  5
269
331
266
  5
26A
331
267
  5
26B
331
268
  5
26C
331
269
  5
26D
331
26A
  5
26E
331
26B
  5
26F
331
26C
  5
270
331
26D
  5
271
331
26E
  5
272
331
26F
  5
273
331
274
  5
278
331
275
  5
279
331
276
  5
27A
331
277
  5
27B
331
278
  5
27C
331
279
  5
27D
331
27A
  5
27E
331
27B
  5
27F
331
27C
  5
280
331
27E
  5
282
331
27F
  5
283
331
280
  5
284
331
281
  5
285
331
282
  5
286
331
283
  5
287
331
284
  5
288
331
285
  5
289
331
286
  5
28A
331
287
  5
28B
331
288
  5
28C
331
289
  5
28D
331
28F
  5
293
331
290
  5
294
331
291
  5
295
331
292
  5
296
331
293
  5
297
331
294
  5
298
331
295
  5
299
331
296
  5
29A
331
297
  5
29B
331
298
  5
29C
331
299
  5
29D
331
29A
  5
29E
331
29B
  5
29F
331
29C
  5
2A0
331
29D
  5
2A1
331
29E
  5
2A2
331
29F
  5
2A3
331
4A9
  5
4AD
331
4AA
  5
4AE
331
4AB
  5
4AF
331
4AC
  5
4B0
331
4AD
  5
4B1
331
4AE
  5
4B2
331
4AF
  5
4B3
331
4B0
  5
4B4
331
4B1
  5
4B5
331
4B2
  5
4B6
331
4B5
  5
4B9
331
4B6
  5
4BA
331
4B7
  5
4BB
331
4B8
  5
4BC
331
4B9
  5
4BD
331
4BA
  5
4BE
331
4BB
  5
4BF
331
4BC
  5
4C0
331
4BD
  5
4C1
331
4BE
  5
4C2
331
4BF
  5
4C3
331
4C0
  5
4C4
331
4C1
  5
4CE
331
4C2
  5
4CF
331
4C3
  5
4D3
331
4D3
  5
4DA
331
4D5
  5
4DB
331
4D7
  5
4DC
  0
ACDBDETAILVIEWSTYLE
  5
3FD
102
{ACAD_REACTORS
330
3FC
102
}
102
{ACAD_XDICTIONARY
360
414
102
}
330
3FC
100
AcDbModelDocViewStyle
 70
     0
  3
Imperial24
290
     0
100
AcDbDetailViewStyle
 70
     0
 71
     0
 90
        3
 71
     1
340
26
 40
0.24
340
0
 40
0.24
300

 40
0.36
280
     3
 71
     2
340
16
 90
       25
 71
     3
340
26
 40
0.24
 90
        1
 40
0.75
 90
        1
300
%<\AcVar ViewType \f "%tc1">% %<\AcVar ViewDetailId>%\PSCALE %<\AcVar ViewScale \f "%sn">%
 71
     4
340
16
 90
       25
340
16
 90
       25
280
     0
  0
LAYOUT
  5
18
102
{ACAD_REACTORS
330
19
102
}
102
{ACAD_XDICTIONARY
360
1A
102
}
330
19
100
AcDbPlotSettings
  1

  2
Bullzip PDF Printer.pc3
  4
A3
  6

 40
0.2
 41
0.0
 42
0.0
 43
0.0
 44
420.2
 45
297.1
 46
25.0
 47
12.0
 48
19.99999995333333
 49
0.0
140
401.9999990783334
141
272.4999993641666
142
1.0
143
1.0
 70
 11936
 72
     1
 73
     0
 74
     4
  7
monochrome.ctb
 75
    16
147
1.0
148
-19.99999995333333
149
0.0
100
AcDbLayout
  1
Model
 70
     0
 71
     0
 10
0.0
 20
0.0
 11
12.0
 21
9.0
 12
0.0
 22
0.0
 32
0.0
 14
61.32261456566994
 24
11.50876247708459
 34
0.0
 15
367.1499051280804
 25
308.5041319647019
 35
0.0
146
0.0
 13
0.0
 23
0.0
 33
0.0
 16
1.0
 26
0.0
 36
0.0
 17
0.0
 27
1.0
 37
0.0
 76
     0
330
2
331
2E
1001
ACAD_PSEXT
1000
Bullzip PDF Printer.pc3
1000
Bullzip PDF Printer
1000
BULLZIP
1000
Bullzip PDF Printer 10.1.0.1871
1070
     0
  0
LAYOUT
  5
21
102
{ACAD_REACTORS
330
19
102
}
330
19
100
AcDbPlotSettings
  1

  2
SR-LP8300F
  4

  6

 40
0.0
 41
0.0
 42
0.0
 43
0.0
 44
0.0
 45
0.0
 46
0.0
 47
0.0
 48
0.0
 49
0.0
140
0.0
141
0.0
142
1.0
143
1.0
 70
   688
 72
     0
 73
     0
 74
     5
  7
monochrome.ctb
 75
    16
147
1.0
148
0.0
149
0.0
100
AcDbLayout
  1
ﾚｲｱｳﾄ1
 70
     0
 71
     1
 10
0.0
 20
0.0
 11
12.0
 21
9.0
 12
0.0
 22
0.0
 32
0.0
 14
1.000000000000000E+20
 24
1.000000000000000E+20
 34
1.000000000000000E+20
 15
-1.000000000000000E+20
 25
-1.000000000000000E+20
 35
-1.000000000000000E+20
146
0.0
 13
0.0
 23
0.0
 33
0.0
 16
1.0
 26
0.0
 36
0.0
 17
0.0
 27
1.0
 37
0.0
 76
     0
330
1C
  0
MATERIAL
  5
42
102
{ACAD_REACTORS
330
E
102
}
102
{ACAD_XDICTIONARY
360
5D9
102
}
330
E
100
AcDbMaterial
  1
ByBlock
 72
     0
 73
     2
 43
0.0208333333333333
 43
0.0
 43
0.0
 43
0.0
 43
0.0
 43
0.0208333333333333
 43
0.0
 43
0.0
 43
0.0
 43
0.0
 43
1.0
 43
0.0
 43
0.0
 43
0.0
 43
0.0
 43
1.0
 77
     0
 78
     2
 47
0.0208333333333333
 47
0.0
 47
0.0
 47
0.0
 47
0.0
 47
0.0208333333333333
 47
0.0
 47
0.0
 47
0.0
 47
0.0
 47
1.0
 47
0.0
 47
0.0
 47
0.0
 47
0.0
 47
1.0
171
     0
172
     2
 49
0.0208333333333333
 49
0.0
 49
0.0
 49
0.0
 49
0.0
 49
0.0208333333333333
 49
0.0
 49
0.0
 49
0.0
 49
0.0
 49
1.0
 49
0.0
 49
0.0
 49
0.0
 49
0.0
 49
1.0
175
     0
176
     2
142
0.0208333333333333
142
0.0
142
0.0
142
0.0
142
0.0
142
0.0208333333333333
142
0.0
142
0.0
142
0.0
142
0.0
142
1.0
142
0.0
142
0.0
142
0.0
142
0.0
142
1.0
179
     0
270
     2
144
0.0208333333333333
144
0.0
144
0.0
144
0.0
144
0.0
144
0.0208333333333333
144
0.0
144
0.0
144
0.0
144
0.0
144
1.0
144
0.0
144
0.0
144
0.0
144
0.0
144
1.0
274
     2
147
0.0208333333333333
147
0.0
147
0.0
147
0.0
147
0.0
147
0.0208333333333333
147
0.0
147
0.0
147
0.0
147
0.0
147
1.0
147
0.0
147
0.0
147
0.0
147
0.0
147
1.0
  0
MATERIAL
  5
3A
102
{ACAD_REACTORS
330
E
102
}
102
{ACAD_XDICTIONARY
360
5DB
102
}
330
E
100
AcDbMaterial
  1
ByLayer
 72
     0
 73
     2
 43
0.0208333333333333
 43
0.0
 43
0.0
 43
0.0
 43
0.0
 43
0.0208333333333333
 43
0.0
 43
0.0
 43
0.0
 43
0.0
 43
1.0
 43
0.0
 43
0.0
 43
0.0
 43
0.0
 43
1.0
 77
     0
 78
     2
 47
0.0208333333333333
 47
0.0
 47
0.0
 47
0.0
 47
0.0
 47
0.0208333333333333
 47
0.0
 47
0.0
 47
0.0
 47
0.0
 47
1.0
 47
0.0
 47
0.0
 47
0.0
 47
0.0
 47
1.0
171
     0
172
     2
 49
0.0208333333333333
 49
0.0
 49
0.0
 49
0.0
 49
0.0
 49
0.0208333333333333
 49
0.0
 49
0.0
 49
0.0
 49
0.0
 49
1.0
 49
0.0
 49
0.0
 49
0.0
 49
0.0
 49
1.0
175
     0
176
     2
142
0.0208333333333333
142
0.0
142
0.0
142
0.0
142
0.0
142
0.0208333333333333
142
0.0
142
0.0
142
0.0
142
0.0
142
1.0
142
0.0
142
0.0
142
0.0
142
0.0
142
1.0
179
     0
270
     2
144
0.0208333333333333
144
0.0
144
0.0
144
0.0
144
0.0
144
0.0208333333333333
144
0.0
144
0.0
144
0.0
144
0.0
144
1.0
144
0.0
144
0.0
144
0.0
144
0.0
144
1.0
274
     2
147
0.0208333333333333
147
0.0
147
0.0
147
0.0
147
0.0
147
0.0208333333333333
147
0.0
147
0.0
147
0.0
147
0.0
147
1.0
147
0.0
147
0.0
147
0.0
147
0.0
147
1.0
  0
MATERIAL
  5
D
102
{ACAD_REACTORS
330
E
102
}
102
{ACAD_XDICTIONARY
360
5DD
102
}
330
E
100
AcDbMaterial
  1
Global
 72
     0
 73
     2
 43
0.0208333333333333
 43
0.0
 43
0.0
 43
0.0
 43
0.0
 43
0.0208333333333333
 43
0.0
 43
0.0
 43
0.0
 43
0.0
 43
1.0
 43
0.0
 43
0.0
 43
0.0
 43
0.0
 43
1.0
 77
     0
 78
     2
 47
0.0208333333333333
 47
0.0
 47
0.0
 47
0.0
 47
0.0
 47
0.0208333333333333
 47
0.0
 47
0.0
 47
0.0
 47
0.0
 47
1.0
 47
0.0
 47
0.0
 47
0.0
 47
0.0
 47
1.0
171
     0
172
     2
 49
0.0208333333333333
 49
0.0
 49
0.0
 49
0.0
 49
0.0
 49
0.0208333333333333
 49
0.0
 49
0.0
 49
0.0
 49
0.0
 49
1.0
 49
0.0
 49
0.0
 49
0.0
 49
0.0
 49
1.0
175
     0
176
     2
142
0.0208333333333333
142
0.0
142
0.0
142
0.0
142
0.0
142
0.0208333333333333
142
0.0
142
0.0
142
0.0
142
0.0
142
1.0
142
0.0
142
0.0
142
0.0
142
0.0
142
1.0
179
     0
270
     2
144
0.0208333333333333
144
0.0
144
0.0
144
0.0
144
0.0
144
0.0208333333333333
144
0.0
144
0.0
144
0.0
144
0.0
144
1.0
144
0.0
144
0.0
144
0.0
144
0.0
144
1.0
274
     2
147
0.0208333333333333
147
0.0
147
0.0
147
0.0
147
0.0
147
0.0208333333333333
147
0.0
147
0.0
147
0.0
147
0.0
147
1.0
147
0.0
147
0.0
147
0.0
147
0.0
147
1.0
1001
ACAD
1070
    -1
1070
     3
1070
     0
1000

1071
        0
  0
MLEADERSTYLE
  5
3F9
102
{ACAD_REACTORS
330
4D
102
}
102
{ACAD_XDICTIONARY
360
5DF
102
}
330
4D
100
AcDbMLeaderStyle
170
     2
171
     1
172
     0
 90
        2
 40
0.0
 41
0.0
173
     1
 91
-1056964608
340
29
 92
       -2
290
     1
 42
0.09
291
     1
 43
0.36
  3
Standard
341
0
 44
0.18
300

342
26
174
     1
178
     6
175
     1
176
     0
 93
-1056964608
 45
0.18
292
     0
297
     0
 46
0.18
343
0
 94
-1056964608
 47
1.0
 49
1.0
140
1.0
293
     1
141
0.0
294
     1
177
     0
142
1.0
295
     1
296
     0
143
0.125
1001
ACAD_MLEADERVER
1070
     2
  0
MLINESTYLE
  5
52
102
{ACAD_REACTORS
330
38
102
}
330
38
100
AcDbMlineStyle
  2
STANDARD
 70
     0
  3

 62
     0
 51
90.0
 52
90.0
 71
     2
 49
0.5
 62
   256
  6
BYLAYER
 49
-0.5
 62
   256
  6
BYLAYER
  0
ACDBPLACEHOLDER
  5
A
102
{ACAD_REACTORS
330
B
102
}
330
B
  0
SCALE
  5
56
102
{ACAD_REACTORS
330
4B
102
}
330
4B
100
AcDbScale
 70
     0
300
1:1
140
1.0
141
1.0
290
     1
  0
SCALE
  5
57
102
{ACAD_REACTORS
330
4B
102
}
330
4B
100
AcDbScale
 70
     0
300
1/128" = 1'-0"
140
0.0078125
141
12.0
290
     0
  0
SCALE
  5
58
102
{ACAD_REACTORS
330
4B
102
}
330
4B
100
AcDbScale
 70
     0
300
1/64" = 1'-0"
140
0.015625
141
12.0
290
     0
  0
SCALE
  5
59
102
{ACAD_REACTORS
330
4B
102
}
330
4B
100
AcDbScale
 70
     0
300
1/32" = 1'-0"
140
0.03125
141
12.0
290
     0
  0
SCALE
  5
5A
102
{ACAD_REACTORS
330
4B
102
}
330
4B
100
AcDbScale
 70
     0
300
1/16" = 1'-0"
140
0.0625
141
12.0
290
     0
  0
SCALE
  5
5B
102
{ACAD_REACTORS
330
4B
102
}
330
4B
100
AcDbScale
 70
     0
300
3/32" = 1'-0"
140
0.09375
141
12.0
290
     0
  0
SCALE
  5
5C
102
{ACAD_REACTORS
330
4B
102
}
330
4B
100
AcDbScale
 70
     0
300
1/8" = 1'-0"
140
0.125
141
12.0
290
     0
  0
SCALE
  5
5D
102
{ACAD_REACTORS
330
4B
102
}
330
4B
100
AcDbScale
 70
     0
300
3/16" = 1'-0"
140
0.1875
141
12.0
290
     0
  0
SCALE
  5
5E
102
{ACAD_REACTORS
330
4B
102
}
330
4B
100
AcDbScale
 70
     0
300
1/4" = 1'-0"
140
0.25
141
12.0
290
     0
  0
SCALE
  5
5F
102
{ACAD_REACTORS
330
4B
102
}
330
4B
100
AcDbScale
 70
     0
300
3/8" = 1'-0"
140
0.375
141
12.0
290
     0
  0
SCALE
  5
60
102
{ACAD_REACTORS
330
4B
102
}
330
4B
100
AcDbScale
 70
     0
300
1/2" = 1'-0"
140
0.5
141
12.0
290
     0
  0
SCALE
  5
61
102
{ACAD_REACTORS
330
4B
102
}
330
4B
100
AcDbScale
 70
     0
300
3/4" = 1'-0"
140
0.75
141
12.0
290
     0
  0
SCALE
  5
62
102
{ACAD_REACTORS
330
4B
102
}
330
4B
100
AcDbScale
 70
     0
300
1" = 1'-0"
140
1.0
141
12.0
290
     0
  0
SCALE
  5
63
102
{ACAD_REACTORS
330
4B
102
}
330
4B
100
AcDbScale
 70
     0
300
1-1/2" = 1'-0"
140
1.5
141
12.0
290
     0
  0
SCALE
  5
64
102
{ACAD_REACTORS
330
4B
102
}
330
4B
100
AcDbScale
 70
     0
300
3" = 1'-0"
140
3.0
141
12.0
290
     0
  0
SCALE
  5
65
102
{ACAD_REACTORS
330
4B
102
}
330
4B
100
AcDbScale
 70
     0
300
6" = 1'-0"
140
6.0
141
12.0
290
     0
  0
SCALE
  5
66
102
{ACAD_REACTORS
330
4B
102
}
330
4B
100
AcDbScale
 70
     0
300
1'-0" = 1'-0"
140
12.0
141
12.0
290
     0
  0
ACDBSECTIONVIEWSTYLE
  5
3FB
102
{ACAD_REACTORS
330
3FA
102
}
102
{ACAD_XDICTIONARY
360
412
102
}
330
3FA
100
AcDbModelDocViewStyle
 70
     0
  3
Imperial24
290
     0
100
AcDbSectionViewStyle
 70
     0
 71
     0
 90
       78
 71
     1
340
26
 40
0.24
340
0
340
0
 40
0.24
300
I, O, Q, S, X, Z
 40
0.48
 90
        3
 40
0.18
 90
        1
 71
     2
340
16
 90
       25
340
16
 90
       50
 40
0.24
 40
0.0
 40
0.24
 71
     3
340
26
 40
0.24
 90
        1
 40
0.75
 90
        1
300
%<\AcVar ViewType \f "%tc1">% %<\AcVar ViewSectionStartId>%-%<\AcVar ViewSectionEndId>%\PSCALE %<\AcVar ViewScale \f "%sn">%
 71
     4
300
ANSI31
 40
1.0
 90
        0
290
     0
290
     0
 90
        6
 40
0.0
 40
1.570796326794897
 40
0.2617993877991494
 40
1.308996938995747
 40
-0.2617993877991494
 40
1.832595714594046
  0
TABLESTYLE
  5
53
102
{ACAD_REACTORS
330
4C
102
}
330
4C
100
AcDbTableStyle
  3
Standard
 70
     0
 71
     0
 40
0.06
 41
0.06
280
     0
281
     0
  7
STANDARD
140
0.18
170
     2
 62
     0
 63
   257
283
     0
274
    -2
284
     1
 64
     0
275
    -2
285
     1
 65
     0
276
    -2
286
     1
 66
     0
277
    -2
287
     1
 67
     0
278
    -2
288
     1
 68
     0
279
    -2
289
     1
 69
     0
  7
STANDARD
140
0.25
170
     5
 62
     0
 63
   257
283
     0
274
    -2
284
     1
 64
     0
275
    -2
285
     1
 65
     0
276
    -2
286
     1
 66
     0
277
    -2
287
     1
 67
     0
278
    -2
288
     1
 68
     0
279
    -2
289
     1
 69
     0
  7
STANDARD
140
0.18
170
     5
 62
     0
 63
   257
283
     0
274
    -2
284
     1
 64
     0
275
    -2
285
     1
 65
     0
276
    -2
286
     1
 66
     0
277
    -2
287
     1
 67
     0
278
    -2
288
     1
 68
     0
279
    -2
289
     1
 69
     0
  0
VISUALSTYLE
  5
2F
102
{ACAD_REACTORS
330
30
102
}
102
{ACAD_XDICTIONARY
360
5E2
102
}
330
30
100
AcDbVisualStyle
  2
2dWireframe
 70
     4
 71
     0
 72
     2
 73
     0
 90
        0
 40
0.6
 41
30.0
 62
     5
 63
     7
 74
     1
 91
        4
 64
     7
 65
   257
 75
     1
175
     1
 42
1.0
 92
        0
 66
   257
 43
1.0
 76
     1
 77
     6
 78
     2
 67
     7
 79
     5
170
     0
171
     0
290
     0
174
     0
 93
        1
 44
0.0
173
     0
291
     0
 45
0.0
1001
ACAD
1000
AcDbSavedByObjectVersion
1070
     0
  0
VISUALSTYLE
  5
3E8
102
{ACAD_REACTORS
330
30
102
}
102
{ACAD_XDICTIONARY
360
5E4
102
}
330
30
100
AcDbVisualStyle
  2
Basic
 70
     7
 71
     1
 72
     0
 73
     1
 90
        0
 40
0.6
 41
30.0
 62
     5
 63
     7
 74
     0
 91
        4
 64
     7
 65
   257
 75
     1
175
     1
 42
1.0
 92
        8
 66
     7
 43
1.0
 76
     1
 77
     6
 78
     2
 67
     7
 79
     5
170
     0
171
     0
290
     0
174
     0
 93
        1
 44
0.0
173
     0
291
     1
 45
0.0
1001
ACAD
1000
AcDbSavedByObjectVersion
1070
     0
  0
VISUALSTYLE
  5
3EC
102
{ACAD_REACTORS
330
30
102
}
102
{ACAD_XDICTIONARY
360
5E6
102
}
330
30
100
AcDbVisualStyle
  2
Brighten
 70
    12
 71
     2
 72
     2
 73
     0
 90
        0
 40
0.6
 41
30.0
 62
     5
 63
     7
 74
     1
 91
        4
 64
     7
 65
   257
 75
     1
175
     1
 42
1.0
 92
        8
 66
     7
 43
1.0
 76
     1
 77
     6
 78
     2
 67
     7
 79
     5
170
     0
171
     0
290
     0
174
     0
 93
        1
 44
50.0
173
     0
291
     1
 45
0.0
1001
ACAD
1000
AcDbSavedByObjectVersion
1070
     0
  0
VISUALSTYLE
  5
3F0
102
{ACAD_REACTORS
330
30
102
}
102
{ACAD_XDICTIONARY
360
5E8
102
}
330
30
100
AcDbVisualStyle
  2
ColorChange
 70
    16
 71
     2
 72
     2
 73
     3
 90
        0
 40
0.6
 41
30.0
 62
     5
 63
     8
 74
     1
 91
        4
 64
     7
 65
   257
 75
     1
175
     1
 42
1.0
 92
        8
 66
     8
 43
1.0
 76
     1
 77
     6
 78
     2
 67
     7
 79
     5
170
     0
171
     0
290
     0
174
     0
 93
        1
 44
0.0
173
     0
291
     1
 45
0.0
1001
ACAD
1000
AcDbSavedByObjectVersion
1070
     0
  0
VISUALSTYLE
  5
3EA
102
{ACAD_REACTORS
330
30
102
}
102
{ACAD_XDICTIONARY
360
5EA
102
}
330
30
100
AcDbVisualStyle
  2
Conceptual
 70
     9
 71
     3
 72
     2
 73
     0
 90
        0
 40
0.6
 41
30.0
 62
     5
 63
     7
 74
     2
 91
        2
 64
     7
 65
   257
 75
     1
175
     1
 42
179.0
 92
        8
 66
     7
 43
1.0
 76
     1
 77
     6
 78
     2
 67
     7
 79
     3
170
     0
171
     0
290
     0
174
     0
 93
        1
 44
0.0
173
     0
291
     0
 45
0.0
1001
ACAD
1000
AcDbSavedByObjectVersion
1070
     0
  0
VISUALSTYLE
  5
3EB
102
{ACAD_REACTORS
330
30
102
}
102
{ACAD_XDICTIONARY
360
5EC
102
}
330
30
100
AcDbVisualStyle
  2
Dim
 70
    11
 71
     2
 72
     2
 73
     0
 90
        0
 40
0.6
 41
30.0
 62
     5
 63
     7
 74
     1
 91
        4
 64
     7
 65
   257
 75
     1
175
     1
 42
1.0
 92
        8
 66
     7
 43
1.0
 76
     1
 77
     6
 78
     2
 67
     7
 79
     5
170
     0
171
     0
290
     0
174
     0
 93
        1
 44
-50.0
173
     0
291
     1
 45
0.0
1001
ACAD
1000
AcDbSavedByObjectVersion
1070
     0
  0
VISUALSTYLE
  5
3F8
102
{ACAD_REACTORS
330
30
102
}
102
{ACAD_XDICTIONARY
360
5EE
102
}
330
30
100
AcDbVisualStyle
  2
EdgeColorOff
 70
    22
 71
     2
 72
     2
 73
     0
 90
        0
 40
0.6
 41
30.0
 62
     5
 63
     7
 74
     1
 91
        4
 64
     7
 65
   257
 75
     1
175
     1
 42
1.0
 92
        8
 66
     7
 43
1.0
 76
     1
 77
     6
 78
     2
 67
     7
 79
     5
170
     0
171
     0
290
     0
174
     0
 93
        1
 44
0.0
173
     0
291
     1
 45
0.0
1001
ACAD
1000
AcDbSavedByObjectVersion
1070
     0
  0
VISUALSTYLE
  5
3EF
102
{ACAD_REACTORS
330
30
102
}
102
{ACAD_XDICTIONARY
360
5F0
102
}
330
30
100
AcDbVisualStyle
  2
Facepattern
 70
    15
 71
     2
 72
     2
 73
     0
 90
        0
 40
0.6
 41
30.0
 62
     5
 63
     7
 74
     1
 91
        4
 64
     7
 65
   257
 75
     1
175
     1
 42
1.0
 92
        8
 66
     7
 43
1.0
 76
     1
 77
     6
 78
     2
 67
     7
 79
     5
170
     0
171
     0
290
     0
174
     0
 93
        1
 44
0.0
173
     0
291
     1
 45
0.0
1001
ACAD
1000
AcDbSavedByObjectVersion
1070
     0
  0
VISUALSTYLE
  5
3E4
102
{ACAD_REACTORS
330
30
102
}
102
{ACAD_XDICTIONARY
360
5F2
102
}
330
30
100
AcDbVisualStyle
  2
Flat
 70
     0
 71
     2
 72
     1
 73
     1
 90
        2
 40
0.6
 41
30.0
 62
     5
 63
     7
 74
     0
 91
        0
 64
     7
 65
   257
 75
     1
175
     1
 42
1.0
 92
        8
 66
     7
 43
1.0
 76
     1
 77
     6
 78
     2
 67
     7
 79
     5
170
     0
171
     0
290
     0
174
     0
 93
       13
 44
0.0
173
     0
291
     1
 45
0.0
1001
ACAD
1000
AcDbSavedByObjectVersion
1070
     0
  0
VISUALSTYLE
  5
3E5
102
{ACAD_REACTORS
330
30
102
}
102
{ACAD_XDICTIONARY
360
5F4
102
}
330
30
100
AcDbVisualStyle
  2
FlatWithEdges
 70
     1
 71
     2
 72
     1
 73
     1
 90
        2
 40
0.6
 41
30.0
 62
     5
 63
     7
 74
     1
 91
        0
 64
     7
 65
   257
 75
     1
175
     1
 42
1.0
 92
        0
 66
   257
 43
1.0
 76
     1
 77
     6
 78
     2
 67
     7
 79
     5
170
     0
171
     0
290
     0
174
     0
 93
       13
 44
0.0
173
     0
291
     1
 45
0.0
1001
ACAD
1000
AcDbSavedByObjectVersion
1070
     0
  0
VISUALSTYLE
  5
3E6
102
{ACAD_REACTORS
330
30
102
}
102
{ACAD_XDICTIONARY
360
5F6
102
}
330
30
100
AcDbVisualStyle
  2
Gouraud
 70
     2
 71
     2
 72
     2
 73
     1
 90
        2
 40
0.6
 41
30.0
 62
     5
 63
     7
 74
     0
 91
        0
 64
     7
 65
   257
 75
     1
175
     1
 42
1.0
 92
        0
 66
     7
 43
1.0
 76
     1
 77
     6
 78
     2
 67
     7
 79
     5
170
     0
171
     0
290
     0
174
     0
 93
       13
 44
0.0
173
     0
291
     1
 45
0.0
1001
ACAD
1000
AcDbSavedByObjectVersion
1070
     0
  0
VISUALSTYLE
  5
3E7
102
{ACAD_REACTORS
330
30
102
}
102
{ACAD_XDICTIONARY
360
5F8
102
}
330
30
100
AcDbVisualStyle
  2
GouraudWithEdges
 70
     3
 71
     2
 72
     2
 73
     1
 90
        2
 40
0.6
 41
30.0
 62
     5
 63
     7
 74
     1
 91
        0
 64
     7
 65
   257
 75
     1
175
     1
 42
1.0
 92
        0
 66
   257
 43
1.0
 76
     1
 77
     6
 78
     2
 67
     7
 79
     5
170
     0
171
     0
290
     0
174
     0
 93
       13
 44
0.0
173
     0
291
     1
 45
0.0
1001
ACAD
1000
AcDbSavedByObjectVersion
1070
     0
  0
VISUALSTYLE
  5
3E9
102
{ACAD_REACTORS
330
30
102
}
102
{ACAD_XDICTIONARY
360
5FA
102
}
330
30
100
AcDbVisualStyle
  2
Hidden
 70
     6
 71
     1
 72
     2
 73
     2
 90
        0
 40
0.6
 41
30.0
 62
     5
 63
     7
 74
     2
 91
        2
 64
     7
 65
   257
 75
     2
175
     1
 42
40.0
 92
        0
 66
   257
 43
1.0
 76
     1
 77
     6
 78
     2
 67
     7
 79
     3
170
     0
171
     0
290
     0
174
     0
 93
        1
 44
0.0
173
     0
291
     0
 45
0.0
1001
ACAD
1000
AcDbSavedByObjectVersion
1070
     0
  0
VISUALSTYLE
  5
3F6
102
{ACAD_REACTORS
330
30
102
}
102
{ACAD_XDICTIONARY
360
5FC
102
}
330
30
100
AcDbVisualStyle
  2
JitterOff
 70
    20
 71
     2
 72
     2
 73
     0
 90
        0
 40
0.6
 41
30.0
 62
     5
 63
     7
 74
     1
 91
        4
 64
     7
 65
   257
 75
     1
175
     1
 42
1.0
 92
       10
 66
     7
 43
1.0
 76
     1
 77
     6
 78
     2
 67
     7
 79
     5
170
     0
171
     0
290
     0
174
     0
 93
        1
 44
0.0
173
     0
291
     1
 45
0.0
1001
ACAD
1000
AcDbSavedByObjectVersion
1070
     0
  0
VISUALSTYLE
  5
3EE
102
{ACAD_REACTORS
330
30
102
}
102
{ACAD_XDICTIONARY
360
5FE
102
}
330
30
100
AcDbVisualStyle
  2
Linepattern
 70
    14
 71
     2
 72
     2
 73
     0
 90
        0
 40
0.6
 41
30.0
 62
     5
 63
     7
 74
     1
 91
        4
 64
     7
 65
   257
 75
     7
175
     7
 42
1.0
 92
        8
 66
     7
 43
1.0
 76
     1
 77
     6
 78
     2
 67
     7
 79
     5
170
     0
171
     0
290
     0
174
     0
 93
        1
 44
0.0
173
     0
291
     1
 45
0.0
1001
ACAD
1000
AcDbSavedByObjectVersion
1070
     0
  0
VISUALSTYLE
  5
3F7
102
{ACAD_REACTORS
330
30
102
}
102
{ACAD_XDICTIONARY
360
600
102
}
330
30
100
AcDbVisualStyle
  2
OverhangOff
 70
    21
 71
     2
 72
     2
 73
     0
 90
        0
 40
0.6
 41
30.0
 62
     5
 63
     7
 74
     1
 91
        4
 64
     7
 65
   257
 75
     1
175
     1
 42
1.0
 92
        9
 66
     7
 43
1.0
 76
     1
 77
     6
 78
     2
 67
     7
 79
     5
170
     0
171
     0
290
     0
174
     0
 93
        1
 44
0.0
173
     0
291
     1
 45
0.0
1001
ACAD
1000
AcDbSavedByObjectVersion
1070
     0
  0
VISUALSTYLE
  5
54
102
{ACAD_REACTORS
330
30
102
}
102
{ACAD_XDICTIONARY
360
602
102
}
330
30
100
AcDbVisualStyle
  2
Realistic
 70
     8
 71
     2
 72
     3
 73
     0
 90
        2
 40
0.6
 41
30.0
 62
     5
 63
     7
 74
     0
 91
        0
 64
     7
 65
   257
 75
     1
175
     1
 42
1.0
 92
        8
 66
   257
 43
1.0
 76
     1
 77
     6
 78
     2
 67
     7
 79
     3
170
     0
171
     0
290
     0
174
     0
 93
       13
 44
0.0
173
     0
291
     0
 45
0.0
1001
ACAD
1000
AcDbSavedByObjectVersion
1070
     0
  0
VISUALSTYLE
  5
3F5
102
{ACAD_REACTORS
330
30
102
}
102
{ACAD_XDICTIONARY
360
604
102
}
330
30
100
AcDbVisualStyle
  2
Shaded
 70
    27
 71
     2
 72
     2
 73
     1
 90
        2
 40
0.6
 41
30.0
 62
     5
 63
     7
 74
     0
 91
        4
 64
     7
 65
   257
 75
     1
175
     1
 42
1.0
 92
        8
 66
   257
 43
1.0
 76
     1
 77
     6
 78
     2
 67
     8
 79
     3
170
     0
171
     0
290
     0
174
     0
 93
        5
 44
0.0
173
     0
291
     0
 45
0.0
1001
ACAD
1000
AcDbSavedByObjectVersion
1070
     0
  0
VISUALSTYLE
  5
3F4
102
{ACAD_REACTORS
330
30
102
}
102
{ACAD_XDICTIONARY
360
606
102
}
330
30
100
AcDbVisualStyle
  2
Shaded with edges
 70
    26
 71
     2
 72
     2
 73
     1
 90
        2
 40
0.6
 41
30.0
 62
     5
 63
     7
 74
     1
 91
       10
 64
     7
 65
   257
 75
     2
175
     1
 42
1.0
 92
        8
 66
   257
 43
1.0
 76
     1
 77
     6
 78
     2
 67
     7
 79
     3
170
     0
171
     0
290
     0
174
     0
 93
        5
 44
0.0
173
     0
291
     0
 45
0.0
1001
ACAD
1000
AcDbSavedByObjectVersion
1070
     0
  0
VISUALSTYLE
  5
3F1
102
{ACAD_REACTORS
330
30
102
}
102
{ACAD_XDICTIONARY
360
608
102
}
330
30
100
AcDbVisualStyle
  2
Shades of Gray
 70
    23
 71
     2
 72
     2
 73
     3
 90
        0
 40
0.6
 41
30.0
 62
     5
 63
     7
 74
     2
 91
        2
 64
     7
 65
     7
 75
     1
175
     1
 42
40.0
 92
        8
 66
     7
 43
1.0
 76
     1
 77
     6
 78
     2
 67
     7
 79
     3
170
     0
171
     0
290
     0
174
     0
 93
        1
 44
0.0
173
     0
291
     0
 45
0.0
1001
ACAD
1000
AcDbSavedByObjectVersion
1070
     0
  0
VISUALSTYLE
  5
3F2
102
{ACAD_REACTORS
330
30
102
}
102
{ACAD_XDICTIONARY
360
60A
102
}
330
30
100
AcDbVisualStyle
  2
Sketchy
 70
    24
 71
     1
 72
     2
 73
     2
 90
        0
 40
0.6
 41
30.0
 62
     5
 63
     7
 74
     2
 91
        2
 64
     7
 65
     7
 75
     1
175
     1
 42
40.0
 92
       11
 66
     7
 43
1.0
 76
     1
 77
     6
 78
     2
 67
     7
 79
     6
170
     0
171
     0
290
     0
174
     0
 93
        1
 44
0.0
173
     0
291
     0
 45
0.0
1001
ACAD
1000
AcDbSavedByObjectVersion
1070
     0
  0
VISUALSTYLE
  5
3ED
102
{ACAD_REACTORS
330
30
102
}
102
{ACAD_XDICTIONARY
360
60C
102
}
330
30
100
AcDbVisualStyle
  2
Thicken
 70
    13
 71
     2
 72
     2
 73
     0
 90
        0
 40
0.6
 41
30.0
 62
     5
 63
     7
 74
     1
 91
        4
 64
     7
 65
   257
 75
     1
175
     1
 42
1.0
 92
       12
 66
     7
 43
1.0
 76
     1
 77
     6
 78
     2
 67
     7
 79
     5
170
     0
171
     0
290
     0
174
     0
 93
        1
 44
0.0
173
     0
291
     1
 45
0.0
1001
ACAD
1000
AcDbSavedByObjectVersion
1070
     0
  0
VISUALSTYLE
  5
55
102
{ACAD_REACTORS
330
30
102
}
102
{ACAD_XDICTIONARY
360
60E
102
}
330
30
100
AcDbVisualStyle
  2
Wireframe
 70
     5
 71
     0
 72
     2
 73
     0
 90
        0
 40
0.6
 41
30.0
 62
     5
 63
     7
 74
     1
 91
        4
 64
     7
 65
   257
 75
     1
175
     1
 42
1.0
 92
        0
 66
   257
 43
1.0
 76
     1
 77
     6
 78
     2
 67
     7
 79
     3
170
     0
171
     0
290
     0
174
     0
 93
        1
 44
0.0
173
     0
291
     0
 45
0.0
1001
ACAD
1000
AcDbSavedByObjectVersion
1070
     0
  0
VISUALSTYLE
  5
3F3
102
{ACAD_REACTORS
330
30
102
}
102
{ACAD_XDICTIONARY
360
610
102
}
330
30
100
AcDbVisualStyle
  2
X-Ray
 70
    25
 71
     2
 72
     2
 73
     1
 90
        1
 40
0.5
 41
30.0
 62
     5
 63
     7
 74
     1
 91
        0
 64
     7
 65
   257
 75
     1
175
     1
 42
1.0
 92
        8
 66
     7
 43
1.0
 76
     1
 77
     6
 78
     2
 67
     7
 79
     3
170
     0
171
     0
290
     0
174
     0
 93
       13
 44
0.0
173
     0
291
     0
 45
0.0
1001
ACAD
1000
AcDbSavedByObjectVersion
1070
     0
  0
XRECORD
  5
5D3
102
{ACAD_REACTORS
330
5D2
102
}
330
5D2
100
AcDbXrecord
280
     1
340
4A
  0
XRECORD
  5
5D4
102
{ACAD_REACTORS
330
5D2
102
}
330
5D2
100
AcDbXrecord
280
     1
340
E
  0
DICTIONARYVAR
  5
3DF
102
{ACAD_REACTORS
330
3D9
102
}
330
3D9
100
DictionaryVariables
280
     0
  1
1:1
  0
DICTIONARYVAR
  5
3DB
102
{ACAD_REACTORS
330
3D9
102
}
330
3D9
100
DictionaryVariables
280
     0
  1
Standard
  0
DICTIONARYVAR
  5
3DA
102
{ACAD_REACTORS
330
3D9
102
}
330
3D9
100
DictionaryVariables
280
     0
  1
Standard
  0
DICTIONARYVAR
  5
3DC
102
{ACAD_REACTORS
330
3D9
102
}
330
3D9
100
DictionaryVariables
280
     0
  1
Imperial24
  0
DICTIONARYVAR
  5
3DD
102
{ACAD_REACTORS
330
3D9
102
}
330
3D9
100
DictionaryVariables
280
     0
  1
Imperial24
  0
DICTIONARYVAR
  5
5D0
102
{ACAD_REACTORS
330
3D9
102
}
330
3D9
100
DictionaryVariables
280
     0
  1
0
  0
DICTIONARYVAR
  5
5D1
102
{ACAD_REACTORS
330
3D9
102
}
330
3D9
100
DictionaryVariables
280
     0
  1
1
  0
DICTIONARYVAR
  5
3E1
102
{ACAD_REACTORS
330
3D9
102
}
330
3D9
100
DictionaryVariables
280
     0
  1
1
  0
DICTIONARYVAR
  5
3E2
102
{ACAD_REACTORS
330
3D9
102
}
330
3D9
100
DictionaryVariables
280
     0
  1
15
  0
DICTIONARYVAR
  5
3E0
102
{ACAD_REACTORS
330
3D9
102
}
330
3D9
100
DictionaryVariables
280
     0
  1
0
  0
DICTIONARYVAR
  5
3DE
102
{ACAD_REACTORS
330
3D9
102
}
330
3D9
100
DictionaryVariables
280
     0
  1
0
  0
DICTIONARYVAR
  5
55C
102
{ACAD_REACTORS
330
3D9
102
}
330
3D9
100
DictionaryVariables
280
     0
  1
0
  0
DICTIONARY
  5
414
330
3FD
100
AcDbDictionary
280
     1
281
     1
  3
ACAD_XREC_ROUNDTRIP
360
5D8
  0
DICTIONARY
  5
1A
330
18
100
AcDbDictionary
280
     1
281
     1
  0
DICTIONARY
  5
5D9
330
42
100
AcDbDictionary
280
     1
281
     1
  3
ACAD_XREC_ROUNDTRIP
360
5DA
  0
DICTIONARY
  5
5DB
330
3A
100
AcDbDictionary
280
     1
281
     1
  3
ACAD_XREC_ROUNDTRIP
360
5DC
  0
DICTIONARY
  5
5DD
330
D
100
AcDbDictionary
280
     1
281
     1
  3
ACAD_XREC_ROUNDTRIP
360
5DE
  0
DICTIONARY
  5
5DF
330
3F9
100
AcDbDictionary
280
     1
281
     1
  3
ACAD_XREC_ROUNDTRIP
360
5E0
  0
DICTIONARY
  5
412
330
3FB
100
AcDbDictionary
280
     1
281
     1
  3
ACAD_XREC_ROUNDTRIP
360
5E1
  0
DICTIONARY
  5
5E2
330
2F
100
AcDbDictionary
280
     1
281
     1
  3
ACAD_XREC_ROUNDTRIP
360
5E3
  0
DICTIONARY
  5
5E4
330
3E8
100
AcDbDictionary
280
     1
281
     1
  3
ACAD_XREC_ROUNDTRIP
360
5E5
  0
DICTIONARY
  5
5E6
330
3EC
100
AcDbDictionary
280
     1
281
     1
  3
ACAD_XREC_ROUNDTRIP
360
5E7
  0
DICTIONARY
  5
5E8
330
3F0
100
AcDbDictionary
280
     1
281
     1
  3
ACAD_XREC_ROUNDTRIP
360
5E9
  0
DICTIONARY
  5
5EA
330
3EA
100
AcDbDictionary
280
     1
281
     1
  3
ACAD_XREC_ROUNDTRIP
360
5EB
  0
DICTIONARY
  5
5EC
330
3EB
100
AcDbDictionary
280
     1
281
     1
  3
ACAD_XREC_ROUNDTRIP
360
5ED
  0
DICTIONARY
  5
5EE
330
3F8
100
AcDbDictionary
280
     1
281
     1
  3
ACAD_XREC_ROUNDTRIP
360
5EF
  0
DICTIONARY
  5
5F0
330
3EF
100
AcDbDictionary
280
     1
281
     1
  3
ACAD_XREC_ROUNDTRIP
360
5F1
  0
DICTIONARY
  5
5F2
330
3E4
100
AcDbDictionary
280
     1
281
     1
  3
ACAD_XREC_ROUNDTRIP
360
5F3
  0
DICTIONARY
  5
5F4
330
3E5
100
AcDbDictionary
280
     1
281
     1
  3
ACAD_XREC_ROUNDTRIP
360
5F5
  0
DICTIONARY
  5
5F6
330
3E6
100
AcDbDictionary
280
     1
281
     1
  3
ACAD_XREC_ROUNDTRIP
360
5F7
  0
DICTIONARY
  5
5F8
330
3E7
100
AcDbDictionary
280
     1
281
     1
  3
ACAD_XREC_ROUNDTRIP
360
5F9
  0
DICTIONARY
  5
5FA
330
3E9
100
AcDbDictionary
280
     1
281
     1
  3
ACAD_XREC_ROUNDTRIP
360
5FB
  0
DICTIONARY
  5
5FC
330
3F6
100
AcDbDictionary
280
     1
281
     1
  3
ACAD_XREC_ROUNDTRIP
360
5FD
  0
DICTIONARY
  5
5FE
330
3EE
100
AcDbDictionary
280
     1
281
     1
  3
ACAD_XREC_ROUNDTRIP
360
5FF
  0
DICTIONARY
  5
600
330
3F7
100
AcDbDictionary
280
     1
281
     1
  3
ACAD_XREC_ROUNDTRIP
360
601
  0
DICTIONARY
  5
602
330
54
100
AcDbDictionary
280
     1
281
     1
  3
ACAD_XREC_ROUNDTRIP
360
603
  0
DICTIONARY
  5
604
330
3F5
100
AcDbDictionary
280
     1
281
     1
  3
ACAD_XREC_ROUNDTRIP
360
605
  0
DICTIONARY
  5
606
330
3F4
100
AcDbDictionary
280
     1
281
     1
  3
ACAD_XREC_ROUNDTRIP
360
607
  0
DICTIONARY
  5
608
330
3F1
100
AcDbDictionary
280
     1
281
     1
  3
ACAD_XREC_ROUNDTRIP
360
609
  0
DICTIONARY
  5
60A
330
3F2
100
AcDbDictionary
280
     1
281
     1
  3
ACAD_XREC_ROUNDTRIP
360
60B
  0
DICTIONARY
  5
60C
330
3ED
100
AcDbDictionary
280
     1
281
     1
  3
ACAD_XREC_ROUNDTRIP
360
60D
  0
DICTIONARY
  5
60E
330
55
100
AcDbDictionary
280
     1
281
     1
  3
ACAD_XREC_ROUNDTRIP
360
60F
  0
DICTIONARY
  5
610
330
3F3
100
AcDbDictionary
280
     1
281
     1
  3
ACAD_XREC_ROUNDTRIP
360
611
  0
XRECORD
  5
5D8
102
{ACAD_REACTORS
330
414
102
}
330
414
100
AcDbXrecord
280
     1
102
DISPLAYNAME
  1
Imperial24
102
FLAGS
 90
        0
  0
XRECORD
  5
5DA
102
{ACAD_REACTORS
330
5D9
102
}
330
5D9
100
AcDbXrecord
280
     1
102
MATERIAL
148
0.0
149
0.0
149
0.0
 93
        0
 94
      127
282
     0
 72
     0
 77
     0
171
     0
175
     0
179
     0
273
     0
  0
XRECORD
  5
5DC
102
{ACAD_REACTORS
330
5DB
102
}
330
5DB
100
AcDbXrecord
280
     1
102
MATERIAL
148
0.0
149
0.0
149
0.0
 93
        0
 94
      127
282
     0
 72
     0
 77
     0
171
     0
175
     0
179
     0
273
     0
  0
XRECORD
  5
5DE
102
{ACAD_REACTORS
330
5DD
102
}
330
5DD
100
AcDbXrecord
280
     1
102
MATERIAL
148
0.0
149
0.0
149
0.0
 93
        0
 94
      127
282
     0
 72
     0
 77
     0
171
     0
175
     0
179
     0
273
     0
  0
XRECORD
  5
5E0
102
{ACAD_REACTORS
330
5DF
102
}
330
5DF
100
AcDbXrecord
280
     1
102
ACAD_ROUNDTRIP_2012_MLEADER_STYLE
298
     1
  0
XRECORD
  5
5E1
102
{ACAD_REACTORS
330
412
102
}
330
412
100
AcDbXrecord
280
     1
102
DISPLAYNAME
  1
Imperial24
102
FLAGS
 90
        0
  0
XRECORD
  5
5E3
102
{ACAD_REACTORS
330
5E2
102
}
330
5E2
100
AcDbXrecord
280
     1
102
RTVSPropertyOp0
 70
     1
102
RTVSPropertyOp1
 70
     1
102
RTVSPropertyOp2
 70
     1
102
RTVSPropertyOp3
 70
     1
102
RTVSPropertyOp4
 70
     1
102
RTVSPropertyOp5
 70
     1
102
RTVSPropertyOp6
 70
     1
102
RTVSPropertyOp7
 70
     1
102
RTVSPropertyOp8
 70
     1
102
RTVSPropertyOp9
 70
     1
102
RTVSPropertyOp10
 70
     1
102
RTVSPropertyOp11
 70
     1
102
RTVSPropertyOp12
 70
     1
102
RTVSPropertyOp13
 70
     1
102
RTVSPropertyOp14
 70
     1
102
RTVSPropertyOp15
 70
     1
102
RTVSPropertyOp16
 70
     1
102
RTVSPropertyOp17
 70
     1
102
RTVSPropertyOp18
 70
     1
102
RTVSPropertyOp19
 70
     1
102
RTVSPropertyOp20
 70
     1
102
RTVSPropertyOp21
 70
     1
102
RTVSPropertyOp22
 70
     1
102
RTVSPropertyOp23
 70
     1
102
RTVSPropertyOp24
 70
     1
102
RTVSPropertyOp25
 70
     1
102
RTVSPropertyOp26
 70
     1
102
RTVSPropertyOp27
 70
     1
102
RTVSPropertyOp28
 70
     1
102
RTVSPropertyOp29
 70
     1
102
RTVSPropertyOp30
 70
     1
102
RTVSPropertyOp31
 70
     1
102
RTVSPropertyOp32
 70
     1
102
RTVSPropertyOp33
 70
     1
102
RTVSPropertyOp34
 70
     1
102
RTVSPropertyOp35
 70
     1
102
RTVSPropertyOp36
 70
     1
102
RTVSPropertyOp37
 70
     1
102
RTVSPropertyOp38
 70
     1
102
RTVSPropertyOp39
 70
     1
102
RTVSPropertyOp40
 70
     1
102
RTVSPropertyOp41
 70
     1
102
RTVSPropertyOp42
 70
     1
102
RTVSPropertyOp43
 70
     1
102
RTVSPropertyOp44
 70
     1
102
RTVSPropertyOp45
 70
     1
102
RTVSPropertyOp46
 70
     1
102
RTVSPropertyOp47
 70
     1
102
RTVSPropertyOp48
 70
     1
102
RTVSPropertyOp49
 70
     1
102
RTVSPropertyOp50
 70
     1
102
RTVSPropertyOp51
 70
     0
102
RTVSPropertyOp52
 70
     0
102
RTVSPropertyOp53
 70
     1
102
RTVSPropertyOp54
 70
     1
102
RTVSPropertyOp55
 70
     1
102
RTVSPropertyOp56
 70
     1
102
RTVSPropertyOp57
 70
     1
102
RTVSPost2010Prop28
280
     1
102
RTVSPost2010PropOp28
 70
     1
102
RTVSPost2010Prop29
280
     1
102
RTVSPost2010PropOp29
 70
     1
102
RTVSPost2010Prop30
280
     0
102
RTVSPost2010PropOp30
 70
     1
102
RTVSPost2010Prop31
280
     0
102
RTVSPost2010PropOp31
 70
     1
102
RTVSPost2010Prop32
280
     0
102
RTVSPost2010PropOp32
 70
     1
102
RTVSPost2010Prop33
280
     0
102
RTVSPost2010PropOp33
 70
     1
102
RTVSPost2010Prop34
280
     0
102
RTVSPost2010PropOp34
 70
     1
102
RTVSPost2010Prop35
280
     0
102
RTVSPost2010PropOp35
 70
     1
102
RTVSPost2010Prop36
280
     0
102
RTVSPost2010PropOp36
 70
     1
102
RTVSPost2010Prop37
 90
       50
102
RTVSPost2010PropOp37
 70
     1
102
RTVSPost2010Prop38
140
0.0
102
RTVSPost2010PropOp38
 70
     1
102
RTVSPost2010Prop39
140
1.0
102
RTVSPost2010PropOp39
 70
     1
102
RTVSPost2010Prop40
 90
        0
102
RTVSPost2010PropOp40
 70
     1
102
RTVSPost2010Prop41ColorIndex
 90
       18
102
RTVSPost2010Prop41ColorRGB
 90
        0
102
RTVSPost2010PropOp41
 70
     1
102
RTVSPost2010Prop42
 90
       50
102
RTVSPost2010PropOp42
 70
     1
102
RTVSPost2010Prop43
 90
        3
102
RTVSPost2010PropOp43
 70
     1
102
RTVSPost2010Prop44ColorIndex
 90
        5
102
RTVSPost2010Prop44ColorRGB
 90
      255
102
RTVSPost2010PropOp44
 70
     1
102
RTVSPost2010Prop45
280
     0
102
RTVSPost2010PropOp45
 70
     1
102
RTVSPost2010Prop46
 90
       50
102
RTVSPost2010PropOp46
 70
     1
102
RTVSPost2010Prop47
 90
       50
102
RTVSPost2010PropOp47
 70
     1
102
RTVSPost2010Prop48
 90
       50
102
RTVSPost2010PropOp48
 70
     1
102
RTVSPost2010Prop49
280
     0
102
RTVSPost2010PropOp49
 70
     1
102
RTVSPost2010Prop50
 90
       50
102
RTVSPost2010PropOp50
 70
     1
102
RTVSPost2010Prop51ColorIndex
 90
      256
102
RTVSPost2010Prop51ColorRGB
 90
-16777216
102
RTVSPost2010PropOp51
 70
     0
102
RTVSPost2010Prop52
140
1.0
102
RTVSPost2010PropOp52
 70
     0
102
RTVSPost2010Prop53
 90
        2
102
RTVSPost2010PropOp53
 70
     1
102
RTVSPost2010Prop54
  1
strokes_ogs.tif
102
RTVSPost2010PropOp54
 70
     1
102
RTVSPost2010Prop55
280
     0
102
RTVSPost2010PropOp55
 70
     1
102
RTVSPost2010Prop56
140
1.0
102
RTVSPost2010PropOp56
 70
     1
102
RTVSPost2010Prop57
140
1.0
102
RTVSPost2010PropOp57
 70
     1
  0
XRECORD
  5
5E5
102
{ACAD_REACTORS
330
5E4
102
}
330
5E4
100
AcDbXrecord
280
     1
102
RTVSPropertyOp0
 70
     1
102
RTVSPropertyOp1
 70
     1
102
RTVSPropertyOp2
 70
     1
102
RTVSPropertyOp3
 70
     1
102
RTVSPropertyOp4
 70
     1
102
RTVSPropertyOp5
 70
     1
102
RTVSPropertyOp6
 70
     1
102
RTVSPropertyOp7
 70
     1
102
RTVSPropertyOp8
 70
     1
102
RTVSPropertyOp9
 70
     1
102
RTVSPropertyOp10
 70
     1
102
RTVSPropertyOp11
 70
     1
102
RTVSPropertyOp12
 70
     1
102
RTVSPropertyOp13
 70
     1
102
RTVSPropertyOp14
 70
     1
102
RTVSPropertyOp15
 70
     1
102
RTVSPropertyOp16
 70
     1
102
RTVSPropertyOp17
 70
     1
102
RTVSPropertyOp18
 70
     1
102
RTVSPropertyOp19
 70
     1
102
RTVSPropertyOp20
 70
     1
102
RTVSPropertyOp21
 70
     1
102
RTVSPropertyOp22
 70
     1
102
RTVSPropertyOp23
 70
     1
102
RTVSPropertyOp24
 70
     1
102
RTVSPropertyOp25
 70
     1
102
RTVSPropertyOp26
 70
     1
102
RTVSPropertyOp27
 70
     1
102
RTVSPropertyOp28
 70
     1
102
RTVSPropertyOp29
 70
     1
102
RTVSPropertyOp30
 70
     1
102
RTVSPropertyOp31
 70
     1
102
RTVSPropertyOp32
 70
     1
102
RTVSPropertyOp33
 70
     1
102
RTVSPropertyOp34
 70
     1
102
RTVSPropertyOp35
 70
     1
102
RTVSPropertyOp36
 70
     1
102
RTVSPropertyOp37
 70
     1
102
RTVSPropertyOp38
 70
     1
102
RTVSPropertyOp39
 70
     1
102
RTVSPropertyOp40
 70
     1
102
RTVSPropertyOp41
 70
     1
102
RTVSPropertyOp42
 70
     1
102
RTVSPropertyOp43
 70
     1
102
RTVSPropertyOp44
 70
     1
102
RTVSPropertyOp45
 70
     1
102
RTVSPropertyOp46
 70
     1
102
RTVSPropertyOp47
 70
     1
102
RTVSPropertyOp48
 70
     1
102
RTVSPropertyOp49
 70
     1
102
RTVSPropertyOp50
 70
     1
102
RTVSPropertyOp51
 70
     0
102
RTVSPropertyOp52
 70
     0
102
RTVSPropertyOp53
 70
     1
102
RTVSPropertyOp54
 70
     1
102
RTVSPropertyOp55
 70
     1
102
RTVSPropertyOp56
 70
     1
102
RTVSPropertyOp57
 70
     1
102
RTVSPost2010Prop28
280
     0
102
RTVSPost2010PropOp28
 70
     1
102
RTVSPost2010Prop29
280
     1
102
RTVSPost2010PropOp29
 70
     1
102
RTVSPost2010Prop30
280
     1
102
RTVSPost2010PropOp30
 70
     1
102
RTVSPost2010Prop31
280
     0
102
RTVSPost2010PropOp31
 70
     1
102
RTVSPost2010Prop32
280
     0
102
RTVSPost2010PropOp32
 70
     1
102
RTVSPost2010Prop33
280
     0
102
RTVSPost2010PropOp33
 70
     1
102
RTVSPost2010Prop34
280
     0
102
RTVSPost2010PropOp34
 70
     1
102
RTVSPost2010Prop35
280
     0
102
RTVSPost2010PropOp35
 70
     1
102
RTVSPost2010Prop36
280
     0
102
RTVSPost2010PropOp36
 70
     1
102
RTVSPost2010Prop37
 90
       50
102
RTVSPost2010PropOp37
 70
     1
102
RTVSPost2010Prop38
140
0.0
102
RTVSPost2010PropOp38
 70
     1
102
RTVSPost2010Prop39
140
1.0
102
RTVSPost2010PropOp39
 70
     1
102
RTVSPost2010Prop40
 90
        0
102
RTVSPost2010PropOp40
 70
     1
102
RTVSPost2010Prop41ColorIndex
 90
       18
102
RTVSPost2010Prop41ColorRGB
 90
        0
102
RTVSPost2010PropOp41
 70
     1
102
RTVSPost2010Prop42
 90
       50
102
RTVSPost2010PropOp42
 70
     1
102
RTVSPost2010Prop43
 90
        3
102
RTVSPost2010PropOp43
 70
     1
102
RTVSPost2010Prop44ColorIndex
 90
        5
102
RTVSPost2010Prop44ColorRGB
 90
      255
102
RTVSPost2010PropOp44
 70
     1
102
RTVSPost2010Prop45
280
     0
102
RTVSPost2010PropOp45
 70
     1
102
RTVSPost2010Prop46
 90
       50
102
RTVSPost2010PropOp46
 70
     1
102
RTVSPost2010Prop47
 90
       50
102
RTVSPost2010PropOp47
 70
     1
102
RTVSPost2010Prop48
 90
       50
102
RTVSPost2010PropOp48
 70
     1
102
RTVSPost2010Prop49
280
     0
102
RTVSPost2010PropOp49
 70
     1
102
RTVSPost2010Prop50
 90
       50
102
RTVSPost2010PropOp50
 70
     1
102
RTVSPost2010Prop51ColorIndex
 90
      256
102
RTVSPost2010Prop51ColorRGB
 90
-16777216
102
RTVSPost2010PropOp51
 70
     0
102
RTVSPost2010Prop52
140
1.0
102
RTVSPost2010PropOp52
 70
     0
102
RTVSPost2010Prop53
 90
        2
102
RTVSPost2010PropOp53
 70
     1
102
RTVSPost2010Prop54
  1
strokes_ogs.tif
102
RTVSPost2010PropOp54
 70
     1
102
RTVSPost2010Prop55
280
     0
102
RTVSPost2010PropOp55
 70
     1
102
RTVSPost2010Prop56
140
1.0
102
RTVSPost2010PropOp56
 70
     1
102
RTVSPost2010Prop57
140
1.0
102
RTVSPost2010PropOp57
 70
     1
  0
XRECORD
  5
5E7
102
{ACAD_REACTORS
330
5E6
102
}
330
5E6
100
AcDbXrecord
280
     1
102
RTVSPropertyOp0
 70
     1
102
RTVSPropertyOp1
 70
     1
102
RTVSPropertyOp2
 70
     1
102
RTVSPropertyOp3
 70
     1
102
RTVSPropertyOp4
 70
     1
102
RTVSPropertyOp5
 70
     1
102
RTVSPropertyOp6
 70
     1
102
RTVSPropertyOp7
 70
     1
102
RTVSPropertyOp8
 70
     1
102
RTVSPropertyOp9
 70
     1
102
RTVSPropertyOp10
 70
     1
102
RTVSPropertyOp11
 70
     1
102
RTVSPropertyOp12
 70
     1
102
RTVSPropertyOp13
 70
     1
102
RTVSPropertyOp14
 70
     1
102
RTVSPropertyOp15
 70
     1
102
RTVSPropertyOp16
 70
     1
102
RTVSPropertyOp17
 70
     1
102
RTVSPropertyOp18
 70
     1
102
RTVSPropertyOp19
 70
     1
102
RTVSPropertyOp20
 70
     1
102
RTVSPropertyOp21
 70
     1
102
RTVSPropertyOp22
 70
     1
102
RTVSPropertyOp23
 70
     1
102
RTVSPropertyOp24
 70
     1
102
RTVSPropertyOp25
 70
     1
102
RTVSPropertyOp26
 70
     1
102
RTVSPropertyOp27
 70
     1
102
RTVSPropertyOp28
 70
     1
102
RTVSPropertyOp29
 70
     1
102
RTVSPropertyOp30
 70
     1
102
RTVSPropertyOp31
 70
     1
102
RTVSPropertyOp32
 70
     1
102
RTVSPropertyOp33
 70
     1
102
RTVSPropertyOp34
 70
     1
102
RTVSPropertyOp35
 70
     1
102
RTVSPropertyOp36
 70
     1
102
RTVSPropertyOp37
 70
     1
102
RTVSPropertyOp38
 70
     1
102
RTVSPropertyOp39
 70
     1
102
RTVSPropertyOp40
 70
     1
102
RTVSPropertyOp41
 70
     1
102
RTVSPropertyOp42
 70
     1
102
RTVSPropertyOp43
 70
     1
102
RTVSPropertyOp44
 70
     1
102
RTVSPropertyOp45
 70
     1
102
RTVSPropertyOp46
 70
     1
102
RTVSPropertyOp47
 70
     1
102
RTVSPropertyOp48
 70
     1
102
RTVSPropertyOp49
 70
     1
102
RTVSPropertyOp50
 70
     1
102
RTVSPropertyOp51
 70
     0
102
RTVSPropertyOp52
 70
     0
102
RTVSPropertyOp53
 70
     1
102
RTVSPropertyOp54
 70
     1
102
RTVSPropertyOp55
 70
     1
102
RTVSPropertyOp56
 70
     1
102
RTVSPropertyOp57
 70
     1
102
RTVSPost2010Prop28
280
     0
102
RTVSPost2010PropOp28
 70
     1
102
RTVSPost2010Prop29
280
     1
102
RTVSPost2010PropOp29
 70
     1
102
RTVSPost2010Prop30
280
     1
102
RTVSPost2010PropOp30
 70
     1
102
RTVSPost2010Prop31
280
     0
102
RTVSPost2010PropOp31
 70
     1
102
RTVSPost2010Prop32
280
     0
102
RTVSPost2010PropOp32
 70
     1
102
RTVSPost2010Prop33
280
     0
102
RTVSPost2010PropOp33
 70
     1
102
RTVSPost2010Prop34
280
     0
102
RTVSPost2010PropOp34
 70
     1
102
RTVSPost2010Prop35
280
     0
102
RTVSPost2010PropOp35
 70
     1
102
RTVSPost2010Prop36
280
     0
102
RTVSPost2010PropOp36
 70
     1
102
RTVSPost2010Prop37
 90
       50
102
RTVSPost2010PropOp37
 70
     1
102
RTVSPost2010Prop38
140
0.0
102
RTVSPost2010PropOp38
 70
     1
102
RTVSPost2010Prop39
140
1.0
102
RTVSPost2010PropOp39
 70
     1
102
RTVSPost2010Prop40
 90
        0
102
RTVSPost2010PropOp40
 70
     1
102
RTVSPost2010Prop41ColorIndex
 90
       18
102
RTVSPost2010Prop41ColorRGB
 90
        0
102
RTVSPost2010PropOp41
 70
     1
102
RTVSPost2010Prop42
 90
       50
102
RTVSPost2010PropOp42
 70
     1
102
RTVSPost2010Prop43
 90
        3
102
RTVSPost2010PropOp43
 70
     1
102
RTVSPost2010Prop44ColorIndex
 90
        5
102
RTVSPost2010Prop44ColorRGB
 90
      255
102
RTVSPost2010PropOp44
 70
     1
102
RTVSPost2010Prop45
280
     0
102
RTVSPost2010PropOp45
 70
     1
102
RTVSPost2010Prop46
 90
       50
102
RTVSPost2010PropOp46
 70
     1
102
RTVSPost2010Prop47
 90
       50
102
RTVSPost2010PropOp47
 70
     1
102
RTVSPost2010Prop48
 90
       50
102
RTVSPost2010PropOp48
 70
     1
102
RTVSPost2010Prop49
280
     0
102
RTVSPost2010PropOp49
 70
     1
102
RTVSPost2010Prop50
 90
       50
102
RTVSPost2010PropOp50
 70
     1
102
RTVSPost2010Prop51ColorIndex
 90
      256
102
RTVSPost2010Prop51ColorRGB
 90
-16777216
102
RTVSPost2010PropOp51
 70
     0
102
RTVSPost2010Prop52
140
1.0
102
RTVSPost2010PropOp52
 70
     0
102
RTVSPost2010Prop53
 90
        2
102
RTVSPost2010PropOp53
 70
     1
102
RTVSPost2010Prop54
  1
strokes_ogs.tif
102
RTVSPost2010PropOp54
 70
     1
102
RTVSPost2010Prop55
280
     0
102
RTVSPost2010PropOp55
 70
     1
102
RTVSPost2010Prop56
140
1.0
102
RTVSPost2010PropOp56
 70
     1
102
RTVSPost2010Prop57
140
1.0
102
RTVSPost2010PropOp57
 70
     1
  0
XRECORD
  5
5E9
102
{ACAD_REACTORS
330
5E8
102
}
330
5E8
100
AcDbXrecord
280
     1
102
RTVSPropertyOp0
 70
     1
102
RTVSPropertyOp1
 70
     1
102
RTVSPropertyOp2
 70
     1
102
RTVSPropertyOp3
 70
     1
102
RTVSPropertyOp4
 70
     1
102
RTVSPropertyOp5
 70
     1
102
RTVSPropertyOp6
 70
     1
102
RTVSPropertyOp7
 70
     1
102
RTVSPropertyOp8
 70
     1
102
RTVSPropertyOp9
 70
     1
102
RTVSPropertyOp10
 70
     1
102
RTVSPropertyOp11
 70
     1
102
RTVSPropertyOp12
 70
     1
102
RTVSPropertyOp13
 70
     1
102
RTVSPropertyOp14
 70
     1
102
RTVSPropertyOp15
 70
     1
102
RTVSPropertyOp16
 70
     1
102
RTVSPropertyOp17
 70
     1
102
RTVSPropertyOp18
 70
     1
102
RTVSPropertyOp19
 70
     1
102
RTVSPropertyOp20
 70
     1
102
RTVSPropertyOp21
 70
     1
102
RTVSPropertyOp22
 70
     1
102
RTVSPropertyOp23
 70
     1
102
RTVSPropertyOp24
 70
     1
102
RTVSPropertyOp25
 70
     1
102
RTVSPropertyOp26
 70
     1
102
RTVSPropertyOp27
 70
     1
102
RTVSPropertyOp28
 70
     1
102
RTVSPropertyOp29
 70
     1
102
RTVSPropertyOp30
 70
     1
102
RTVSPropertyOp31
 70
     1
102
RTVSPropertyOp32
 70
     1
102
RTVSPropertyOp33
 70
     1
102
RTVSPropertyOp34
 70
     1
102
RTVSPropertyOp35
 70
     1
102
RTVSPropertyOp36
 70
     1
102
RTVSPropertyOp37
 70
     1
102
RTVSPropertyOp38
 70
     1
102
RTVSPropertyOp39
 70
     1
102
RTVSPropertyOp40
 70
     1
102
RTVSPropertyOp41
 70
     1
102
RTVSPropertyOp42
 70
     1
102
RTVSPropertyOp43
 70
     1
102
RTVSPropertyOp44
 70
     1
102
RTVSPropertyOp45
 70
     1
102
RTVSPropertyOp46
 70
     1
102
RTVSPropertyOp47
 70
     1
102
RTVSPropertyOp48
 70
     1
102
RTVSPropertyOp49
 70
     1
102
RTVSPropertyOp50
 70
     1
102
RTVSPropertyOp51
 70
     0
102
RTVSPropertyOp52
 70
     0
102
RTVSPropertyOp53
 70
     1
102
RTVSPropertyOp54
 70
     1
102
RTVSPropertyOp55
 70
     1
102
RTVSPropertyOp56
 70
     1
102
RTVSPropertyOp57
 70
     1
102
RTVSPost2010Prop28
280
     0
102
RTVSPost2010PropOp28
 70
     1
102
RTVSPost2010Prop29
280
     1
102
RTVSPost2010PropOp29
 70
     1
102
RTVSPost2010Prop30
280
     1
102
RTVSPost2010PropOp30
 70
     1
102
RTVSPost2010Prop31
280
     0
102
RTVSPost2010PropOp31
 70
     1
102
RTVSPost2010Prop32
280
     0
102
RTVSPost2010PropOp32
 70
     1
102
RTVSPost2010Prop33
280
     0
102
RTVSPost2010PropOp33
 70
     1
102
RTVSPost2010Prop34
280
     0
102
RTVSPost2010PropOp34
 70
     1
102
RTVSPost2010Prop35
280
     0
102
RTVSPost2010PropOp35
 70
     1
102
RTVSPost2010Prop36
280
     0
102
RTVSPost2010PropOp36
 70
     1
102
RTVSPost2010Prop37
 90
       50
102
RTVSPost2010PropOp37
 70
     1
102
RTVSPost2010Prop38
140
0.0
102
RTVSPost2010PropOp38
 70
     1
102
RTVSPost2010Prop39
140
1.0
102
RTVSPost2010PropOp39
 70
     1
102
RTVSPost2010Prop40
 90
        0
102
RTVSPost2010PropOp40
 70
     1
102
RTVSPost2010Prop41ColorIndex
 90
       18
102
RTVSPost2010Prop41ColorRGB
 90
        0
102
RTVSPost2010PropOp41
 70
     1
102
RTVSPost2010Prop42
 90
       50
102
RTVSPost2010PropOp42
 70
     1
102
RTVSPost2010Prop43
 90
        3
102
RTVSPost2010PropOp43
 70
     1
102
RTVSPost2010Prop44ColorIndex
 90
        5
102
RTVSPost2010Prop44ColorRGB
 90
      255
102
RTVSPost2010PropOp44
 70
     1
102
RTVSPost2010Prop45
280
     0
102
RTVSPost2010PropOp45
 70
     1
102
RTVSPost2010Prop46
 90
       50
102
RTVSPost2010PropOp46
 70
     1
102
RTVSPost2010Prop47
 90
       50
102
RTVSPost2010PropOp47
 70
     1
102
RTVSPost2010Prop48
 90
       50
102
RTVSPost2010PropOp48
 70
     1
102
RTVSPost2010Prop49
280
     0
102
RTVSPost2010PropOp49
 70
     1
102
RTVSPost2010Prop50
 90
       50
102
RTVSPost2010PropOp50
 70
     1
102
RTVSPost2010Prop51ColorIndex
 90
      256
102
RTVSPost2010Prop51ColorRGB
 90
-16777216
102
RTVSPost2010PropOp51
 70
     0
102
RTVSPost2010Prop52
140
1.0
102
RTVSPost2010PropOp52
 70
     0
102
RTVSPost2010Prop53
 90
        2
102
RTVSPost2010PropOp53
 70
     1
102
RTVSPost2010Prop54
  1
strokes_ogs.tif
102
RTVSPost2010PropOp54
 70
     1
102
RTVSPost2010Prop55
280
     0
102
RTVSPost2010PropOp55
 70
     1
102
RTVSPost2010Prop56
140
1.0
102
RTVSPost2010PropOp56
 70
     1
102
RTVSPost2010Prop57
140
1.0
102
RTVSPost2010PropOp57
 70
     1
  0
XRECORD
  5
5EB
102
{ACAD_REACTORS
330
5EA
102
}
330
5EA
100
AcDbXrecord
280
     1
102
RTVSPropertyOp0
 70
     1
102
RTVSPropertyOp1
 70
     1
102
RTVSPropertyOp2
 70
     1
102
RTVSPropertyOp3
 70
     1
102
RTVSPropertyOp4
 70
     1
102
RTVSPropertyOp5
 70
     1
102
RTVSPropertyOp6
 70
     1
102
RTVSPropertyOp7
 70
     1
102
RTVSPropertyOp8
 70
     1
102
RTVSPropertyOp9
 70
     1
102
RTVSPropertyOp10
 70
     1
102
RTVSPropertyOp11
 70
     1
102
RTVSPropertyOp12
 70
     1
102
RTVSPropertyOp13
 70
     1
102
RTVSPropertyOp14
 70
     1
102
RTVSPropertyOp15
 70
     1
102
RTVSPropertyOp16
 70
     1
102
RTVSPropertyOp17
 70
     1
102
RTVSPropertyOp18
 70
     1
102
RTVSPropertyOp19
 70
     1
102
RTVSPropertyOp20
 70
     1
102
RTVSPropertyOp21
 70
     1
102
RTVSPropertyOp22
 70
     1
102
RTVSPropertyOp23
 70
     1
102
RTVSPropertyOp24
 70
     1
102
RTVSPropertyOp25
 70
     1
102
RTVSPropertyOp26
 70
     1
102
RTVSPropertyOp27
 70
     1
102
RTVSPropertyOp28
 70
     1
102
RTVSPropertyOp29
 70
     1
102
RTVSPropertyOp30
 70
     1
102
RTVSPropertyOp31
 70
     1
102
RTVSPropertyOp32
 70
     1
102
RTVSPropertyOp33
 70
     1
102
RTVSPropertyOp34
 70
     1
102
RTVSPropertyOp35
 70
     1
102
RTVSPropertyOp36
 70
     1
102
RTVSPropertyOp37
 70
     1
102
RTVSPropertyOp38
 70
     1
102
RTVSPropertyOp39
 70
     1
102
RTVSPropertyOp40
 70
     1
102
RTVSPropertyOp41
 70
     1
102
RTVSPropertyOp42
 70
     1
102
RTVSPropertyOp43
 70
     1
102
RTVSPropertyOp44
 70
     1
102
RTVSPropertyOp45
 70
     1
102
RTVSPropertyOp46
 70
     1
102
RTVSPropertyOp47
 70
     1
102
RTVSPropertyOp48
 70
     1
102
RTVSPropertyOp49
 70
     1
102
RTVSPropertyOp50
 70
     1
102
RTVSPropertyOp51
 70
     0
102
RTVSPropertyOp52
 70
     0
102
RTVSPropertyOp53
 70
     1
102
RTVSPropertyOp54
 70
     1
102
RTVSPropertyOp55
 70
     1
102
RTVSPropertyOp56
 70
     1
102
RTVSPropertyOp57
 70
     1
102
RTVSPost2010Prop28
280
     0
102
RTVSPost2010PropOp28
 70
     1
102
RTVSPost2010Prop29
280
     1
102
RTVSPost2010PropOp29
 70
     1
102
RTVSPost2010Prop30
280
     1
102
RTVSPost2010PropOp30
 70
     1
102
RTVSPost2010Prop31
280
     0
102
RTVSPost2010PropOp31
 70
     1
102
RTVSPost2010Prop32
280
     0
102
RTVSPost2010PropOp32
 70
     1
102
RTVSPost2010Prop33
280
     0
102
RTVSPost2010PropOp33
 70
     1
102
RTVSPost2010Prop34
280
     0
102
RTVSPost2010PropOp34
 70
     1
102
RTVSPost2010Prop35
280
     0
102
RTVSPost2010PropOp35
 70
     1
102
RTVSPost2010Prop36
280
     0
102
RTVSPost2010PropOp36
 70
     1
102
RTVSPost2010Prop37
 90
       50
102
RTVSPost2010PropOp37
 70
     1
102
RTVSPost2010Prop38
140
0.0
102
RTVSPost2010PropOp38
 70
     1
102
RTVSPost2010Prop39
140
1.0
102
RTVSPost2010PropOp39
 70
     1
102
RTVSPost2010Prop40
 90
        0
102
RTVSPost2010PropOp40
 70
     1
102
RTVSPost2010Prop41ColorIndex
 90
       18
102
RTVSPost2010Prop41ColorRGB
 90
        0
102
RTVSPost2010PropOp41
 70
     1
102
RTVSPost2010Prop42
 90
       50
102
RTVSPost2010PropOp42
 70
     1
102
RTVSPost2010Prop43
 90
        3
102
RTVSPost2010PropOp43
 70
     1
102
RTVSPost2010Prop44ColorIndex
 90
        5
102
RTVSPost2010Prop44ColorRGB
 90
      255
102
RTVSPost2010PropOp44
 70
     1
102
RTVSPost2010Prop45
280
     0
102
RTVSPost2010PropOp45
 70
     1
102
RTVSPost2010Prop46
 90
       50
102
RTVSPost2010PropOp46
 70
     1
102
RTVSPost2010Prop47
 90
       50
102
RTVSPost2010PropOp47
 70
     1
102
RTVSPost2010Prop48
 90
       50
102
RTVSPost2010PropOp48
 70
     1
102
RTVSPost2010Prop49
280
     0
102
RTVSPost2010PropOp49
 70
     1
102
RTVSPost2010Prop50
 90
       50
102
RTVSPost2010PropOp50
 70
     1
102
RTVSPost2010Prop51ColorIndex
 90
      256
102
RTVSPost2010Prop51ColorRGB
 90
-16777216
102
RTVSPost2010PropOp51
 70
     0
102
RTVSPost2010Prop52
140
1.0
102
RTVSPost2010PropOp52
 70
     0
102
RTVSPost2010Prop53
 90
        2
102
RTVSPost2010PropOp53
 70
     1
102
RTVSPost2010Prop54
  1
strokes_ogs.tif
102
RTVSPost2010PropOp54
 70
     1
102
RTVSPost2010Prop55
280
     0
102
RTVSPost2010PropOp55
 70
     1
102
RTVSPost2010Prop56
140
1.0
102
RTVSPost2010PropOp56
 70
     1
102
RTVSPost2010Prop57
140
1.0
102
RTVSPost2010PropOp57
 70
     1
  0
XRECORD
  5
5ED
102
{ACAD_REACTORS
330
5EC
102
}
330
5EC
100
AcDbXrecord
280
     1
102
RTVSPropertyOp0
 70
     1
102
RTVSPropertyOp1
 70
     1
102
RTVSPropertyOp2
 70
     1
102
RTVSPropertyOp3
 70
     1
102
RTVSPropertyOp4
 70
     1
102
RTVSPropertyOp5
 70
     1
102
RTVSPropertyOp6
 70
     1
102
RTVSPropertyOp7
 70
     1
102
RTVSPropertyOp8
 70
     1
102
RTVSPropertyOp9
 70
     1
102
RTVSPropertyOp10
 70
     1
102
RTVSPropertyOp11
 70
     1
102
RTVSPropertyOp12
 70
     1
102
RTVSPropertyOp13
 70
     1
102
RTVSPropertyOp14
 70
     1
102
RTVSPropertyOp15
 70
     1
102
RTVSPropertyOp16
 70
     1
102
RTVSPropertyOp17
 70
     1
102
RTVSPropertyOp18
 70
     1
102
RTVSPropertyOp19
 70
     1
102
RTVSPropertyOp20
 70
     1
102
RTVSPropertyOp21
 70
     1
102
RTVSPropertyOp22
 70
     1
102
RTVSPropertyOp23
 70
     1
102
RTVSPropertyOp24
 70
     1
102
RTVSPropertyOp25
 70
     1
102
RTVSPropertyOp26
 70
     1
102
RTVSPropertyOp27
 70
     1
102
RTVSPropertyOp28
 70
     1
102
RTVSPropertyOp29
 70
     1
102
RTVSPropertyOp30
 70
     1
102
RTVSPropertyOp31
 70
     1
102
RTVSPropertyOp32
 70
     1
102
RTVSPropertyOp33
 70
     1
102
RTVSPropertyOp34
 70
     1
102
RTVSPropertyOp35
 70
     1
102
RTVSPropertyOp36
 70
     1
102
RTVSPropertyOp37
 70
     1
102
RTVSPropertyOp38
 70
     1
102
RTVSPropertyOp39
 70
     1
102
RTVSPropertyOp40
 70
     1
102
RTVSPropertyOp41
 70
     1
102
RTVSPropertyOp42
 70
     1
102
RTVSPropertyOp43
 70
     1
102
RTVSPropertyOp44
 70
     1
102
RTVSPropertyOp45
 70
     1
102
RTVSPropertyOp46
 70
     1
102
RTVSPropertyOp47
 70
     1
102
RTVSPropertyOp48
 70
     1
102
RTVSPropertyOp49
 70
     1
102
RTVSPropertyOp50
 70
     1
102
RTVSPropertyOp51
 70
     0
102
RTVSPropertyOp52
 70
     0
102
RTVSPropertyOp53
 70
     1
102
RTVSPropertyOp54
 70
     1
102
RTVSPropertyOp55
 70
     1
102
RTVSPropertyOp56
 70
     1
102
RTVSPropertyOp57
 70
     1
102
RTVSPost2010Prop28
280
     0
102
RTVSPost2010PropOp28
 70
     1
102
RTVSPost2010Prop29
280
     1
102
RTVSPost2010PropOp29
 70
     1
102
RTVSPost2010Prop30
280
     1
102
RTVSPost2010PropOp30
 70
     1
102
RTVSPost2010Prop31
280
     0
102
RTVSPost2010PropOp31
 70
     1
102
RTVSPost2010Prop32
280
     0
102
RTVSPost2010PropOp32
 70
     1
102
RTVSPost2010Prop33
280
     0
102
RTVSPost2010PropOp33
 70
     1
102
RTVSPost2010Prop34
280
     0
102
RTVSPost2010PropOp34
 70
     1
102
RTVSPost2010Prop35
280
     0
102
RTVSPost2010PropOp35
 70
     1
102
RTVSPost2010Prop36
280
     0
102
RTVSPost2010PropOp36
 70
     1
102
RTVSPost2010Prop37
 90
       50
102
RTVSPost2010PropOp37
 70
     1
102
RTVSPost2010Prop38
140
0.0
102
RTVSPost2010PropOp38
 70
     1
102
RTVSPost2010Prop39
140
1.0
102
RTVSPost2010PropOp39
 70
     1
102
RTVSPost2010Prop40
 90
        0
102
RTVSPost2010PropOp40
 70
     1
102
RTVSPost2010Prop41ColorIndex
 90
       18
102
RTVSPost2010Prop41ColorRGB
 90
        0
102
RTVSPost2010PropOp41
 70
     1
102
RTVSPost2010Prop42
 90
       50
102
RTVSPost2010PropOp42
 70
     1
102
RTVSPost2010Prop43
 90
        3
102
RTVSPost2010PropOp43
 70
     1
102
RTVSPost2010Prop44ColorIndex
 90
        5
102
RTVSPost2010Prop44ColorRGB
 90
      255
102
RTVSPost2010PropOp44
 70
     1
102
RTVSPost2010Prop45
280
     0
102
RTVSPost2010PropOp45
 70
     1
102
RTVSPost2010Prop46
 90
       50
102
RTVSPost2010PropOp46
 70
     1
102
RTVSPost2010Prop47
 90
       50
102
RTVSPost2010PropOp47
 70
     1
102
RTVSPost2010Prop48
 90
       50
102
RTVSPost2010PropOp48
 70
     1
102
RTVSPost2010Prop49
280
     0
102
RTVSPost2010PropOp49
 70
     1
102
RTVSPost2010Prop50
 90
       50
102
RTVSPost2010PropOp50
 70
     1
102
RTVSPost2010Prop51ColorIndex
 90
      256
102
RTVSPost2010Prop51ColorRGB
 90
-16777216
102
RTVSPost2010PropOp51
 70
     0
102
RTVSPost2010Prop52
140
1.0
102
RTVSPost2010PropOp52
 70
     0
102
RTVSPost2010Prop53
 90
        2
102
RTVSPost2010PropOp53
 70
     1
102
RTVSPost2010Prop54
  1
strokes_ogs.tif
102
RTVSPost2010PropOp54
 70
     1
102
RTVSPost2010Prop55
280
     0
102
RTVSPost2010PropOp55
 70
     1
102
RTVSPost2010Prop56
140
1.0
102
RTVSPost2010PropOp56
 70
     1
102
RTVSPost2010Prop57
140
1.0
102
RTVSPost2010PropOp57
 70
     1
  0
XRECORD
  5
5EF
102
{ACAD_REACTORS
330
5EE
102
}
330
5EE
100
AcDbXrecord
280
     1
102
RTVSPropertyOp0
 70
     0
102
RTVSPropertyOp1
 70
     0
102
RTVSPropertyOp2
 70
     0
102
RTVSPropertyOp3
 70
     0
102
RTVSPropertyOp4
 70
     0
102
RTVSPropertyOp5
 70
     0
102
RTVSPropertyOp6
 70
     0
102
RTVSPropertyOp7
 70
     0
102
RTVSPropertyOp8
 70
     0
102
RTVSPropertyOp9
 70
     0
102
RTVSPropertyOp10
 70
     0
102
RTVSPropertyOp11
 70
     0
102
RTVSPropertyOp12
 70
     0
102
RTVSPropertyOp13
 70
     0
102
RTVSPropertyOp14
 70
     2
102
RTVSPropertyOp15
 70
     0
102
RTVSPropertyOp16
 70
     0
102
RTVSPropertyOp17
 70
     0
102
RTVSPropertyOp18
 70
     0
102
RTVSPropertyOp19
 70
     0
102
RTVSPropertyOp20
 70
     0
102
RTVSPropertyOp21
 70
     0
102
RTVSPropertyOp22
 70
     0
102
RTVSPropertyOp23
 70
     0
102
RTVSPropertyOp24
 70
     0
102
RTVSPropertyOp25
 70
     0
102
RTVSPropertyOp26
 70
     0
102
RTVSPropertyOp27
 70
     0
102
RTVSPropertyOp28
 70
     0
102
RTVSPropertyOp29
 70
     0
102
RTVSPropertyOp30
 70
     0
102
RTVSPropertyOp31
 70
     0
102
RTVSPropertyOp32
 70
     0
102
RTVSPropertyOp33
 70
     0
102
RTVSPropertyOp34
 70
     0
102
RTVSPropertyOp35
 70
     0
102
RTVSPropertyOp36
 70
     0
102
RTVSPropertyOp37
 70
     0
102
RTVSPropertyOp38
 70
     0
102
RTVSPropertyOp39
 70
     0
102
RTVSPropertyOp40
 70
     0
102
RTVSPropertyOp41
 70
     0
102
RTVSPropertyOp42
 70
     0
102
RTVSPropertyOp43
 70
     0
102
RTVSPropertyOp44
 70
     0
102
RTVSPropertyOp45
 70
     0
102
RTVSPropertyOp46
 70
     0
102
RTVSPropertyOp47
 70
     0
102
RTVSPropertyOp48
 70
     0
102
RTVSPropertyOp49
 70
     0
102
RTVSPropertyOp50
 70
     0
102
RTVSPropertyOp51
 70
     0
102
RTVSPropertyOp52
 70
     0
102
RTVSPropertyOp53
 70
     0
102
RTVSPropertyOp54
 70
     0
102
RTVSPropertyOp55
 70
     0
102
RTVSPropertyOp56
 70
     0
102
RTVSPropertyOp57
 70
     0
102
RTVSPost2010Prop28
280
     0
102
RTVSPost2010PropOp28
 70
     0
102
RTVSPost2010Prop29
280
     1
102
RTVSPost2010PropOp29
 70
     0
102
RTVSPost2010Prop30
280
     1
102
RTVSPost2010PropOp30
 70
     0
102
RTVSPost2010Prop31
280
     0
102
RTVSPost2010PropOp31
 70
     0
102
RTVSPost2010Prop32
280
     0
102
RTVSPost2010PropOp32
 70
     0
102
RTVSPost2010Prop33
280
     0
102
RTVSPost2010PropOp33
 70
     0
102
RTVSPost2010Prop34
280
     0
102
RTVSPost2010PropOp34
 70
     0
102
RTVSPost2010Prop35
280
     0
102
RTVSPost2010PropOp35
 70
     0
102
RTVSPost2010Prop36
280
     0
102
RTVSPost2010PropOp36
 70
     0
102
RTVSPost2010Prop37
 90
       50
102
RTVSPost2010PropOp37
 70
     0
102
RTVSPost2010Prop38
140
0.0
102
RTVSPost2010PropOp38
 70
     0
102
RTVSPost2010Prop39
140
1.0
102
RTVSPost2010PropOp39
 70
     0
102
RTVSPost2010Prop40
 90
        0
102
RTVSPost2010PropOp40
 70
     0
102
RTVSPost2010Prop41ColorIndex
 90
       18
102
RTVSPost2010Prop41ColorRGB
 90
        0
102
RTVSPost2010PropOp41
 70
     0
102
RTVSPost2010Prop42
 90
       50
102
RTVSPost2010PropOp42
 70
     0
102
RTVSPost2010Prop43
 90
        3
102
RTVSPost2010PropOp43
 70
     0
102
RTVSPost2010Prop44ColorIndex
 90
        5
102
RTVSPost2010Prop44ColorRGB
 90
      255
102
RTVSPost2010PropOp44
 70
     0
102
RTVSPost2010Prop45
280
     0
102
RTVSPost2010PropOp45
 70
     0
102
RTVSPost2010Prop46
 90
       50
102
RTVSPost2010PropOp46
 70
     0
102
RTVSPost2010Prop47
 90
       50
102
RTVSPost2010PropOp47
 70
     0
102
RTVSPost2010Prop48
 90
       50
102
RTVSPost2010PropOp48
 70
     0
102
RTVSPost2010Prop49
280
     0
102
RTVSPost2010PropOp49
 70
     0
102
RTVSPost2010Prop50
 90
       50
102
RTVSPost2010PropOp50
 70
     0
102
RTVSPost2010Prop51ColorIndex
 90
      256
102
RTVSPost2010Prop51ColorRGB
 90
-16777216
102
RTVSPost2010PropOp51
 70
     0
102
RTVSPost2010Prop52
140
1.0
102
RTVSPost2010PropOp52
 70
     0
102
RTVSPost2010Prop53
 90
        2
102
RTVSPost2010PropOp53
 70
     0
102
RTVSPost2010Prop54
  1
strokes_ogs.tif
102
RTVSPost2010PropOp54
 70
     0
102
RTVSPost2010Prop55
280
     0
102
RTVSPost2010PropOp55
 70
     0
102
RTVSPost2010Prop56
140
1.0
102
RTVSPost2010PropOp56
 70
     0
102
RTVSPost2010Prop57
140
1.0
102
RTVSPost2010PropOp57
 70
     0
  0
XRECORD
  5
5F1
102
{ACAD_REACTORS
330
5F0
102
}
330
5F0
100
AcDbXrecord
280
     1
102
RTVSPropertyOp0
 70
     1
102
RTVSPropertyOp1
 70
     1
102
RTVSPropertyOp2
 70
     1
102
RTVSPropertyOp3
 70
     1
102
RTVSPropertyOp4
 70
     1
102
RTVSPropertyOp5
 70
     1
102
RTVSPropertyOp6
 70
     1
102
RTVSPropertyOp7
 70
     1
102
RTVSPropertyOp8
 70
     1
102
RTVSPropertyOp9
 70
     1
102
RTVSPropertyOp10
 70
     1
102
RTVSPropertyOp11
 70
     1
102
RTVSPropertyOp12
 70
     1
102
RTVSPropertyOp13
 70
     1
102
RTVSPropertyOp14
 70
     1
102
RTVSPropertyOp15
 70
     1
102
RTVSPropertyOp16
 70
     1
102
RTVSPropertyOp17
 70
     1
102
RTVSPropertyOp18
 70
     1
102
RTVSPropertyOp19
 70
     1
102
RTVSPropertyOp20
 70
     1
102
RTVSPropertyOp21
 70
     1
102
RTVSPropertyOp22
 70
     1
102
RTVSPropertyOp23
 70
     1
102
RTVSPropertyOp24
 70
     1
102
RTVSPropertyOp25
 70
     1
102
RTVSPropertyOp26
 70
     1
102
RTVSPropertyOp27
 70
     1
102
RTVSPropertyOp28
 70
     1
102
RTVSPropertyOp29
 70
     1
102
RTVSPropertyOp30
 70
     1
102
RTVSPropertyOp31
 70
     1
102
RTVSPropertyOp32
 70
     1
102
RTVSPropertyOp33
 70
     1
102
RTVSPropertyOp34
 70
     1
102
RTVSPropertyOp35
 70
     1
102
RTVSPropertyOp36
 70
     1
102
RTVSPropertyOp37
 70
     1
102
RTVSPropertyOp38
 70
     1
102
RTVSPropertyOp39
 70
     1
102
RTVSPropertyOp40
 70
     1
102
RTVSPropertyOp41
 70
     1
102
RTVSPropertyOp42
 70
     1
102
RTVSPropertyOp43
 70
     1
102
RTVSPropertyOp44
 70
     1
102
RTVSPropertyOp45
 70
     1
102
RTVSPropertyOp46
 70
     1
102
RTVSPropertyOp47
 70
     1
102
RTVSPropertyOp48
 70
     1
102
RTVSPropertyOp49
 70
     1
102
RTVSPropertyOp50
 70
     1
102
RTVSPropertyOp51
 70
     0
102
RTVSPropertyOp52
 70
     0
102
RTVSPropertyOp53
 70
     1
102
RTVSPropertyOp54
 70
     1
102
RTVSPropertyOp55
 70
     1
102
RTVSPropertyOp56
 70
     1
102
RTVSPropertyOp57
 70
     1
102
RTVSPost2010Prop28
280
     0
102
RTVSPost2010PropOp28
 70
     1
102
RTVSPost2010Prop29
280
     1
102
RTVSPost2010PropOp29
 70
     1
102
RTVSPost2010Prop30
280
     1
102
RTVSPost2010PropOp30
 70
     1
102
RTVSPost2010Prop31
280
     0
102
RTVSPost2010PropOp31
 70
     1
102
RTVSPost2010Prop32
280
     0
102
RTVSPost2010PropOp32
 70
     1
102
RTVSPost2010Prop33
280
     0
102
RTVSPost2010PropOp33
 70
     1
102
RTVSPost2010Prop34
280
     0
102
RTVSPost2010PropOp34
 70
     1
102
RTVSPost2010Prop35
280
     0
102
RTVSPost2010PropOp35
 70
     1
102
RTVSPost2010Prop36
280
     0
102
RTVSPost2010PropOp36
 70
     1
102
RTVSPost2010Prop37
 90
       50
102
RTVSPost2010PropOp37
 70
     1
102
RTVSPost2010Prop38
140
0.0
102
RTVSPost2010PropOp38
 70
     1
102
RTVSPost2010Prop39
140
1.0
102
RTVSPost2010PropOp39
 70
     1
102
RTVSPost2010Prop40
 90
        0
102
RTVSPost2010PropOp40
 70
     1
102
RTVSPost2010Prop41ColorIndex
 90
       18
102
RTVSPost2010Prop41ColorRGB
 90
        0
102
RTVSPost2010PropOp41
 70
     1
102
RTVSPost2010Prop42
 90
       50
102
RTVSPost2010PropOp42
 70
     1
102
RTVSPost2010Prop43
 90
        3
102
RTVSPost2010PropOp43
 70
     1
102
RTVSPost2010Prop44ColorIndex
 90
        5
102
RTVSPost2010Prop44ColorRGB
 90
      255
102
RTVSPost2010PropOp44
 70
     1
102
RTVSPost2010Prop45
280
     0
102
RTVSPost2010PropOp45
 70
     1
102
RTVSPost2010Prop46
 90
       50
102
RTVSPost2010PropOp46
 70
     1
102
RTVSPost2010Prop47
 90
       50
102
RTVSPost2010PropOp47
 70
     1
102
RTVSPost2010Prop48
 90
       50
102
RTVSPost2010PropOp48
 70
     1
102
RTVSPost2010Prop49
280
     0
102
RTVSPost2010PropOp49
 70
     1
102
RTVSPost2010Prop50
 90
       50
102
RTVSPost2010PropOp50
 70
     1
102
RTVSPost2010Prop51ColorIndex
 90
      256
102
RTVSPost2010Prop51ColorRGB
 90
-16777216
102
RTVSPost2010PropOp51
 70
     0
102
RTVSPost2010Prop52
140
1.0
102
RTVSPost2010PropOp52
 70
     0
102
RTVSPost2010Prop53
 90
        2
102
RTVSPost2010PropOp53
 70
     1
102
RTVSPost2010Prop54
  1
strokes_ogs.tif
102
RTVSPost2010PropOp54
 70
     1
102
RTVSPost2010Prop55
280
     0
102
RTVSPost2010PropOp55
 70
     1
102
RTVSPost2010Prop56
140
1.0
102
RTVSPost2010PropOp56
 70
     1
102
RTVSPost2010Prop57
140
1.0
102
RTVSPost2010PropOp57
 70
     1
  0
XRECORD
  5
5F3
102
{ACAD_REACTORS
330
5F2
102
}
330
5F2
100
AcDbXrecord
280
     1
102
RTVSPropertyOp0
 70
     1
102
RTVSPropertyOp1
 70
     1
102
RTVSPropertyOp2
 70
     1
102
RTVSPropertyOp3
 70
     1
102
RTVSPropertyOp4
 70
     1
102
RTVSPropertyOp5
 70
     1
102
RTVSPropertyOp6
 70
     1
102
RTVSPropertyOp7
 70
     1
102
RTVSPropertyOp8
 70
     1
102
RTVSPropertyOp9
 70
     1
102
RTVSPropertyOp10
 70
     1
102
RTVSPropertyOp11
 70
     1
102
RTVSPropertyOp12
 70
     1
102
RTVSPropertyOp13
 70
     1
102
RTVSPropertyOp14
 70
     1
102
RTVSPropertyOp15
 70
     1
102
RTVSPropertyOp16
 70
     1
102
RTVSPropertyOp17
 70
     1
102
RTVSPropertyOp18
 70
     1
102
RTVSPropertyOp19
 70
     1
102
RTVSPropertyOp20
 70
     1
102
RTVSPropertyOp21
 70
     1
102
RTVSPropertyOp22
 70
     1
102
RTVSPropertyOp23
 70
     1
102
RTVSPropertyOp24
 70
     1
102
RTVSPropertyOp25
 70
     1
102
RTVSPropertyOp26
 70
     1
102
RTVSPropertyOp27
 70
     1
102
RTVSPropertyOp28
 70
     1
102
RTVSPropertyOp29
 70
     1
102
RTVSPropertyOp30
 70
     1
102
RTVSPropertyOp31
 70
     1
102
RTVSPropertyOp32
 70
     1
102
RTVSPropertyOp33
 70
     1
102
RTVSPropertyOp34
 70
     1
102
RTVSPropertyOp35
 70
     1
102
RTVSPropertyOp36
 70
     1
102
RTVSPropertyOp37
 70
     1
102
RTVSPropertyOp38
 70
     1
102
RTVSPropertyOp39
 70
     1
102
RTVSPropertyOp40
 70
     1
102
RTVSPropertyOp41
 70
     1
102
RTVSPropertyOp42
 70
     1
102
RTVSPropertyOp43
 70
     1
102
RTVSPropertyOp44
 70
     1
102
RTVSPropertyOp45
 70
     1
102
RTVSPropertyOp46
 70
     1
102
RTVSPropertyOp47
 70
     1
102
RTVSPropertyOp48
 70
     1
102
RTVSPropertyOp49
 70
     1
102
RTVSPropertyOp50
 70
     1
102
RTVSPropertyOp51
 70
     0
102
RTVSPropertyOp52
 70
     0
102
RTVSPropertyOp53
 70
     1
102
RTVSPropertyOp54
 70
     1
102
RTVSPropertyOp55
 70
     1
102
RTVSPropertyOp56
 70
     1
102
RTVSPropertyOp57
 70
     1
102
RTVSPost2010Prop28
280
     0
102
RTVSPost2010PropOp28
 70
     1
102
RTVSPost2010Prop29
280
     1
102
RTVSPost2010PropOp29
 70
     1
102
RTVSPost2010Prop30
280
     1
102
RTVSPost2010PropOp30
 70
     1
102
RTVSPost2010Prop31
280
     0
102
RTVSPost2010PropOp31
 70
     1
102
RTVSPost2010Prop32
280
     0
102
RTVSPost2010PropOp32
 70
     1
102
RTVSPost2010Prop33
280
     0
102
RTVSPost2010PropOp33
 70
     1
102
RTVSPost2010Prop34
280
     0
102
RTVSPost2010PropOp34
 70
     1
102
RTVSPost2010Prop35
280
     0
102
RTVSPost2010PropOp35
 70
     1
102
RTVSPost2010Prop36
280
     0
102
RTVSPost2010PropOp36
 70
     1
102
RTVSPost2010Prop37
 90
       50
102
RTVSPost2010PropOp37
 70
     1
102
RTVSPost2010Prop38
140
0.0
102
RTVSPost2010PropOp38
 70
     1
102
RTVSPost2010Prop39
140
1.0
102
RTVSPost2010PropOp39
 70
     1
102
RTVSPost2010Prop40
 90
        0
102
RTVSPost2010PropOp40
 70
     1
102
RTVSPost2010Prop41ColorIndex
 90
       18
102
RTVSPost2010Prop41ColorRGB
 90
        0
102
RTVSPost2010PropOp41
 70
     1
102
RTVSPost2010Prop42
 90
       50
102
RTVSPost2010PropOp42
 70
     1
102
RTVSPost2010Prop43
 90
        3
102
RTVSPost2010PropOp43
 70
     1
102
RTVSPost2010Prop44ColorIndex
 90
        5
102
RTVSPost2010Prop44ColorRGB
 90
      255
102
RTVSPost2010PropOp44
 70
     1
102
RTVSPost2010Prop45
280
     0
102
RTVSPost2010PropOp45
 70
     1
102
RTVSPost2010Prop46
 90
       50
102
RTVSPost2010PropOp46
 70
     1
102
RTVSPost2010Prop47
 90
       50
102
RTVSPost2010PropOp47
 70
     1
102
RTVSPost2010Prop48
 90
       50
102
RTVSPost2010PropOp48
 70
     1
102
RTVSPost2010Prop49
280
     0
102
RTVSPost2010PropOp49
 70
     1
102
RTVSPost2010Prop50
 90
       50
102
RTVSPost2010PropOp50
 70
     1
102
RTVSPost2010Prop51ColorIndex
 90
      256
102
RTVSPost2010Prop51ColorRGB
 90
-16777216
102
RTVSPost2010PropOp51
 70
     0
102
RTVSPost2010Prop52
140
1.0
102
RTVSPost2010PropOp52
 70
     0
102
RTVSPost2010Prop53
 90
        2
102
RTVSPost2010PropOp53
 70
     1
102
RTVSPost2010Prop54
  1
strokes_ogs.tif
102
RTVSPost2010PropOp54
 70
     1
102
RTVSPost2010Prop55
280
     0
102
RTVSPost2010PropOp55
 70
     1
102
RTVSPost2010Prop56
140
1.0
102
RTVSPost2010PropOp56
 70
     1
102
RTVSPost2010Prop57
140
1.0
102
RTVSPost2010PropOp57
 70
     1
  0
XRECORD
  5
5F5
102
{ACAD_REACTORS
330
5F4
102
}
330
5F4
100
AcDbXrecord
280
     1
102
RTVSPropertyOp0
 70
     1
102
RTVSPropertyOp1
 70
     1
102
RTVSPropertyOp2
 70
     1
102
RTVSPropertyOp3
 70
     1
102
RTVSPropertyOp4
 70
     1
102
RTVSPropertyOp5
 70
     1
102
RTVSPropertyOp6
 70
     1
102
RTVSPropertyOp7
 70
     1
102
RTVSPropertyOp8
 70
     1
102
RTVSPropertyOp9
 70
     1
102
RTVSPropertyOp10
 70
     1
102
RTVSPropertyOp11
 70
     1
102
RTVSPropertyOp12
 70
     1
102
RTVSPropertyOp13
 70
     1
102
RTVSPropertyOp14
 70
     1
102
RTVSPropertyOp15
 70
     1
102
RTVSPropertyOp16
 70
     1
102
RTVSPropertyOp17
 70
     1
102
RTVSPropertyOp18
 70
     1
102
RTVSPropertyOp19
 70
     1
102
RTVSPropertyOp20
 70
     1
102
RTVSPropertyOp21
 70
     1
102
RTVSPropertyOp22
 70
     1
102
RTVSPropertyOp23
 70
     1
102
RTVSPropertyOp24
 70
     1
102
RTVSPropertyOp25
 70
     1
102
RTVSPropertyOp26
 70
     1
102
RTVSPropertyOp27
 70
     1
102
RTVSPropertyOp28
 70
     1
102
RTVSPropertyOp29
 70
     1
102
RTVSPropertyOp30
 70
     1
102
RTVSPropertyOp31
 70
     1
102
RTVSPropertyOp32
 70
     1
102
RTVSPropertyOp33
 70
     1
102
RTVSPropertyOp34
 70
     1
102
RTVSPropertyOp35
 70
     1
102
RTVSPropertyOp36
 70
     1
102
RTVSPropertyOp37
 70
     1
102
RTVSPropertyOp38
 70
     1
102
RTVSPropertyOp39
 70
     1
102
RTVSPropertyOp40
 70
     1
102
RTVSPropertyOp41
 70
     1
102
RTVSPropertyOp42
 70
     1
102
RTVSPropertyOp43
 70
     1
102
RTVSPropertyOp44
 70
     1
102
RTVSPropertyOp45
 70
     1
102
RTVSPropertyOp46
 70
     1
102
RTVSPropertyOp47
 70
     1
102
RTVSPropertyOp48
 70
     1
102
RTVSPropertyOp49
 70
     1
102
RTVSPropertyOp50
 70
     1
102
RTVSPropertyOp51
 70
     0
102
RTVSPropertyOp52
 70
     0
102
RTVSPropertyOp53
 70
     1
102
RTVSPropertyOp54
 70
     1
102
RTVSPropertyOp55
 70
     1
102
RTVSPropertyOp56
 70
     1
102
RTVSPropertyOp57
 70
     1
102
RTVSPost2010Prop28
280
     0
102
RTVSPost2010PropOp28
 70
     1
102
RTVSPost2010Prop29
280
     1
102
RTVSPost2010PropOp29
 70
     1
102
RTVSPost2010Prop30
280
     1
102
RTVSPost2010PropOp30
 70
     1
102
RTVSPost2010Prop31
280
     0
102
RTVSPost2010PropOp31
 70
     1
102
RTVSPost2010Prop32
280
     0
102
RTVSPost2010PropOp32
 70
     1
102
RTVSPost2010Prop33
280
     0
102
RTVSPost2010PropOp33
 70
     1
102
RTVSPost2010Prop34
280
     0
102
RTVSPost2010PropOp34
 70
     1
102
RTVSPost2010Prop35
280
     0
102
RTVSPost2010PropOp35
 70
     1
102
RTVSPost2010Prop36
280
     0
102
RTVSPost2010PropOp36
 70
     1
102
RTVSPost2010Prop37
 90
       50
102
RTVSPost2010PropOp37
 70
     1
102
RTVSPost2010Prop38
140
0.0
102
RTVSPost2010PropOp38
 70
     1
102
RTVSPost2010Prop39
140
1.0
102
RTVSPost2010PropOp39
 70
     1
102
RTVSPost2010Prop40
 90
        0
102
RTVSPost2010PropOp40
 70
     1
102
RTVSPost2010Prop41ColorIndex
 90
       18
102
RTVSPost2010Prop41ColorRGB
 90
        0
102
RTVSPost2010PropOp41
 70
     1
102
RTVSPost2010Prop42
 90
       50
102
RTVSPost2010PropOp42
 70
     1
102
RTVSPost2010Prop43
 90
        3
102
RTVSPost2010PropOp43
 70
     1
102
RTVSPost2010Prop44ColorIndex
 90
        5
102
RTVSPost2010Prop44ColorRGB
 90
      255
102
RTVSPost2010PropOp44
 70
     1
102
RTVSPost2010Prop45
280
     0
102
RTVSPost2010PropOp45
 70
     1
102
RTVSPost2010Prop46
 90
       50
102
RTVSPost2010PropOp46
 70
     1
102
RTVSPost2010Prop47
 90
       50
102
RTVSPost2010PropOp47
 70
     1
102
RTVSPost2010Prop48
 90
       50
102
RTVSPost2010PropOp48
 70
     1
102
RTVSPost2010Prop49
280
     0
102
RTVSPost2010PropOp49
 70
     1
102
RTVSPost2010Prop50
 90
       50
102
RTVSPost2010PropOp50
 70
     1
102
RTVSPost2010Prop51ColorIndex
 90
      256
102
RTVSPost2010Prop51ColorRGB
 90
-16777216
102
RTVSPost2010PropOp51
 70
     0
102
RTVSPost2010Prop52
140
1.0
102
RTVSPost2010PropOp52
 70
     0
102
RTVSPost2010Prop53
 90
        2
102
RTVSPost2010PropOp53
 70
     1
102
RTVSPost2010Prop54
  1
strokes_ogs.tif
102
RTVSPost2010PropOp54
 70
     1
102
RTVSPost2010Prop55
280
     0
102
RTVSPost2010PropOp55
 70
     1
102
RTVSPost2010Prop56
140
1.0
102
RTVSPost2010PropOp56
 70
     1
102
RTVSPost2010Prop57
140
1.0
102
RTVSPost2010PropOp57
 70
     1
  0
XRECORD
  5
5F7
102
{ACAD_REACTORS
330
5F6
102
}
330
5F6
100
AcDbXrecord
280
     1
102
RTVSPropertyOp0
 70
     1
102
RTVSPropertyOp1
 70
     1
102
RTVSPropertyOp2
 70
     1
102
RTVSPropertyOp3
 70
     1
102
RTVSPropertyOp4
 70
     1
102
RTVSPropertyOp5
 70
     1
102
RTVSPropertyOp6
 70
     1
102
RTVSPropertyOp7
 70
     1
102
RTVSPropertyOp8
 70
     1
102
RTVSPropertyOp9
 70
     1
102
RTVSPropertyOp10
 70
     1
102
RTVSPropertyOp11
 70
     1
102
RTVSPropertyOp12
 70
     1
102
RTVSPropertyOp13
 70
     1
102
RTVSPropertyOp14
 70
     1
102
RTVSPropertyOp15
 70
     1
102
RTVSPropertyOp16
 70
     1
102
RTVSPropertyOp17
 70
     1
102
RTVSPropertyOp18
 70
     1
102
RTVSPropertyOp19
 70
     1
102
RTVSPropertyOp20
 70
     1
102
RTVSPropertyOp21
 70
     1
102
RTVSPropertyOp22
 70
     1
102
RTVSPropertyOp23
 70
     1
102
RTVSPropertyOp24
 70
     1
102
RTVSPropertyOp25
 70
     1
102
RTVSPropertyOp26
 70
     1
102
RTVSPropertyOp27
 70
     1
102
RTVSPropertyOp28
 70
     1
102
RTVSPropertyOp29
 70
     1
102
RTVSPropertyOp30
 70
     1
102
RTVSPropertyOp31
 70
     1
102
RTVSPropertyOp32
 70
     1
102
RTVSPropertyOp33
 70
     1
102
RTVSPropertyOp34
 70
     1
102
RTVSPropertyOp35
 70
     1
102
RTVSPropertyOp36
 70
     1
102
RTVSPropertyOp37
 70
     1
102
RTVSPropertyOp38
 70
     1
102
RTVSPropertyOp39
 70
     1
102
RTVSPropertyOp40
 70
     1
102
RTVSPropertyOp41
 70
     1
102
RTVSPropertyOp42
 70
     1
102
RTVSPropertyOp43
 70
     1
102
RTVSPropertyOp44
 70
     1
102
RTVSPropertyOp45
 70
     1
102
RTVSPropertyOp46
 70
     1
102
RTVSPropertyOp47
 70
     1
102
RTVSPropertyOp48
 70
     1
102
RTVSPropertyOp49
 70
     1
102
RTVSPropertyOp50
 70
     1
102
RTVSPropertyOp51
 70
     0
102
RTVSPropertyOp52
 70
     0
102
RTVSPropertyOp53
 70
     1
102
RTVSPropertyOp54
 70
     1
102
RTVSPropertyOp55
 70
     1
102
RTVSPropertyOp56
 70
     1
102
RTVSPropertyOp57
 70
     1
102
RTVSPost2010Prop28
280
     0
102
RTVSPost2010PropOp28
 70
     1
102
RTVSPost2010Prop29
280
     1
102
RTVSPost2010PropOp29
 70
     1
102
RTVSPost2010Prop30
280
     1
102
RTVSPost2010PropOp30
 70
     1
102
RTVSPost2010Prop31
280
     0
102
RTVSPost2010PropOp31
 70
     1
102
RTVSPost2010Prop32
280
     0
102
RTVSPost2010PropOp32
 70
     1
102
RTVSPost2010Prop33
280
     0
102
RTVSPost2010PropOp33
 70
     1
102
RTVSPost2010Prop34
280
     0
102
RTVSPost2010PropOp34
 70
     1
102
RTVSPost2010Prop35
280
     0
102
RTVSPost2010PropOp35
 70
     1
102
RTVSPost2010Prop36
280
     0
102
RTVSPost2010PropOp36
 70
     1
102
RTVSPost2010Prop37
 90
       50
102
RTVSPost2010PropOp37
 70
     1
102
RTVSPost2010Prop38
140
0.0
102
RTVSPost2010PropOp38
 70
     1
102
RTVSPost2010Prop39
140
1.0
102
RTVSPost2010PropOp39
 70
     1
102
RTVSPost2010Prop40
 90
        0
102
RTVSPost2010PropOp40
 70
     1
102
RTVSPost2010Prop41ColorIndex
 90
       18
102
RTVSPost2010Prop41ColorRGB
 90
        0
102
RTVSPost2010PropOp41
 70
     1
102
RTVSPost2010Prop42
 90
       50
102
RTVSPost2010PropOp42
 70
     1
102
RTVSPost2010Prop43
 90
        3
102
RTVSPost2010PropOp43
 70
     1
102
RTVSPost2010Prop44ColorIndex
 90
        5
102
RTVSPost2010Prop44ColorRGB
 90
      255
102
RTVSPost2010PropOp44
 70
     1
102
RTVSPost2010Prop45
280
     0
102
RTVSPost2010PropOp45
 70
     1
102
RTVSPost2010Prop46
 90
       50
102
RTVSPost2010PropOp46
 70
     1
102
RTVSPost2010Prop47
 90
       50
102
RTVSPost2010PropOp47
 70
     1
102
RTVSPost2010Prop48
 90
       50
102
RTVSPost2010PropOp48
 70
     1
102
RTVSPost2010Prop49
280
     0
102
RTVSPost2010PropOp49
 70
     1
102
RTVSPost2010Prop50
 90
       50
102
RTVSPost2010PropOp50
 70
     1
102
RTVSPost2010Prop51ColorIndex
 90
      256
102
RTVSPost2010Prop51ColorRGB
 90
-16777216
102
RTVSPost2010PropOp51
 70
     0
102
RTVSPost2010Prop52
140
1.0
102
RTVSPost2010PropOp52
 70
     0
102
RTVSPost2010Prop53
 90
        2
102
RTVSPost2010PropOp53
 70
     1
102
RTVSPost2010Prop54
  1
strokes_ogs.tif
102
RTVSPost2010PropOp54
 70
     1
102
RTVSPost2010Prop55
280
     0
102
RTVSPost2010PropOp55
 70
     1
102
RTVSPost2010Prop56
140
1.0
102
RTVSPost2010PropOp56
 70
     1
102
RTVSPost2010Prop57
140
1.0
102
RTVSPost2010PropOp57
 70
     1
  0
XRECORD
  5
5F9
102
{ACAD_REACTORS
330
5F8
102
}
330
5F8
100
AcDbXrecord
280
     1
102
RTVSPropertyOp0
 70
     1
102
RTVSPropertyOp1
 70
     1
102
RTVSPropertyOp2
 70
     1
102
RTVSPropertyOp3
 70
     1
102
RTVSPropertyOp4
 70
     1
102
RTVSPropertyOp5
 70
     1
102
RTVSPropertyOp6
 70
     1
102
RTVSPropertyOp7
 70
     1
102
RTVSPropertyOp8
 70
     1
102
RTVSPropertyOp9
 70
     1
102
RTVSPropertyOp10
 70
     1
102
RTVSPropertyOp11
 70
     1
102
RTVSPropertyOp12
 70
     1
102
RTVSPropertyOp13
 70
     1
102
RTVSPropertyOp14
 70
     1
102
RTVSPropertyOp15
 70
     1
102
RTVSPropertyOp16
 70
     1
102
RTVSPropertyOp17
 70
     1
102
RTVSPropertyOp18
 70
     1
102
RTVSPropertyOp19
 70
     1
102
RTVSPropertyOp20
 70
     1
102
RTVSPropertyOp21
 70
     1
102
RTVSPropertyOp22
 70
     1
102
RTVSPropertyOp23
 70
     1
102
RTVSPropertyOp24
 70
     1
102
RTVSPropertyOp25
 70
     1
102
RTVSPropertyOp26
 70
     1
102
RTVSPropertyOp27
 70
     1
102
RTVSPropertyOp28
 70
     1
102
RTVSPropertyOp29
 70
     1
102
RTVSPropertyOp30
 70
     1
102
RTVSPropertyOp31
 70
     1
102
RTVSPropertyOp32
 70
     1
102
RTVSPropertyOp33
 70
     1
102
RTVSPropertyOp34
 70
     1
102
RTVSPropertyOp35
 70
     1
102
RTVSPropertyOp36
 70
     1
102
RTVSPropertyOp37
 70
     1
102
RTVSPropertyOp38
 70
     1
102
RTVSPropertyOp39
 70
     1
102
RTVSPropertyOp40
 70
     1
102
RTVSPropertyOp41
 70
     1
102
RTVSPropertyOp42
 70
     1
102
RTVSPropertyOp43
 70
     1
102
RTVSPropertyOp44
 70
     1
102
RTVSPropertyOp45
 70
     1
102
RTVSPropertyOp46
 70
     1
102
RTVSPropertyOp47
 70
     1
102
RTVSPropertyOp48
 70
     1
102
RTVSPropertyOp49
 70
     1
102
RTVSPropertyOp50
 70
     1
102
RTVSPropertyOp51
 70
     0
102
RTVSPropertyOp52
 70
     0
102
RTVSPropertyOp53
 70
     1
102
RTVSPropertyOp54
 70
     1
102
RTVSPropertyOp55
 70
     1
102
RTVSPropertyOp56
 70
     1
102
RTVSPropertyOp57
 70
     1
102
RTVSPost2010Prop28
280
     0
102
RTVSPost2010PropOp28
 70
     1
102
RTVSPost2010Prop29
280
     1
102
RTVSPost2010PropOp29
 70
     1
102
RTVSPost2010Prop30
280
     1
102
RTVSPost2010PropOp30
 70
     1
102
RTVSPost2010Prop31
280
     0
102
RTVSPost2010PropOp31
 70
     1
102
RTVSPost2010Prop32
280
     0
102
RTVSPost2010PropOp32
 70
     1
102
RTVSPost2010Prop33
280
     0
102
RTVSPost2010PropOp33
 70
     1
102
RTVSPost2010Prop34
280
     0
102
RTVSPost2010PropOp34
 70
     1
102
RTVSPost2010Prop35
280
     0
102
RTVSPost2010PropOp35
 70
     1
102
RTVSPost2010Prop36
280
     0
102
RTVSPost2010PropOp36
 70
     1
102
RTVSPost2010Prop37
 90
       50
102
RTVSPost2010PropOp37
 70
     1
102
RTVSPost2010Prop38
140
0.0
102
RTVSPost2010PropOp38
 70
     1
102
RTVSPost2010Prop39
140
1.0
102
RTVSPost2010PropOp39
 70
     1
102
RTVSPost2010Prop40
 90
        0
102
RTVSPost2010PropOp40
 70
     1
102
RTVSPost2010Prop41ColorIndex
 90
       18
102
RTVSPost2010Prop41ColorRGB
 90
        0
102
RTVSPost2010PropOp41
 70
     1
102
RTVSPost2010Prop42
 90
       50
102
RTVSPost2010PropOp42
 70
     1
102
RTVSPost2010Prop43
 90
        3
102
RTVSPost2010PropOp43
 70
     1
102
RTVSPost2010Prop44ColorIndex
 90
        5
102
RTVSPost2010Prop44ColorRGB
 90
      255
102
RTVSPost2010PropOp44
 70
     1
102
RTVSPost2010Prop45
280
     0
102
RTVSPost2010PropOp45
 70
     1
102
RTVSPost2010Prop46
 90
       50
102
RTVSPost2010PropOp46
 70
     1
102
RTVSPost2010Prop47
 90
       50
102
RTVSPost2010PropOp47
 70
     1
102
RTVSPost2010Prop48
 90
       50
102
RTVSPost2010PropOp48
 70
     1
102
RTVSPost2010Prop49
280
     0
102
RTVSPost2010PropOp49
 70
     1
102
RTVSPost2010Prop50
 90
       50
102
RTVSPost2010PropOp50
 70
     1
102
RTVSPost2010Prop51ColorIndex
 90
      256
102
RTVSPost2010Prop51ColorRGB
 90
-16777216
102
RTVSPost2010PropOp51
 70
     0
102
RTVSPost2010Prop52
140
1.0
102
RTVSPost2010PropOp52
 70
     0
102
RTVSPost2010Prop53
 90
        2
102
RTVSPost2010PropOp53
 70
     1
102
RTVSPost2010Prop54
  1
strokes_ogs.tif
102
RTVSPost2010PropOp54
 70
     1
102
RTVSPost2010Prop55
280
     0
102
RTVSPost2010PropOp55
 70
     1
102
RTVSPost2010Prop56
140
1.0
102
RTVSPost2010PropOp56
 70
     1
102
RTVSPost2010Prop57
140
1.0
102
RTVSPost2010PropOp57
 70
     1
  0
XRECORD
  5
5FB
102
{ACAD_REACTORS
330
5FA
102
}
330
5FA
100
AcDbXrecord
280
     1
102
RTVSPropertyOp0
 70
     1
102
RTVSPropertyOp1
 70
     1
102
RTVSPropertyOp2
 70
     1
102
RTVSPropertyOp3
 70
     1
102
RTVSPropertyOp4
 70
     1
102
RTVSPropertyOp5
 70
     1
102
RTVSPropertyOp6
 70
     1
102
RTVSPropertyOp7
 70
     1
102
RTVSPropertyOp8
 70
     1
102
RTVSPropertyOp9
 70
     1
102
RTVSPropertyOp10
 70
     1
102
RTVSPropertyOp11
 70
     1
102
RTVSPropertyOp12
 70
     1
102
RTVSPropertyOp13
 70
     1
102
RTVSPropertyOp14
 70
     1
102
RTVSPropertyOp15
 70
     1
102
RTVSPropertyOp16
 70
     1
102
RTVSPropertyOp17
 70
     1
102
RTVSPropertyOp18
 70
     1
102
RTVSPropertyOp19
 70
     1
102
RTVSPropertyOp20
 70
     1
102
RTVSPropertyOp21
 70
     1
102
RTVSPropertyOp22
 70
     1
102
RTVSPropertyOp23
 70
     1
102
RTVSPropertyOp24
 70
     1
102
RTVSPropertyOp25
 70
     1
102
RTVSPropertyOp26
 70
     1
102
RTVSPropertyOp27
 70
     1
102
RTVSPropertyOp28
 70
     1
102
RTVSPropertyOp29
 70
     1
102
RTVSPropertyOp30
 70
     1
102
RTVSPropertyOp31
 70
     1
102
RTVSPropertyOp32
 70
     1
102
RTVSPropertyOp33
 70
     1
102
RTVSPropertyOp34
 70
     1
102
RTVSPropertyOp35
 70
     1
102
RTVSPropertyOp36
 70
     1
102
RTVSPropertyOp37
 70
     1
102
RTVSPropertyOp38
 70
     1
102
RTVSPropertyOp39
 70
     1
102
RTVSPropertyOp40
 70
     1
102
RTVSPropertyOp41
 70
     1
102
RTVSPropertyOp42
 70
     1
102
RTVSPropertyOp43
 70
     1
102
RTVSPropertyOp44
 70
     1
102
RTVSPropertyOp45
 70
     1
102
RTVSPropertyOp46
 70
     1
102
RTVSPropertyOp47
 70
     1
102
RTVSPropertyOp48
 70
     1
102
RTVSPropertyOp49
 70
     1
102
RTVSPropertyOp50
 70
     1
102
RTVSPropertyOp51
 70
     0
102
RTVSPropertyOp52
 70
     0
102
RTVSPropertyOp53
 70
     1
102
RTVSPropertyOp54
 70
     1
102
RTVSPropertyOp55
 70
     1
102
RTVSPropertyOp56
 70
     1
102
RTVSPropertyOp57
 70
     1
102
RTVSPost2010Prop28
280
     0
102
RTVSPost2010PropOp28
 70
     1
102
RTVSPost2010Prop29
280
     1
102
RTVSPost2010PropOp29
 70
     1
102
RTVSPost2010Prop30
280
     1
102
RTVSPost2010PropOp30
 70
     1
102
RTVSPost2010Prop31
280
     0
102
RTVSPost2010PropOp31
 70
     1
102
RTVSPost2010Prop32
280
     0
102
RTVSPost2010PropOp32
 70
     1
102
RTVSPost2010Prop33
280
     0
102
RTVSPost2010PropOp33
 70
     1
102
RTVSPost2010Prop34
280
     0
102
RTVSPost2010PropOp34
 70
     1
102
RTVSPost2010Prop35
280
     0
102
RTVSPost2010PropOp35
 70
     1
102
RTVSPost2010Prop36
280
     0
102
RTVSPost2010PropOp36
 70
     1
102
RTVSPost2010Prop37
 90
       50
102
RTVSPost2010PropOp37
 70
     1
102
RTVSPost2010Prop38
140
0.0
102
RTVSPost2010PropOp38
 70
     1
102
RTVSPost2010Prop39
140
1.0
102
RTVSPost2010PropOp39
 70
     1
102
RTVSPost2010Prop40
 90
        0
102
RTVSPost2010PropOp40
 70
     1
102
RTVSPost2010Prop41ColorIndex
 90
       18
102
RTVSPost2010Prop41ColorRGB
 90
        0
102
RTVSPost2010PropOp41
 70
     1
102
RTVSPost2010Prop42
 90
       50
102
RTVSPost2010PropOp42
 70
     1
102
RTVSPost2010Prop43
 90
        3
102
RTVSPost2010PropOp43
 70
     1
102
RTVSPost2010Prop44ColorIndex
 90
        5
102
RTVSPost2010Prop44ColorRGB
 90
      255
102
RTVSPost2010PropOp44
 70
     1
102
RTVSPost2010Prop45
280
     0
102
RTVSPost2010PropOp45
 70
     1
102
RTVSPost2010Prop46
 90
       50
102
RTVSPost2010PropOp46
 70
     1
102
RTVSPost2010Prop47
 90
       50
102
RTVSPost2010PropOp47
 70
     1
102
RTVSPost2010Prop48
 90
       50
102
RTVSPost2010PropOp48
 70
     1
102
RTVSPost2010Prop49
280
     0
102
RTVSPost2010PropOp49
 70
     1
102
RTVSPost2010Prop50
 90
       50
102
RTVSPost2010PropOp50
 70
     1
102
RTVSPost2010Prop51ColorIndex
 90
      256
102
RTVSPost2010Prop51ColorRGB
 90
-16777216
102
RTVSPost2010PropOp51
 70
     0
102
RTVSPost2010Prop52
140
1.0
102
RTVSPost2010PropOp52
 70
     0
102
RTVSPost2010Prop53
 90
        2
102
RTVSPost2010PropOp53
 70
     1
102
RTVSPost2010Prop54
  1
strokes_ogs.tif
102
RTVSPost2010PropOp54
 70
     1
102
RTVSPost2010Prop55
280
     0
102
RTVSPost2010PropOp55
 70
     1
102
RTVSPost2010Prop56
140
1.0
102
RTVSPost2010PropOp56
 70
     1
102
RTVSPost2010Prop57
140
1.0
102
RTVSPost2010PropOp57
 70
     1
  0
XRECORD
  5
5FD
102
{ACAD_REACTORS
330
5FC
102
}
330
5FC
100
AcDbXrecord
280
     1
102
RTVSPropertyOp0
 70
     0
102
RTVSPropertyOp1
 70
     0
102
RTVSPropertyOp2
 70
     0
102
RTVSPropertyOp3
 70
     0
102
RTVSPropertyOp4
 70
     0
102
RTVSPropertyOp5
 70
     0
102
RTVSPropertyOp6
 70
     0
102
RTVSPropertyOp7
 70
     0
102
RTVSPropertyOp8
 70
     0
102
RTVSPropertyOp9
 70
     0
102
RTVSPropertyOp10
 70
     0
102
RTVSPropertyOp11
 70
     0
102
RTVSPropertyOp12
 70
     0
102
RTVSPropertyOp13
 70
     0
102
RTVSPropertyOp14
 70
     2
102
RTVSPropertyOp15
 70
     0
102
RTVSPropertyOp16
 70
     0
102
RTVSPropertyOp17
 70
     0
102
RTVSPropertyOp18
 70
     0
102
RTVSPropertyOp19
 70
     0
102
RTVSPropertyOp20
 70
     0
102
RTVSPropertyOp21
 70
     0
102
RTVSPropertyOp22
 70
     0
102
RTVSPropertyOp23
 70
     0
102
RTVSPropertyOp24
 70
     0
102
RTVSPropertyOp25
 70
     0
102
RTVSPropertyOp26
 70
     0
102
RTVSPropertyOp27
 70
     0
102
RTVSPropertyOp28
 70
     0
102
RTVSPropertyOp29
 70
     0
102
RTVSPropertyOp30
 70
     0
102
RTVSPropertyOp31
 70
     0
102
RTVSPropertyOp32
 70
     0
102
RTVSPropertyOp33
 70
     0
102
RTVSPropertyOp34
 70
     0
102
RTVSPropertyOp35
 70
     0
102
RTVSPropertyOp36
 70
     0
102
RTVSPropertyOp37
 70
     0
102
RTVSPropertyOp38
 70
     0
102
RTVSPropertyOp39
 70
     0
102
RTVSPropertyOp40
 70
     0
102
RTVSPropertyOp41
 70
     0
102
RTVSPropertyOp42
 70
     0
102
RTVSPropertyOp43
 70
     0
102
RTVSPropertyOp44
 70
     0
102
RTVSPropertyOp45
 70
     0
102
RTVSPropertyOp46
 70
     0
102
RTVSPropertyOp47
 70
     0
102
RTVSPropertyOp48
 70
     0
102
RTVSPropertyOp49
 70
     0
102
RTVSPropertyOp50
 70
     0
102
RTVSPropertyOp51
 70
     0
102
RTVSPropertyOp52
 70
     0
102
RTVSPropertyOp53
 70
     0
102
RTVSPropertyOp54
 70
     0
102
RTVSPropertyOp55
 70
     0
102
RTVSPropertyOp56
 70
     0
102
RTVSPropertyOp57
 70
     0
102
RTVSPost2010Prop28
280
     0
102
RTVSPost2010PropOp28
 70
     0
102
RTVSPost2010Prop29
280
     1
102
RTVSPost2010PropOp29
 70
     0
102
RTVSPost2010Prop30
280
     1
102
RTVSPost2010PropOp30
 70
     0
102
RTVSPost2010Prop31
280
     0
102
RTVSPost2010PropOp31
 70
     0
102
RTVSPost2010Prop32
280
     0
102
RTVSPost2010PropOp32
 70
     0
102
RTVSPost2010Prop33
280
     0
102
RTVSPost2010PropOp33
 70
     0
102
RTVSPost2010Prop34
280
     0
102
RTVSPost2010PropOp34
 70
     0
102
RTVSPost2010Prop35
280
     0
102
RTVSPost2010PropOp35
 70
     0
102
RTVSPost2010Prop36
280
     0
102
RTVSPost2010PropOp36
 70
     0
102
RTVSPost2010Prop37
 90
       50
102
RTVSPost2010PropOp37
 70
     0
102
RTVSPost2010Prop38
140
0.0
102
RTVSPost2010PropOp38
 70
     0
102
RTVSPost2010Prop39
140
1.0
102
RTVSPost2010PropOp39
 70
     0
102
RTVSPost2010Prop40
 90
        0
102
RTVSPost2010PropOp40
 70
     0
102
RTVSPost2010Prop41ColorIndex
 90
       18
102
RTVSPost2010Prop41ColorRGB
 90
        0
102
RTVSPost2010PropOp41
 70
     0
102
RTVSPost2010Prop42
 90
       50
102
RTVSPost2010PropOp42
 70
     0
102
RTVSPost2010Prop43
 90
        3
102
RTVSPost2010PropOp43
 70
     0
102
RTVSPost2010Prop44ColorIndex
 90
        5
102
RTVSPost2010Prop44ColorRGB
 90
      255
102
RTVSPost2010PropOp44
 70
     0
102
RTVSPost2010Prop45
280
     0
102
RTVSPost2010PropOp45
 70
     0
102
RTVSPost2010Prop46
 90
       50
102
RTVSPost2010PropOp46
 70
     0
102
RTVSPost2010Prop47
 90
       50
102
RTVSPost2010PropOp47
 70
     0
102
RTVSPost2010Prop48
 90
       50
102
RTVSPost2010PropOp48
 70
     0
102
RTVSPost2010Prop49
280
     0
102
RTVSPost2010PropOp49
 70
     0
102
RTVSPost2010Prop50
 90
       50
102
RTVSPost2010PropOp50
 70
     0
102
RTVSPost2010Prop51ColorIndex
 90
      256
102
RTVSPost2010Prop51ColorRGB
 90
-16777216
102
RTVSPost2010PropOp51
 70
     0
102
RTVSPost2010Prop52
140
1.0
102
RTVSPost2010PropOp52
 70
     0
102
RTVSPost2010Prop53
 90
        2
102
RTVSPost2010PropOp53
 70
     0
102
RTVSPost2010Prop54
  1
strokes_ogs.tif
102
RTVSPost2010PropOp54
 70
     0
102
RTVSPost2010Prop55
280
     0
102
RTVSPost2010PropOp55
 70
     0
102
RTVSPost2010Prop56
140
1.0
102
RTVSPost2010PropOp56
 70
     0
102
RTVSPost2010Prop57
140
1.0
102
RTVSPost2010PropOp57
 70
     0
  0
XRECORD
  5
5FF
102
{ACAD_REACTORS
330
5FE
102
}
330
5FE
100
AcDbXrecord
280
     1
102
RTVSPropertyOp0
 70
     1
102
RTVSPropertyOp1
 70
     1
102
RTVSPropertyOp2
 70
     1
102
RTVSPropertyOp3
 70
     1
102
RTVSPropertyOp4
 70
     1
102
RTVSPropertyOp5
 70
     1
102
RTVSPropertyOp6
 70
     1
102
RTVSPropertyOp7
 70
     1
102
RTVSPropertyOp8
 70
     1
102
RTVSPropertyOp9
 70
     1
102
RTVSPropertyOp10
 70
     1
102
RTVSPropertyOp11
 70
     1
102
RTVSPropertyOp12
 70
     1
102
RTVSPropertyOp13
 70
     1
102
RTVSPropertyOp14
 70
     1
102
RTVSPropertyOp15
 70
     1
102
RTVSPropertyOp16
 70
     1
102
RTVSPropertyOp17
 70
     1
102
RTVSPropertyOp18
 70
     1
102
RTVSPropertyOp19
 70
     1
102
RTVSPropertyOp20
 70
     1
102
RTVSPropertyOp21
 70
     1
102
RTVSPropertyOp22
 70
     1
102
RTVSPropertyOp23
 70
     1
102
RTVSPropertyOp24
 70
     1
102
RTVSPropertyOp25
 70
     1
102
RTVSPropertyOp26
 70
     1
102
RTVSPropertyOp27
 70
     1
102
RTVSPropertyOp28
 70
     1
102
RTVSPropertyOp29
 70
     1
102
RTVSPropertyOp30
 70
     1
102
RTVSPropertyOp31
 70
     1
102
RTVSPropertyOp32
 70
     1
102
RTVSPropertyOp33
 70
     1
102
RTVSPropertyOp34
 70
     1
102
RTVSPropertyOp35
 70
     1
102
RTVSPropertyOp36
 70
     1
102
RTVSPropertyOp37
 70
     1
102
RTVSPropertyOp38
 70
     1
102
RTVSPropertyOp39
 70
     1
102
RTVSPropertyOp40
 70
     1
102
RTVSPropertyOp41
 70
     1
102
RTVSPropertyOp42
 70
     1
102
RTVSPropertyOp43
 70
     1
102
RTVSPropertyOp44
 70
     1
102
RTVSPropertyOp45
 70
     1
102
RTVSPropertyOp46
 70
     1
102
RTVSPropertyOp47
 70
     1
102
RTVSPropertyOp48
 70
     1
102
RTVSPropertyOp49
 70
     1
102
RTVSPropertyOp50
 70
     1
102
RTVSPropertyOp51
 70
     0
102
RTVSPropertyOp52
 70
     0
102
RTVSPropertyOp53
 70
     1
102
RTVSPropertyOp54
 70
     1
102
RTVSPropertyOp55
 70
     1
102
RTVSPropertyOp56
 70
     1
102
RTVSPropertyOp57
 70
     1
102
RTVSPost2010Prop28
280
     0
102
RTVSPost2010PropOp28
 70
     1
102
RTVSPost2010Prop29
280
     1
102
RTVSPost2010PropOp29
 70
     1
102
RTVSPost2010Prop30
280
     1
102
RTVSPost2010PropOp30
 70
     1
102
RTVSPost2010Prop31
280
     0
102
RTVSPost2010PropOp31
 70
     1
102
RTVSPost2010Prop32
280
     0
102
RTVSPost2010PropOp32
 70
     1
102
RTVSPost2010Prop33
280
     0
102
RTVSPost2010PropOp33
 70
     1
102
RTVSPost2010Prop34
280
     0
102
RTVSPost2010PropOp34
 70
     1
102
RTVSPost2010Prop35
280
     0
102
RTVSPost2010PropOp35
 70
     1
102
RTVSPost2010Prop36
280
     0
102
RTVSPost2010PropOp36
 70
     1
102
RTVSPost2010Prop37
 90
       50
102
RTVSPost2010PropOp37
 70
     1
102
RTVSPost2010Prop38
140
0.0
102
RTVSPost2010PropOp38
 70
     1
102
RTVSPost2010Prop39
140
1.0
102
RTVSPost2010PropOp39
 70
     1
102
RTVSPost2010Prop40
 90
        0
102
RTVSPost2010PropOp40
 70
     1
102
RTVSPost2010Prop41ColorIndex
 90
       18
102
RTVSPost2010Prop41ColorRGB
 90
        0
102
RTVSPost2010PropOp41
 70
     1
102
RTVSPost2010Prop42
 90
       50
102
RTVSPost2010PropOp42
 70
     1
102
RTVSPost2010Prop43
 90
        3
102
RTVSPost2010PropOp43
 70
     1
102
RTVSPost2010Prop44ColorIndex
 90
        5
102
RTVSPost2010Prop44ColorRGB
 90
      255
102
RTVSPost2010PropOp44
 70
     1
102
RTVSPost2010Prop45
280
     0
102
RTVSPost2010PropOp45
 70
     1
102
RTVSPost2010Prop46
 90
       50
102
RTVSPost2010PropOp46
 70
     1
102
RTVSPost2010Prop47
 90
       50
102
RTVSPost2010PropOp47
 70
     1
102
RTVSPost2010Prop48
 90
       50
102
RTVSPost2010PropOp48
 70
     1
102
RTVSPost2010Prop49
280
     0
102
RTVSPost2010PropOp49
 70
     1
102
RTVSPost2010Prop50
 90
       50
102
RTVSPost2010PropOp50
 70
     1
102
RTVSPost2010Prop51ColorIndex
 90
      256
102
RTVSPost2010Prop51ColorRGB
 90
-16777216
102
RTVSPost2010PropOp51
 70
     0
102
RTVSPost2010Prop52
140
1.0
102
RTVSPost2010PropOp52
 70
     0
102
RTVSPost2010Prop53
 90
        2
102
RTVSPost2010PropOp53
 70
     1
102
RTVSPost2010Prop54
  1
strokes_ogs.tif
102
RTVSPost2010PropOp54
 70
     1
102
RTVSPost2010Prop55
280
     0
102
RTVSPost2010PropOp55
 70
     1
102
RTVSPost2010Prop56
140
1.0
102
RTVSPost2010PropOp56
 70
     1
102
RTVSPost2010Prop57
140
1.0
102
RTVSPost2010PropOp57
 70
     1
  0
XRECORD
  5
601
102
{ACAD_REACTORS
330
600
102
}
330
600
100
AcDbXrecord
280
     1
102
RTVSPropertyOp0
 70
     0
102
RTVSPropertyOp1
 70
     0
102
RTVSPropertyOp2
 70
     0
102
RTVSPropertyOp3
 70
     0
102
RTVSPropertyOp4
 70
     0
102
RTVSPropertyOp5
 70
     0
102
RTVSPropertyOp6
 70
     0
102
RTVSPropertyOp7
 70
     0
102
RTVSPropertyOp8
 70
     0
102
RTVSPropertyOp9
 70
     0
102
RTVSPropertyOp10
 70
     0
102
RTVSPropertyOp11
 70
     0
102
RTVSPropertyOp12
 70
     0
102
RTVSPropertyOp13
 70
     0
102
RTVSPropertyOp14
 70
     2
102
RTVSPropertyOp15
 70
     0
102
RTVSPropertyOp16
 70
     0
102
RTVSPropertyOp17
 70
     0
102
RTVSPropertyOp18
 70
     0
102
RTVSPropertyOp19
 70
     0
102
RTVSPropertyOp20
 70
     0
102
RTVSPropertyOp21
 70
     0
102
RTVSPropertyOp22
 70
     0
102
RTVSPropertyOp23
 70
     0
102
RTVSPropertyOp24
 70
     0
102
RTVSPropertyOp25
 70
     0
102
RTVSPropertyOp26
 70
     0
102
RTVSPropertyOp27
 70
     0
102
RTVSPropertyOp28
 70
     0
102
RTVSPropertyOp29
 70
     0
102
RTVSPropertyOp30
 70
     0
102
RTVSPropertyOp31
 70
     0
102
RTVSPropertyOp32
 70
     0
102
RTVSPropertyOp33
 70
     0
102
RTVSPropertyOp34
 70
     0
102
RTVSPropertyOp35
 70
     0
102
RTVSPropertyOp36
 70
     0
102
RTVSPropertyOp37
 70
     0
102
RTVSPropertyOp38
 70
     0
102
RTVSPropertyOp39
 70
     0
102
RTVSPropertyOp40
 70
     0
102
RTVSPropertyOp41
 70
     0
102
RTVSPropertyOp42
 70
     0
102
RTVSPropertyOp43
 70
     0
102
RTVSPropertyOp44
 70
     0
102
RTVSPropertyOp45
 70
     0
102
RTVSPropertyOp46
 70
     0
102
RTVSPropertyOp47
 70
     0
102
RTVSPropertyOp48
 70
     0
102
RTVSPropertyOp49
 70
     0
102
RTVSPropertyOp50
 70
     0
102
RTVSPropertyOp51
 70
     0
102
RTVSPropertyOp52
 70
     0
102
RTVSPropertyOp53
 70
     0
102
RTVSPropertyOp54
 70
     0
102
RTVSPropertyOp55
 70
     0
102
RTVSPropertyOp56
 70
     0
102
RTVSPropertyOp57
 70
     0
102
RTVSPost2010Prop28
280
     0
102
RTVSPost2010PropOp28
 70
     0
102
RTVSPost2010Prop29
280
     1
102
RTVSPost2010PropOp29
 70
     0
102
RTVSPost2010Prop30
280
     1
102
RTVSPost2010PropOp30
 70
     0
102
RTVSPost2010Prop31
280
     0
102
RTVSPost2010PropOp31
 70
     0
102
RTVSPost2010Prop32
280
     0
102
RTVSPost2010PropOp32
 70
     0
102
RTVSPost2010Prop33
280
     0
102
RTVSPost2010PropOp33
 70
     0
102
RTVSPost2010Prop34
280
     0
102
RTVSPost2010PropOp34
 70
     0
102
RTVSPost2010Prop35
280
     0
102
RTVSPost2010PropOp35
 70
     0
102
RTVSPost2010Prop36
280
     0
102
RTVSPost2010PropOp36
 70
     0
102
RTVSPost2010Prop37
 90
       50
102
RTVSPost2010PropOp37
 70
     0
102
RTVSPost2010Prop38
140
0.0
102
RTVSPost2010PropOp38
 70
     0
102
RTVSPost2010Prop39
140
1.0
102
RTVSPost2010PropOp39
 70
     0
102
RTVSPost2010Prop40
 90
        0
102
RTVSPost2010PropOp40
 70
     0
102
RTVSPost2010Prop41ColorIndex
 90
       18
102
RTVSPost2010Prop41ColorRGB
 90
        0
102
RTVSPost2010PropOp41
 70
     0
102
RTVSPost2010Prop42
 90
       50
102
RTVSPost2010PropOp42
 70
     0
102
RTVSPost2010Prop43
 90
        3
102
RTVSPost2010PropOp43
 70
     0
102
RTVSPost2010Prop44ColorIndex
 90
        5
102
RTVSPost2010Prop44ColorRGB
 90
      255
102
RTVSPost2010PropOp44
 70
     0
102
RTVSPost2010Prop45
280
     0
102
RTVSPost2010PropOp45
 70
     0
102
RTVSPost2010Prop46
 90
       50
102
RTVSPost2010PropOp46
 70
     0
102
RTVSPost2010Prop47
 90
       50
102
RTVSPost2010PropOp47
 70
     0
102
RTVSPost2010Prop48
 90
       50
102
RTVSPost2010PropOp48
 70
     0
102
RTVSPost2010Prop49
280
     0
102
RTVSPost2010PropOp49
 70
     0
102
RTVSPost2010Prop50
 90
       50
102
RTVSPost2010PropOp50
 70
     0
102
RTVSPost2010Prop51ColorIndex
 90
      256
102
RTVSPost2010Prop51ColorRGB
 90
-16777216
102
RTVSPost2010PropOp51
 70
     0
102
RTVSPost2010Prop52
140
1.0
102
RTVSPost2010PropOp52
 70
     0
102
RTVSPost2010Prop53
 90
        2
102
RTVSPost2010PropOp53
 70
     0
102
RTVSPost2010Prop54
  1
strokes_ogs.tif
102
RTVSPost2010PropOp54
 70
     0
102
RTVSPost2010Prop55
280
     0
102
RTVSPost2010PropOp55
 70
     0
102
RTVSPost2010Prop56
140
1.0
102
RTVSPost2010PropOp56
 70
     0
102
RTVSPost2010Prop57
140
1.0
102
RTVSPost2010PropOp57
 70
     0
  0
XRECORD
  5
603
102
{ACAD_REACTORS
330
602
102
}
330
602
100
AcDbXrecord
280
     1
102
RTVSPropertyOp0
 70
     1
102
RTVSPropertyOp1
 70
     1
102
RTVSPropertyOp2
 70
     1
102
RTVSPropertyOp3
 70
     1
102
RTVSPropertyOp4
 70
     1
102
RTVSPropertyOp5
 70
     1
102
RTVSPropertyOp6
 70
     1
102
RTVSPropertyOp7
 70
     1
102
RTVSPropertyOp8
 70
     1
102
RTVSPropertyOp9
 70
     1
102
RTVSPropertyOp10
 70
     1
102
RTVSPropertyOp11
 70
     1
102
RTVSPropertyOp12
 70
     1
102
RTVSPropertyOp13
 70
     1
102
RTVSPropertyOp14
 70
     1
102
RTVSPropertyOp15
 70
     1
102
RTVSPropertyOp16
 70
     1
102
RTVSPropertyOp17
 70
     1
102
RTVSPropertyOp18
 70
     1
102
RTVSPropertyOp19
 70
     1
102
RTVSPropertyOp20
 70
     1
102
RTVSPropertyOp21
 70
     1
102
RTVSPropertyOp22
 70
     1
102
RTVSPropertyOp23
 70
     1
102
RTVSPropertyOp24
 70
     1
102
RTVSPropertyOp25
 70
     1
102
RTVSPropertyOp26
 70
     1
102
RTVSPropertyOp27
 70
     1
102
RTVSPropertyOp28
 70
     1
102
RTVSPropertyOp29
 70
     1
102
RTVSPropertyOp30
 70
     1
102
RTVSPropertyOp31
 70
     1
102
RTVSPropertyOp32
 70
     1
102
RTVSPropertyOp33
 70
     1
102
RTVSPropertyOp34
 70
     1
102
RTVSPropertyOp35
 70
     1
102
RTVSPropertyOp36
 70
     1
102
RTVSPropertyOp37
 70
     1
102
RTVSPropertyOp38
 70
     1
102
RTVSPropertyOp39
 70
     1
102
RTVSPropertyOp40
 70
     1
102
RTVSPropertyOp41
 70
     1
102
RTVSPropertyOp42
 70
     1
102
RTVSPropertyOp43
 70
     1
102
RTVSPropertyOp44
 70
     1
102
RTVSPropertyOp45
 70
     1
102
RTVSPropertyOp46
 70
     1
102
RTVSPropertyOp47
 70
     1
102
RTVSPropertyOp48
 70
     1
102
RTVSPropertyOp49
 70
     1
102
RTVSPropertyOp50
 70
     1
102
RTVSPropertyOp51
 70
     0
102
RTVSPropertyOp52
 70
     0
102
RTVSPropertyOp53
 70
     1
102
RTVSPropertyOp54
 70
     1
102
RTVSPropertyOp55
 70
     1
102
RTVSPropertyOp56
 70
     1
102
RTVSPropertyOp57
 70
     1
102
RTVSPost2010Prop28
280
     0
102
RTVSPost2010PropOp28
 70
     1
102
RTVSPost2010Prop29
280
     1
102
RTVSPost2010PropOp29
 70
     1
102
RTVSPost2010Prop30
280
     1
102
RTVSPost2010PropOp30
 70
     1
102
RTVSPost2010Prop31
280
     0
102
RTVSPost2010PropOp31
 70
     1
102
RTVSPost2010Prop32
280
     0
102
RTVSPost2010PropOp32
 70
     1
102
RTVSPost2010Prop33
280
     0
102
RTVSPost2010PropOp33
 70
     1
102
RTVSPost2010Prop34
280
     0
102
RTVSPost2010PropOp34
 70
     1
102
RTVSPost2010Prop35
280
     0
102
RTVSPost2010PropOp35
 70
     1
102
RTVSPost2010Prop36
280
     0
102
RTVSPost2010PropOp36
 70
     1
102
RTVSPost2010Prop37
 90
       50
102
RTVSPost2010PropOp37
 70
     1
102
RTVSPost2010Prop38
140
0.0
102
RTVSPost2010PropOp38
 70
     1
102
RTVSPost2010Prop39
140
1.0
102
RTVSPost2010PropOp39
 70
     1
102
RTVSPost2010Prop40
 90
        0
102
RTVSPost2010PropOp40
 70
     1
102
RTVSPost2010Prop41ColorIndex
 90
       18
102
RTVSPost2010Prop41ColorRGB
 90
        0
102
RTVSPost2010PropOp41
 70
     1
102
RTVSPost2010Prop42
 90
       50
102
RTVSPost2010PropOp42
 70
     1
102
RTVSPost2010Prop43
 90
        3
102
RTVSPost2010PropOp43
 70
     1
102
RTVSPost2010Prop44ColorIndex
 90
        5
102
RTVSPost2010Prop44ColorRGB
 90
      255
102
RTVSPost2010PropOp44
 70
     1
102
RTVSPost2010Prop45
280
     0
102
RTVSPost2010PropOp45
 70
     1
102
RTVSPost2010Prop46
 90
       50
102
RTVSPost2010PropOp46
 70
     1
102
RTVSPost2010Prop47
 90
       50
102
RTVSPost2010PropOp47
 70
     1
102
RTVSPost2010Prop48
 90
       50
102
RTVSPost2010PropOp48
 70
     1
102
RTVSPost2010Prop49
280
     0
102
RTVSPost2010PropOp49
 70
     1
102
RTVSPost2010Prop50
 90
       50
102
RTVSPost2010PropOp50
 70
     1
102
RTVSPost2010Prop51ColorIndex
 90
      256
102
RTVSPost2010Prop51ColorRGB
 90
-16777216
102
RTVSPost2010PropOp51
 70
     0
102
RTVSPost2010Prop52
140
1.0
102
RTVSPost2010PropOp52
 70
     0
102
RTVSPost2010Prop53
 90
        2
102
RTVSPost2010PropOp53
 70
     1
102
RTVSPost2010Prop54
  1
strokes_ogs.tif
102
RTVSPost2010PropOp54
 70
     1
102
RTVSPost2010Prop55
280
     0
102
RTVSPost2010PropOp55
 70
     1
102
RTVSPost2010Prop56
140
1.0
102
RTVSPost2010PropOp56
 70
     1
102
RTVSPost2010Prop57
140
1.0
102
RTVSPost2010PropOp57
 70
     1
  0
XRECORD
  5
605
102
{ACAD_REACTORS
330
604
102
}
330
604
100
AcDbXrecord
280
     1
102
RTVSPropertyOp0
 70
     1
102
RTVSPropertyOp1
 70
     1
102
RTVSPropertyOp2
 70
     1
102
RTVSPropertyOp3
 70
     1
102
RTVSPropertyOp4
 70
     1
102
RTVSPropertyOp5
 70
     1
102
RTVSPropertyOp6
 70
     1
102
RTVSPropertyOp7
 70
     1
102
RTVSPropertyOp8
 70
     1
102
RTVSPropertyOp9
 70
     1
102
RTVSPropertyOp10
 70
     1
102
RTVSPropertyOp11
 70
     1
102
RTVSPropertyOp12
 70
     1
102
RTVSPropertyOp13
 70
     1
102
RTVSPropertyOp14
 70
     1
102
RTVSPropertyOp15
 70
     1
102
RTVSPropertyOp16
 70
     1
102
RTVSPropertyOp17
 70
     1
102
RTVSPropertyOp18
 70
     1
102
RTVSPropertyOp19
 70
     1
102
RTVSPropertyOp20
 70
     1
102
RTVSPropertyOp21
 70
     1
102
RTVSPropertyOp22
 70
     1
102
RTVSPropertyOp23
 70
     1
102
RTVSPropertyOp24
 70
     1
102
RTVSPropertyOp25
 70
     1
102
RTVSPropertyOp26
 70
     1
102
RTVSPropertyOp27
 70
     1
102
RTVSPropertyOp28
 70
     1
102
RTVSPropertyOp29
 70
     1
102
RTVSPropertyOp30
 70
     1
102
RTVSPropertyOp31
 70
     1
102
RTVSPropertyOp32
 70
     1
102
RTVSPropertyOp33
 70
     1
102
RTVSPropertyOp34
 70
     1
102
RTVSPropertyOp35
 70
     1
102
RTVSPropertyOp36
 70
     1
102
RTVSPropertyOp37
 70
     1
102
RTVSPropertyOp38
 70
     1
102
RTVSPropertyOp39
 70
     1
102
RTVSPropertyOp40
 70
     1
102
RTVSPropertyOp41
 70
     1
102
RTVSPropertyOp42
 70
     1
102
RTVSPropertyOp43
 70
     1
102
RTVSPropertyOp44
 70
     1
102
RTVSPropertyOp45
 70
     1
102
RTVSPropertyOp46
 70
     1
102
RTVSPropertyOp47
 70
     1
102
RTVSPropertyOp48
 70
     1
102
RTVSPropertyOp49
 70
     1
102
RTVSPropertyOp50
 70
     1
102
RTVSPropertyOp51
 70
     0
102
RTVSPropertyOp52
 70
     0
102
RTVSPropertyOp53
 70
     1
102
RTVSPropertyOp54
 70
     1
102
RTVSPropertyOp55
 70
     1
102
RTVSPropertyOp56
 70
     1
102
RTVSPropertyOp57
 70
     1
102
RTVSPost2010Prop28
280
     0
102
RTVSPost2010PropOp28
 70
     1
102
RTVSPost2010Prop29
280
     1
102
RTVSPost2010PropOp29
 70
     1
102
RTVSPost2010Prop30
280
     1
102
RTVSPost2010PropOp30
 70
     1
102
RTVSPost2010Prop31
280
     0
102
RTVSPost2010PropOp31
 70
     1
102
RTVSPost2010Prop32
280
     0
102
RTVSPost2010PropOp32
 70
     1
102
RTVSPost2010Prop33
280
     0
102
RTVSPost2010PropOp33
 70
     1
102
RTVSPost2010Prop34
280
     0
102
RTVSPost2010PropOp34
 70
     1
102
RTVSPost2010Prop35
280
     0
102
RTVSPost2010PropOp35
 70
     1
102
RTVSPost2010Prop36
280
     0
102
RTVSPost2010PropOp36
 70
     1
102
RTVSPost2010Prop37
 90
       50
102
RTVSPost2010PropOp37
 70
     1
102
RTVSPost2010Prop38
140
0.0
102
RTVSPost2010PropOp38
 70
     1
102
RTVSPost2010Prop39
140
1.0
102
RTVSPost2010PropOp39
 70
     1
102
RTVSPost2010Prop40
 90
        0
102
RTVSPost2010PropOp40
 70
     1
102
RTVSPost2010Prop41ColorIndex
 90
       18
102
RTVSPost2010Prop41ColorRGB
 90
        0
102
RTVSPost2010PropOp41
 70
     1
102
RTVSPost2010Prop42
 90
       50
102
RTVSPost2010PropOp42
 70
     1
102
RTVSPost2010Prop43
 90
        3
102
RTVSPost2010PropOp43
 70
     1
102
RTVSPost2010Prop44ColorIndex
 90
        5
102
RTVSPost2010Prop44ColorRGB
 90
      255
102
RTVSPost2010PropOp44
 70
     1
102
RTVSPost2010Prop45
280
     0
102
RTVSPost2010PropOp45
 70
     1
102
RTVSPost2010Prop46
 90
       50
102
RTVSPost2010PropOp46
 70
     1
102
RTVSPost2010Prop47
 90
       50
102
RTVSPost2010PropOp47
 70
     1
102
RTVSPost2010Prop48
 90
       50
102
RTVSPost2010PropOp48
 70
     1
102
RTVSPost2010Prop49
280
     0
102
RTVSPost2010PropOp49
 70
     1
102
RTVSPost2010Prop50
 90
       50
102
RTVSPost2010PropOp50
 70
     1
102
RTVSPost2010Prop51ColorIndex
 90
      256
102
RTVSPost2010Prop51ColorRGB
 90
-16777216
102
RTVSPost2010PropOp51
 70
     0
102
RTVSPost2010Prop52
140
1.0
102
RTVSPost2010PropOp52
 70
     0
102
RTVSPost2010Prop53
 90
        2
102
RTVSPost2010PropOp53
 70
     1
102
RTVSPost2010Prop54
  1
strokes_ogs.tif
102
RTVSPost2010PropOp54
 70
     1
102
RTVSPost2010Prop55
280
     0
102
RTVSPost2010PropOp55
 70
     1
102
RTVSPost2010Prop56
140
1.0
102
RTVSPost2010PropOp56
 70
     1
102
RTVSPost2010Prop57
140
1.0
102
RTVSPost2010PropOp57
 70
     1
  0
XRECORD
  5
607
102
{ACAD_REACTORS
330
606
102
}
330
606
100
AcDbXrecord
280
     1
102
RTVSPropertyOp0
 70
     1
102
RTVSPropertyOp1
 70
     1
102
RTVSPropertyOp2
 70
     1
102
RTVSPropertyOp3
 70
     1
102
RTVSPropertyOp4
 70
     1
102
RTVSPropertyOp5
 70
     1
102
RTVSPropertyOp6
 70
     1
102
RTVSPropertyOp7
 70
     1
102
RTVSPropertyOp8
 70
     1
102
RTVSPropertyOp9
 70
     1
102
RTVSPropertyOp10
 70
     1
102
RTVSPropertyOp11
 70
     1
102
RTVSPropertyOp12
 70
     1
102
RTVSPropertyOp13
 70
     1
102
RTVSPropertyOp14
 70
     1
102
RTVSPropertyOp15
 70
     1
102
RTVSPropertyOp16
 70
     1
102
RTVSPropertyOp17
 70
     1
102
RTVSPropertyOp18
 70
     1
102
RTVSPropertyOp19
 70
     1
102
RTVSPropertyOp20
 70
     1
102
RTVSPropertyOp21
 70
     1
102
RTVSPropertyOp22
 70
     1
102
RTVSPropertyOp23
 70
     1
102
RTVSPropertyOp24
 70
     1
102
RTVSPropertyOp25
 70
     1
102
RTVSPropertyOp26
 70
     1
102
RTVSPropertyOp27
 70
     1
102
RTVSPropertyOp28
 70
     1
102
RTVSPropertyOp29
 70
     1
102
RTVSPropertyOp30
 70
     1
102
RTVSPropertyOp31
 70
     1
102
RTVSPropertyOp32
 70
     1
102
RTVSPropertyOp33
 70
     1
102
RTVSPropertyOp34
 70
     1
102
RTVSPropertyOp35
 70
     1
102
RTVSPropertyOp36
 70
     1
102
RTVSPropertyOp37
 70
     1
102
RTVSPropertyOp38
 70
     1
102
RTVSPropertyOp39
 70
     1
102
RTVSPropertyOp40
 70
     1
102
RTVSPropertyOp41
 70
     1
102
RTVSPropertyOp42
 70
     1
102
RTVSPropertyOp43
 70
     1
102
RTVSPropertyOp44
 70
     1
102
RTVSPropertyOp45
 70
     1
102
RTVSPropertyOp46
 70
     1
102
RTVSPropertyOp47
 70
     1
102
RTVSPropertyOp48
 70
     1
102
RTVSPropertyOp49
 70
     1
102
RTVSPropertyOp50
 70
     1
102
RTVSPropertyOp51
 70
     0
102
RTVSPropertyOp52
 70
     0
102
RTVSPropertyOp53
 70
     1
102
RTVSPropertyOp54
 70
     1
102
RTVSPropertyOp55
 70
     1
102
RTVSPropertyOp56
 70
     1
102
RTVSPropertyOp57
 70
     1
102
RTVSPost2010Prop28
280
     0
102
RTVSPost2010PropOp28
 70
     1
102
RTVSPost2010Prop29
280
     1
102
RTVSPost2010PropOp29
 70
     1
102
RTVSPost2010Prop30
280
     1
102
RTVSPost2010PropOp30
 70
     1
102
RTVSPost2010Prop31
280
     0
102
RTVSPost2010PropOp31
 70
     1
102
RTVSPost2010Prop32
280
     0
102
RTVSPost2010PropOp32
 70
     1
102
RTVSPost2010Prop33
280
     0
102
RTVSPost2010PropOp33
 70
     1
102
RTVSPost2010Prop34
280
     0
102
RTVSPost2010PropOp34
 70
     1
102
RTVSPost2010Prop35
280
     0
102
RTVSPost2010PropOp35
 70
     1
102
RTVSPost2010Prop36
280
     0
102
RTVSPost2010PropOp36
 70
     1
102
RTVSPost2010Prop37
 90
       50
102
RTVSPost2010PropOp37
 70
     1
102
RTVSPost2010Prop38
140
0.0
102
RTVSPost2010PropOp38
 70
     1
102
RTVSPost2010Prop39
140
1.0
102
RTVSPost2010PropOp39
 70
     1
102
RTVSPost2010Prop40
 90
        0
102
RTVSPost2010PropOp40
 70
     1
102
RTVSPost2010Prop41ColorIndex
 90
       18
102
RTVSPost2010Prop41ColorRGB
 90
        0
102
RTVSPost2010PropOp41
 70
     1
102
RTVSPost2010Prop42
 90
       50
102
RTVSPost2010PropOp42
 70
     1
102
RTVSPost2010Prop43
 90
        3
102
RTVSPost2010PropOp43
 70
     1
102
RTVSPost2010Prop44ColorIndex
 90
        5
102
RTVSPost2010Prop44ColorRGB
 90
      255
102
RTVSPost2010PropOp44
 70
     1
102
RTVSPost2010Prop45
280
     0
102
RTVSPost2010PropOp45
 70
     1
102
RTVSPost2010Prop46
 90
       50
102
RTVSPost2010PropOp46
 70
     1
102
RTVSPost2010Prop47
 90
       50
102
RTVSPost2010PropOp47
 70
     1
102
RTVSPost2010Prop48
 90
       50
102
RTVSPost2010PropOp48
 70
     1
102
RTVSPost2010Prop49
280
     0
102
RTVSPost2010PropOp49
 70
     1
102
RTVSPost2010Prop50
 90
       50
102
RTVSPost2010PropOp50
 70
     1
102
RTVSPost2010Prop51ColorIndex
 90
      256
102
RTVSPost2010Prop51ColorRGB
 90
-16777216
102
RTVSPost2010PropOp51
 70
     0
102
RTVSPost2010Prop52
140
1.0
102
RTVSPost2010PropOp52
 70
     0
102
RTVSPost2010Prop53
 90
        2
102
RTVSPost2010PropOp53
 70
     1
102
RTVSPost2010Prop54
  1
strokes_ogs.tif
102
RTVSPost2010PropOp54
 70
     1
102
RTVSPost2010Prop55
280
     0
102
RTVSPost2010PropOp55
 70
     1
102
RTVSPost2010Prop56
140
1.0
102
RTVSPost2010PropOp56
 70
     1
102
RTVSPost2010Prop57
140
1.0
102
RTVSPost2010PropOp57
 70
     1
  0
XRECORD
  5
609
102
{ACAD_REACTORS
330
608
102
}
330
608
100
AcDbXrecord
280
     1
102
RTVSPropertyOp0
 70
     1
102
RTVSPropertyOp1
 70
     1
102
RTVSPropertyOp2
 70
     1
102
RTVSPropertyOp3
 70
     1
102
RTVSPropertyOp4
 70
     1
102
RTVSPropertyOp5
 70
     1
102
RTVSPropertyOp6
 70
     1
102
RTVSPropertyOp7
 70
     1
102
RTVSPropertyOp8
 70
     1
102
RTVSPropertyOp9
 70
     1
102
RTVSPropertyOp10
 70
     1
102
RTVSPropertyOp11
 70
     1
102
RTVSPropertyOp12
 70
     1
102
RTVSPropertyOp13
 70
     1
102
RTVSPropertyOp14
 70
     1
102
RTVSPropertyOp15
 70
     1
102
RTVSPropertyOp16
 70
     1
102
RTVSPropertyOp17
 70
     1
102
RTVSPropertyOp18
 70
     1
102
RTVSPropertyOp19
 70
     1
102
RTVSPropertyOp20
 70
     1
102
RTVSPropertyOp21
 70
     1
102
RTVSPropertyOp22
 70
     1
102
RTVSPropertyOp23
 70
     1
102
RTVSPropertyOp24
 70
     1
102
RTVSPropertyOp25
 70
     1
102
RTVSPropertyOp26
 70
     1
102
RTVSPropertyOp27
 70
     1
102
RTVSPropertyOp28
 70
     1
102
RTVSPropertyOp29
 70
     1
102
RTVSPropertyOp30
 70
     1
102
RTVSPropertyOp31
 70
     1
102
RTVSPropertyOp32
 70
     1
102
RTVSPropertyOp33
 70
     1
102
RTVSPropertyOp34
 70
     1
102
RTVSPropertyOp35
 70
     1
102
RTVSPropertyOp36
 70
     1
102
RTVSPropertyOp37
 70
     1
102
RTVSPropertyOp38
 70
     1
102
RTVSPropertyOp39
 70
     1
102
RTVSPropertyOp40
 70
     1
102
RTVSPropertyOp41
 70
     1
102
RTVSPropertyOp42
 70
     1
102
RTVSPropertyOp43
 70
     1
102
RTVSPropertyOp44
 70
     1
102
RTVSPropertyOp45
 70
     1
102
RTVSPropertyOp46
 70
     1
102
RTVSPropertyOp47
 70
     1
102
RTVSPropertyOp48
 70
     1
102
RTVSPropertyOp49
 70
     1
102
RTVSPropertyOp50
 70
     1
102
RTVSPropertyOp51
 70
     0
102
RTVSPropertyOp52
 70
     0
102
RTVSPropertyOp53
 70
     1
102
RTVSPropertyOp54
 70
     1
102
RTVSPropertyOp55
 70
     1
102
RTVSPropertyOp56
 70
     1
102
RTVSPropertyOp57
 70
     1
102
RTVSPost2010Prop28
280
     0
102
RTVSPost2010PropOp28
 70
     1
102
RTVSPost2010Prop29
280
     1
102
RTVSPost2010PropOp29
 70
     1
102
RTVSPost2010Prop30
280
     1
102
RTVSPost2010PropOp30
 70
     1
102
RTVSPost2010Prop31
280
     0
102
RTVSPost2010PropOp31
 70
     1
102
RTVSPost2010Prop32
280
     0
102
RTVSPost2010PropOp32
 70
     1
102
RTVSPost2010Prop33
280
     0
102
RTVSPost2010PropOp33
 70
     1
102
RTVSPost2010Prop34
280
     0
102
RTVSPost2010PropOp34
 70
     1
102
RTVSPost2010Prop35
280
     0
102
RTVSPost2010PropOp35
 70
     1
102
RTVSPost2010Prop36
280
     0
102
RTVSPost2010PropOp36
 70
     1
102
RTVSPost2010Prop37
 90
       50
102
RTVSPost2010PropOp37
 70
     1
102
RTVSPost2010Prop38
140
0.0
102
RTVSPost2010PropOp38
 70
     1
102
RTVSPost2010Prop39
140
1.0
102
RTVSPost2010PropOp39
 70
     1
102
RTVSPost2010Prop40
 90
        0
102
RTVSPost2010PropOp40
 70
     1
102
RTVSPost2010Prop41ColorIndex
 90
       18
102
RTVSPost2010Prop41ColorRGB
 90
        0
102
RTVSPost2010PropOp41
 70
     1
102
RTVSPost2010Prop42
 90
       50
102
RTVSPost2010PropOp42
 70
     1
102
RTVSPost2010Prop43
 90
        3
102
RTVSPost2010PropOp43
 70
     1
102
RTVSPost2010Prop44ColorIndex
 90
        5
102
RTVSPost2010Prop44ColorRGB
 90
      255
102
RTVSPost2010PropOp44
 70
     1
102
RTVSPost2010Prop45
280
     0
102
RTVSPost2010PropOp45
 70
     1
102
RTVSPost2010Prop46
 90
       50
102
RTVSPost2010PropOp46
 70
     1
102
RTVSPost2010Prop47
 90
       50
102
RTVSPost2010PropOp47
 70
     1
102
RTVSPost2010Prop48
 90
       50
102
RTVSPost2010PropOp48
 70
     1
102
RTVSPost2010Prop49
280
     0
102
RTVSPost2010PropOp49
 70
     1
102
RTVSPost2010Prop50
 90
       50
102
RTVSPost2010PropOp50
 70
     1
102
RTVSPost2010Prop51ColorIndex
 90
      256
102
RTVSPost2010Prop51ColorRGB
 90
-16777216
102
RTVSPost2010PropOp51
 70
     0
102
RTVSPost2010Prop52
140
1.0
102
RTVSPost2010PropOp52
 70
     0
102
RTVSPost2010Prop53
 90
        2
102
RTVSPost2010PropOp53
 70
     1
102
RTVSPost2010Prop54
  1
strokes_ogs.tif
102
RTVSPost2010PropOp54
 70
     1
102
RTVSPost2010Prop55
280
     0
102
RTVSPost2010PropOp55
 70
     1
102
RTVSPost2010Prop56
140
1.0
102
RTVSPost2010PropOp56
 70
     1
102
RTVSPost2010Prop57
140
1.0
102
RTVSPost2010PropOp57
 70
     1
  0
XRECORD
  5
60B
102
{ACAD_REACTORS
330
60A
102
}
330
60A
100
AcDbXrecord
280
     1
102
RTVSPropertyOp0
 70
     1
102
RTVSPropertyOp1
 70
     1
102
RTVSPropertyOp2
 70
     1
102
RTVSPropertyOp3
 70
     1
102
RTVSPropertyOp4
 70
     1
102
RTVSPropertyOp5
 70
     1
102
RTVSPropertyOp6
 70
     1
102
RTVSPropertyOp7
 70
     1
102
RTVSPropertyOp8
 70
     1
102
RTVSPropertyOp9
 70
     1
102
RTVSPropertyOp10
 70
     1
102
RTVSPropertyOp11
 70
     1
102
RTVSPropertyOp12
 70
     1
102
RTVSPropertyOp13
 70
     1
102
RTVSPropertyOp14
 70
     1
102
RTVSPropertyOp15
 70
     1
102
RTVSPropertyOp16
 70
     1
102
RTVSPropertyOp17
 70
     1
102
RTVSPropertyOp18
 70
     1
102
RTVSPropertyOp19
 70
     1
102
RTVSPropertyOp20
 70
     1
102
RTVSPropertyOp21
 70
     1
102
RTVSPropertyOp22
 70
     1
102
RTVSPropertyOp23
 70
     1
102
RTVSPropertyOp24
 70
     1
102
RTVSPropertyOp25
 70
     1
102
RTVSPropertyOp26
 70
     1
102
RTVSPropertyOp27
 70
     1
102
RTVSPropertyOp28
 70
     1
102
RTVSPropertyOp29
 70
     1
102
RTVSPropertyOp30
 70
     1
102
RTVSPropertyOp31
 70
     1
102
RTVSPropertyOp32
 70
     1
102
RTVSPropertyOp33
 70
     1
102
RTVSPropertyOp34
 70
     1
102
RTVSPropertyOp35
 70
     1
102
RTVSPropertyOp36
 70
     1
102
RTVSPropertyOp37
 70
     1
102
RTVSPropertyOp38
 70
     1
102
RTVSPropertyOp39
 70
     1
102
RTVSPropertyOp40
 70
     1
102
RTVSPropertyOp41
 70
     1
102
RTVSPropertyOp42
 70
     1
102
RTVSPropertyOp43
 70
     1
102
RTVSPropertyOp44
 70
     1
102
RTVSPropertyOp45
 70
     1
102
RTVSPropertyOp46
 70
     1
102
RTVSPropertyOp47
 70
     1
102
RTVSPropertyOp48
 70
     1
102
RTVSPropertyOp49
 70
     1
102
RTVSPropertyOp50
 70
     1
102
RTVSPropertyOp51
 70
     0
102
RTVSPropertyOp52
 70
     0
102
RTVSPropertyOp53
 70
     1
102
RTVSPropertyOp54
 70
     1
102
RTVSPropertyOp55
 70
     1
102
RTVSPropertyOp56
 70
     1
102
RTVSPropertyOp57
 70
     1
102
RTVSPost2010Prop28
280
     0
102
RTVSPost2010PropOp28
 70
     1
102
RTVSPost2010Prop29
280
     1
102
RTVSPost2010PropOp29
 70
     1
102
RTVSPost2010Prop30
280
     1
102
RTVSPost2010PropOp30
 70
     1
102
RTVSPost2010Prop31
280
     0
102
RTVSPost2010PropOp31
 70
     1
102
RTVSPost2010Prop32
280
     0
102
RTVSPost2010PropOp32
 70
     1
102
RTVSPost2010Prop33
280
     0
102
RTVSPost2010PropOp33
 70
     1
102
RTVSPost2010Prop34
280
     0
102
RTVSPost2010PropOp34
 70
     1
102
RTVSPost2010Prop35
280
     0
102
RTVSPost2010PropOp35
 70
     1
102
RTVSPost2010Prop36
280
     0
102
RTVSPost2010PropOp36
 70
     1
102
RTVSPost2010Prop37
 90
       50
102
RTVSPost2010PropOp37
 70
     1
102
RTVSPost2010Prop38
140
0.0
102
RTVSPost2010PropOp38
 70
     1
102
RTVSPost2010Prop39
140
1.0
102
RTVSPost2010PropOp39
 70
     1
102
RTVSPost2010Prop40
 90
        0
102
RTVSPost2010PropOp40
 70
     1
102
RTVSPost2010Prop41ColorIndex
 90
       18
102
RTVSPost2010Prop41ColorRGB
 90
        0
102
RTVSPost2010PropOp41
 70
     1
102
RTVSPost2010Prop42
 90
       50
102
RTVSPost2010PropOp42
 70
     1
102
RTVSPost2010Prop43
 90
        3
102
RTVSPost2010PropOp43
 70
     1
102
RTVSPost2010Prop44ColorIndex
 90
        5
102
RTVSPost2010Prop44ColorRGB
 90
      255
102
RTVSPost2010PropOp44
 70
     1
102
RTVSPost2010Prop45
280
     0
102
RTVSPost2010PropOp45
 70
     1
102
RTVSPost2010Prop46
 90
       50
102
RTVSPost2010PropOp46
 70
     1
102
RTVSPost2010Prop47
 90
       50
102
RTVSPost2010PropOp47
 70
     1
102
RTVSPost2010Prop48
 90
       50
102
RTVSPost2010PropOp48
 70
     1
102
RTVSPost2010Prop49
280
     0
102
RTVSPost2010PropOp49
 70
     1
102
RTVSPost2010Prop50
 90
       50
102
RTVSPost2010PropOp50
 70
     1
102
RTVSPost2010Prop51ColorIndex
 90
      256
102
RTVSPost2010Prop51ColorRGB
 90
-16777216
102
RTVSPost2010PropOp51
 70
     0
102
RTVSPost2010Prop52
140
1.0
102
RTVSPost2010PropOp52
 70
     0
102
RTVSPost2010Prop53
 90
        2
102
RTVSPost2010PropOp53
 70
     1
102
RTVSPost2010Prop54
  1
strokes_ogs.tif
102
RTVSPost2010PropOp54
 70
     1
102
RTVSPost2010Prop55
280
     0
102
RTVSPost2010PropOp55
 70
     1
102
RTVSPost2010Prop56
140
1.0
102
RTVSPost2010PropOp56
 70
     1
102
RTVSPost2010Prop57
140
1.0
102
RTVSPost2010PropOp57
 70
     1
  0
XRECORD
  5
60D
102
{ACAD_REACTORS
330
60C
102
}
330
60C
100
AcDbXrecord
280
     1
102
RTVSPropertyOp0
 70
     1
102
RTVSPropertyOp1
 70
     1
102
RTVSPropertyOp2
 70
     1
102
RTVSPropertyOp3
 70
     1
102
RTVSPropertyOp4
 70
     1
102
RTVSPropertyOp5
 70
     1
102
RTVSPropertyOp6
 70
     1
102
RTVSPropertyOp7
 70
     1
102
RTVSPropertyOp8
 70
     1
102
RTVSPropertyOp9
 70
     1
102
RTVSPropertyOp10
 70
     1
102
RTVSPropertyOp11
 70
     1
102
RTVSPropertyOp12
 70
     1
102
RTVSPropertyOp13
 70
     1
102
RTVSPropertyOp14
 70
     1
102
RTVSPropertyOp15
 70
     1
102
RTVSPropertyOp16
 70
     1
102
RTVSPropertyOp17
 70
     1
102
RTVSPropertyOp18
 70
     1
102
RTVSPropertyOp19
 70
     1
102
RTVSPropertyOp20
 70
     1
102
RTVSPropertyOp21
 70
     1
102
RTVSPropertyOp22
 70
     1
102
RTVSPropertyOp23
 70
     1
102
RTVSPropertyOp24
 70
     1
102
RTVSPropertyOp25
 70
     1
102
RTVSPropertyOp26
 70
     1
102
RTVSPropertyOp27
 70
     1
102
RTVSPropertyOp28
 70
     1
102
RTVSPropertyOp29
 70
     1
102
RTVSPropertyOp30
 70
     1
102
RTVSPropertyOp31
 70
     1
102
RTVSPropertyOp32
 70
     1
102
RTVSPropertyOp33
 70
     1
102
RTVSPropertyOp34
 70
     1
102
RTVSPropertyOp35
 70
     1
102
RTVSPropertyOp36
 70
     1
102
RTVSPropertyOp37
 70
     1
102
RTVSPropertyOp38
 70
     1
102
RTVSPropertyOp39
 70
     1
102
RTVSPropertyOp40
 70
     1
102
RTVSPropertyOp41
 70
     1
102
RTVSPropertyOp42
 70
     1
102
RTVSPropertyOp43
 70
     1
102
RTVSPropertyOp44
 70
     1
102
RTVSPropertyOp45
 70
     1
102
RTVSPropertyOp46
 70
     1
102
RTVSPropertyOp47
 70
     1
102
RTVSPropertyOp48
 70
     1
102
RTVSPropertyOp49
 70
     1
102
RTVSPropertyOp50
 70
     1
102
RTVSPropertyOp51
 70
     0
102
RTVSPropertyOp52
 70
     0
102
RTVSPropertyOp53
 70
     1
102
RTVSPropertyOp54
 70
     1
102
RTVSPropertyOp55
 70
     1
102
RTVSPropertyOp56
 70
     1
102
RTVSPropertyOp57
 70
     1
102
RTVSPost2010Prop28
280
     0
102
RTVSPost2010PropOp28
 70
     1
102
RTVSPost2010Prop29
280
     1
102
RTVSPost2010PropOp29
 70
     1
102
RTVSPost2010Prop30
280
     1
102
RTVSPost2010PropOp30
 70
     1
102
RTVSPost2010Prop31
280
     0
102
RTVSPost2010PropOp31
 70
     1
102
RTVSPost2010Prop32
280
     0
102
RTVSPost2010PropOp32
 70
     1
102
RTVSPost2010Prop33
280
     0
102
RTVSPost2010PropOp33
 70
     1
102
RTVSPost2010Prop34
280
     0
102
RTVSPost2010PropOp34
 70
     1
102
RTVSPost2010Prop35
280
     0
102
RTVSPost2010PropOp35
 70
     1
102
RTVSPost2010Prop36
280
     0
102
RTVSPost2010PropOp36
 70
     1
102
RTVSPost2010Prop37
 90
       50
102
RTVSPost2010PropOp37
 70
     1
102
RTVSPost2010Prop38
140
0.0
102
RTVSPost2010PropOp38
 70
     1
102
RTVSPost2010Prop39
140
1.0
102
RTVSPost2010PropOp39
 70
     1
102
RTVSPost2010Prop40
 90
        0
102
RTVSPost2010PropOp40
 70
     1
102
RTVSPost2010Prop41ColorIndex
 90
       18
102
RTVSPost2010Prop41ColorRGB
 90
        0
102
RTVSPost2010PropOp41
 70
     1
102
RTVSPost2010Prop42
 90
       50
102
RTVSPost2010PropOp42
 70
     1
102
RTVSPost2010Prop43
 90
        3
102
RTVSPost2010PropOp43
 70
     1
102
RTVSPost2010Prop44ColorIndex
 90
        5
102
RTVSPost2010Prop44ColorRGB
 90
      255
102
RTVSPost2010PropOp44
 70
     1
102
RTVSPost2010Prop45
280
     0
102
RTVSPost2010PropOp45
 70
     1
102
RTVSPost2010Prop46
 90
       50
102
RTVSPost2010PropOp46
 70
     1
102
RTVSPost2010Prop47
 90
       50
102
RTVSPost2010PropOp47
 70
     1
102
RTVSPost2010Prop48
 90
       50
102
RTVSPost2010PropOp48
 70
     1
102
RTVSPost2010Prop49
280
     0
102
RTVSPost2010PropOp49
 70
     1
102
RTVSPost2010Prop50
 90
       50
102
RTVSPost2010PropOp50
 70
     1
102
RTVSPost2010Prop51ColorIndex
 90
      256
102
RTVSPost2010Prop51ColorRGB
 90
-16777216
102
RTVSPost2010PropOp51
 70
     0
102
RTVSPost2010Prop52
140
1.0
102
RTVSPost2010PropOp52
 70
     0
102
RTVSPost2010Prop53
 90
        2
102
RTVSPost2010PropOp53
 70
     1
102
RTVSPost2010Prop54
  1
strokes_ogs.tif
102
RTVSPost2010PropOp54
 70
     1
102
RTVSPost2010Prop55
280
     0
102
RTVSPost2010PropOp55
 70
     1
102
RTVSPost2010Prop56
140
1.0
102
RTVSPost2010PropOp56
 70
     1
102
RTVSPost2010Prop57
140
1.0
102
RTVSPost2010PropOp57
 70
     1
  0
XRECORD
  5
60F
102
{ACAD_REACTORS
330
60E
102
}
330
60E
100
AcDbXrecord
280
     1
102
RTVSPropertyOp0
 70
     1
102
RTVSPropertyOp1
 70
     1
102
RTVSPropertyOp2
 70
     1
102
RTVSPropertyOp3
 70
     1
102
RTVSPropertyOp4
 70
     1
102
RTVSPropertyOp5
 70
     1
102
RTVSPropertyOp6
 70
     1
102
RTVSPropertyOp7
 70
     1
102
RTVSPropertyOp8
 70
     1
102
RTVSPropertyOp9
 70
     1
102
RTVSPropertyOp10
 70
     1
102
RTVSPropertyOp11
 70
     1
102
RTVSPropertyOp12
 70
     1
102
RTVSPropertyOp13
 70
     1
102
RTVSPropertyOp14
 70
     1
102
RTVSPropertyOp15
 70
     1
102
RTVSPropertyOp16
 70
     1
102
RTVSPropertyOp17
 70
     1
102
RTVSPropertyOp18
 70
     1
102
RTVSPropertyOp19
 70
     1
102
RTVSPropertyOp20
 70
     1
102
RTVSPropertyOp21
 70
     1
102
RTVSPropertyOp22
 70
     1
102
RTVSPropertyOp23
 70
     1
102
RTVSPropertyOp24
 70
     1
102
RTVSPropertyOp25
 70
     1
102
RTVSPropertyOp26
 70
     1
102
RTVSPropertyOp27
 70
     1
102
RTVSPropertyOp28
 70
     1
102
RTVSPropertyOp29
 70
     1
102
RTVSPropertyOp30
 70
     1
102
RTVSPropertyOp31
 70
     1
102
RTVSPropertyOp32
 70
     1
102
RTVSPropertyOp33
 70
     1
102
RTVSPropertyOp34
 70
     1
102
RTVSPropertyOp35
 70
     1
102
RTVSPropertyOp36
 70
     1
102
RTVSPropertyOp37
 70
     1
102
RTVSPropertyOp38
 70
     1
102
RTVSPropertyOp39
 70
     1
102
RTVSPropertyOp40
 70
     1
102
RTVSPropertyOp41
 70
     1
102
RTVSPropertyOp42
 70
     1
102
RTVSPropertyOp43
 70
     1
102
RTVSPropertyOp44
 70
     1
102
RTVSPropertyOp45
 70
     1
102
RTVSPropertyOp46
 70
     1
102
RTVSPropertyOp47
 70
     1
102
RTVSPropertyOp48
 70
     1
102
RTVSPropertyOp49
 70
     1
102
RTVSPropertyOp50
 70
     1
102
RTVSPropertyOp51
 70
     0
102
RTVSPropertyOp52
 70
     0
102
RTVSPropertyOp53
 70
     1
102
RTVSPropertyOp54
 70
     1
102
RTVSPropertyOp55
 70
     1
102
RTVSPropertyOp56
 70
     1
102
RTVSPropertyOp57
 70
     1
102
RTVSPost2010Prop28
280
     0
102
RTVSPost2010PropOp28
 70
     1
102
RTVSPost2010Prop29
280
     1
102
RTVSPost2010PropOp29
 70
     1
102
RTVSPost2010Prop30
280
     1
102
RTVSPost2010PropOp30
 70
     1
102
RTVSPost2010Prop31
280
     0
102
RTVSPost2010PropOp31
 70
     1
102
RTVSPost2010Prop32
280
     0
102
RTVSPost2010PropOp32
 70
     1
102
RTVSPost2010Prop33
280
     0
102
RTVSPost2010PropOp33
 70
     1
102
RTVSPost2010Prop34
280
     0
102
RTVSPost2010PropOp34
 70
     1
102
RTVSPost2010Prop35
280
     0
102
RTVSPost2010PropOp35
 70
     1
102
RTVSPost2010Prop36
280
     0
102
RTVSPost2010PropOp36
 70
     1
102
RTVSPost2010Prop37
 90
       50
102
RTVSPost2010PropOp37
 70
     1
102
RTVSPost2010Prop38
140
0.0
102
RTVSPost2010PropOp38
 70
     1
102
RTVSPost2010Prop39
140
1.0
102
RTVSPost2010PropOp39
 70
     1
102
RTVSPost2010Prop40
 90
        0
102
RTVSPost2010PropOp40
 70
     1
102
RTVSPost2010Prop41ColorIndex
 90
       18
102
RTVSPost2010Prop41ColorRGB
 90
        0
102
RTVSPost2010PropOp41
 70
     1
102
RTVSPost2010Prop42
 90
       50
102
RTVSPost2010PropOp42
 70
     1
102
RTVSPost2010Prop43
 90
        3
102
RTVSPost2010PropOp43
 70
     1
102
RTVSPost2010Prop44ColorIndex
 90
        5
102
RTVSPost2010Prop44ColorRGB
 90
      255
102
RTVSPost2010PropOp44
 70
     1
102
RTVSPost2010Prop45
280
     0
102
RTVSPost2010PropOp45
 70
     1
102
RTVSPost2010Prop46
 90
       50
102
RTVSPost2010PropOp46
 70
     1
102
RTVSPost2010Prop47
 90
       50
102
RTVSPost2010PropOp47
 70
     1
102
RTVSPost2010Prop48
 90
       50
102
RTVSPost2010PropOp48
 70
     1
102
RTVSPost2010Prop49
280
     0
102
RTVSPost2010PropOp49
 70
     1
102
RTVSPost2010Prop50
 90
       50
102
RTVSPost2010PropOp50
 70
     1
102
RTVSPost2010Prop51ColorIndex
 90
      256
102
RTVSPost2010Prop51ColorRGB
 90
-16777216
102
RTVSPost2010PropOp51
 70
     0
102
RTVSPost2010Prop52
140
1.0
102
RTVSPost2010PropOp52
 70
     0
102
RTVSPost2010Prop53
 90
        2
102
RTVSPost2010PropOp53
 70
     1
102
RTVSPost2010Prop54
  1
strokes_ogs.tif
102
RTVSPost2010PropOp54
 70
     1
102
RTVSPost2010Prop55
280
     0
102
RTVSPost2010PropOp55
 70
     1
102
RTVSPost2010Prop56
140
1.0
102
RTVSPost2010PropOp56
 70
     1
102
RTVSPost2010Prop57
140
1.0
102
RTVSPost2010PropOp57
 70
     1
  0
XRECORD
  5
611
102
{ACAD_REACTORS
330
610
102
}
330
610
100
AcDbXrecord
280
     1
102
RTVSPropertyOp0
 70
     1
102
RTVSPropertyOp1
 70
     1
102
RTVSPropertyOp2
 70
     1
102
RTVSPropertyOp3
 70
     1
102
RTVSPropertyOp4
 70
     1
102
RTVSPropertyOp5
 70
     1
102
RTVSPropertyOp6
 70
     1
102
RTVSPropertyOp7
 70
     1
102
RTVSPropertyOp8
 70
     1
102
RTVSPropertyOp9
 70
     1
102
RTVSPropertyOp10
 70
     1
102
RTVSPropertyOp11
 70
     1
102
RTVSPropertyOp12
 70
     1
102
RTVSPropertyOp13
 70
     1
102
RTVSPropertyOp14
 70
     1
102
RTVSPropertyOp15
 70
     1
102
RTVSPropertyOp16
 70
     1
102
RTVSPropertyOp17
 70
     1
102
RTVSPropertyOp18
 70
     1
102
RTVSPropertyOp19
 70
     1
102
RTVSPropertyOp20
 70
     1
102
RTVSPropertyOp21
 70
     1
102
RTVSPropertyOp22
 70
     1
102
RTVSPropertyOp23
 70
     1
102
RTVSPropertyOp24
 70
     1
102
RTVSPropertyOp25
 70
     1
102
RTVSPropertyOp26
 70
     1
102
RTVSPropertyOp27
 70
     1
102
RTVSPropertyOp28
 70
     1
102
RTVSPropertyOp29
 70
     1
102
RTVSPropertyOp30
 70
     1
102
RTVSPropertyOp31
 70
     1
102
RTVSPropertyOp32
 70
     1
102
RTVSPropertyOp33
 70
     1
102
RTVSPropertyOp34
 70
     1
102
RTVSPropertyOp35
 70
     1
102
RTVSPropertyOp36
 70
     1
102
RTVSPropertyOp37
 70
     1
102
RTVSPropertyOp38
 70
     1
102
RTVSPropertyOp39
 70
     1
102
RTVSPropertyOp40
 70
     1
102
RTVSPropertyOp41
 70
     1
102
RTVSPropertyOp42
 70
     1
102
RTVSPropertyOp43
 70
     1
102
RTVSPropertyOp44
 70
     1
102
RTVSPropertyOp45
 70
     1
102
RTVSPropertyOp46
 70
     1
102
RTVSPropertyOp47
 70
     1
102
RTVSPropertyOp48
 70
     1
102
RTVSPropertyOp49
 70
     1
102
RTVSPropertyOp50
 70
     1
102
RTVSPropertyOp51
 70
     0
102
RTVSPropertyOp52
 70
     0
102
RTVSPropertyOp53
 70
     1
102
RTVSPropertyOp54
 70
     1
102
RTVSPropertyOp55
 70
     1
102
RTVSPropertyOp56
 70
     1
102
RTVSPropertyOp57
 70
     1
102
RTVSPost2010Prop28
280
     0
102
RTVSPost2010PropOp28
 70
     1
102
RTVSPost2010Prop29
280
     1
102
RTVSPost2010PropOp29
 70
     1
102
RTVSPost2010Prop30
280
     1
102
RTVSPost2010PropOp30
 70
     1
102
RTVSPost2010Prop31
280
     0
102
RTVSPost2010PropOp31
 70
     1
102
RTVSPost2010Prop32
280
     0
102
RTVSPost2010PropOp32
 70
     1
102
RTVSPost2010Prop33
280
     0
102
RTVSPost2010PropOp33
 70
     1
102
RTVSPost2010Prop34
280
     0
102
RTVSPost2010PropOp34
 70
     1
102
RTVSPost2010Prop35
280
     0
102
RTVSPost2010PropOp35
 70
     1
102
RTVSPost2010Prop36
280
     0
102
RTVSPost2010PropOp36
 70
     1
102
RTVSPost2010Prop37
 90
       50
102
RTVSPost2010PropOp37
 70
     1
102
RTVSPost2010Prop38
140
0.0
102
RTVSPost2010PropOp38
 70
     1
102
RTVSPost2010Prop39
140
1.0
102
RTVSPost2010PropOp39
 70
     1
102
RTVSPost2010Prop40
 90
        0
102
RTVSPost2010PropOp40
 70
     1
102
RTVSPost2010Prop41ColorIndex
 90
       18
102
RTVSPost2010Prop41ColorRGB
 90
        0
102
RTVSPost2010PropOp41
 70
     1
102
RTVSPost2010Prop42
 90
       50
102
RTVSPost2010PropOp42
 70
     1
102
RTVSPost2010Prop43
 90
        3
102
RTVSPost2010PropOp43
 70
     1
102
RTVSPost2010Prop44ColorIndex
 90
        5
102
RTVSPost2010Prop44ColorRGB
 90
      255
102
RTVSPost2010PropOp44
 70
     1
102
RTVSPost2010Prop45
280
     0
102
RTVSPost2010PropOp45
 70
     1
102
RTVSPost2010Prop46
 90
       50
102
RTVSPost2010PropOp46
 70
     1
102
RTVSPost2010Prop47
 90
       50
102
RTVSPost2010PropOp47
 70
     1
102
RTVSPost2010Prop48
 90
       50
102
RTVSPost2010PropOp48
 70
     1
102
RTVSPost2010Prop49
280
     0
102
RTVSPost2010PropOp49
 70
     1
102
RTVSPost2010Prop50
 90
       50
102
RTVSPost2010PropOp50
 70
     1
102
RTVSPost2010Prop51ColorIndex
 90
      256
102
RTVSPost2010Prop51ColorRGB
 90
-16777216
102
RTVSPost2010PropOp51
 70
     0
102
RTVSPost2010Prop52
140
1.0
102
RTVSPost2010PropOp52
 70
     0
102
RTVSPost2010Prop53
 90
        2
102
RTVSPost2010PropOp53
 70
     1
102
RTVSPost2010Prop54
  1
strokes_ogs.tif
102
RTVSPost2010PropOp54
 70
     1
102
RTVSPost2010Prop55
280
     0
102
RTVSPost2010PropOp55
 70
     1
102
RTVSPost2010Prop56
140
1.0
102
RTVSPost2010PropOp56
 70
     1
102
RTVSPost2010Prop57
140
1.0
102
RTVSPost2010PropOp57
 70
     1
  0
ENDSEC
  0
EOF
