  0
SECTION
  2
HEADER
  9
$ACADVER
  1
AC1015
  9
$ACADMAINTVER
 70
     6
  9
$DWGCODEPAGE
  3
ANSI_932
  9
$INSBASE
 10
1914.492005429843
 20
614.7113215740902
 30
0.0
  9
$EXTMIN
 10
79.02502721757105
 20
53.30648339151674
 30
0.0
  9
$EXTMAX
 10
1156.05449307864
 20
702.1095776207146
 30
0.0
  9
$LIMMIN
 10
0.0
 20
0.0
  9
$LIMMAX
 10
816.5000000000001
 20
565.0
  9
$ORTHOMODE
 70
     1
  9
$REGENMODE
 70
     1
  9
$FILLMODE
 70
     1
  9
$QTEXTMODE
 70
     0
  9
$MIRRTEXT
 70
     1
  9
$LTSCALE
 40
5.0
  9
$ATTMODE
 70
     1
  9
$TEXTSIZE
 40
7.5
  9
$TRACEWID
 40
0.05
  9
$TEXTSTYLE
  7
KANJI
  9
$CLAYER
  8
2
  9
$CELTYPE
  6
BYLAYER
  9
$CECOLOR
 62
   256
  9
$CELTSCALE
 40
1.0
  9
$DISPSILH
 70
     0
  9
$DIMSCALE
 40
2.5
  9
$DIMASZ
 40
2.0
  9
$DIMEXO
 40
0.5
  9
$DIMDLI
 40
0.0
  9
$DIMRND
 40
0.0
  9
$DIMDLE
 40
0.0
  9
$DIMEXE
 40
1.0
  9
$DIMTP
 40
0.0
  9
$DIMTM
 40
0.0
  9
$DIMTXT
 40
3.0
  9
$DIMCEN
 40
0.09
  9
$DIMTSZ
 40
0.0
  9
$DIMTOL
 70
     0
  9
$DIMLIM
 70
     0
  9
$DIMTIH
 70
     0
  9
$DIMTOH
 70
     0
  9
$DIMSE1
 70
     0
  9
$DIMSE2
 70
     0
  9
$DIMTAD
 70
     0
  9
$DIMZIN
 70
     8
  9
$DIMBLK
  1

  9
$DIMASO
 70
     0
  9
$DIMSHO
 70
     0
  9
$DIMPOST
  1

  9
$DIMAPOST
  1

  9
$DIMALT
 70
     0
  9
$DIMALTD
 70
     2
  9
$DIMALTF
 40
25.4
  9
$DIMLFAC
 40
1.0
  9
$DIMTOFL
 70
     1
  9
$DIMTVP
 40
1.0
  9
$DIMTIX
 70
     1
  9
$DIMSOXD
 70
     1
  9
$DIMSAH
 70
     0
  9
$DIMBLK1
  1

  9
$DIMBLK2
  1

  9
$DIMSTYLE
  2
STANDARD
  9
$DIMCLRD
 70
   256
  9
$DIMCLRE
 70
   256
  9
$DIMCLRT
 70
   256
  9
$DIMTFAC
 40
1.0
  9
$DIMGAP
 40
0.09
  9
$DIMJUST
 70
     0
  9
$DIMSD1
 70
     0
  9
$DIMSD2
 70
     0
  9
$DIMTOLJ
 70
     1
  9
$DIMTZIN
 70
     0
  9
$DIMALTZ
 70
     0
  9
$DIMALTTZ
 70
     0
  9
$DIMUPT
 70
     0
  9
$DIMDEC
 70
     1
  9
$DIMTDEC
 70
     4
  9
$DIMALTU
 70
     2
  9
$DIMALTTD
 70
     2
  9
$DIMTXSTY
  7
STANDARD
  9
$DIMAUNIT
 70
     0
  9
$DIMADEC
 70
     0
  9
$DIMALTRND
 40
0.0
  9
$DIMAZIN
 70
     0
  9
$DIMDSEP
 70
    46
  9
$DIMATFIT
 70
     3
  9
$DIMFRAC
 70
     0
  9
$DIMLDRBLK
  1

  9
$DIMLUNIT
 70
     2
  9
$DIMLWD
 70
    -2
  9
$DIMLWE
 70
    -2
  9
$DIMTMOVE
 70
     0
  9
$LUNITS
 70
     2
  9
$LUPREC
 70
     3
  9
$SKETCHINC
 40
0.1
  9
$FILLETRAD
 40
2.0
  9
$AUNITS
 70
     0
  9
$AUPREC
 70
     3
  9
$MENU
  1
C:\R13\WIN\SUPPORT\ACADFULL
  9
$ELEVATION
 40
0.0
  9
$PELEVATION
 40
0.0
  9
$THICKNESS
 40
0.0
  9
$LIMCHECK
 70
     0
  9
$CHAMFERA
 40
0.0
  9
$CHAMFERB
 40
0.0
  9
$CHAMFERC
 40
0.0
  9
$CHAMFERD
 40
0.0
  9
$SKPOLY
 70
     0
  9
$TDCREATE
 40
2457528.882634572
  9
$TDUCREATE
 40
2457528.507634572
  9
$TDUPDATE
 40
2457870.602349132
  9
$TDUUPDATE
 40
2457870.227349132
  9
$TDINDWG
 40
0.0065977083
  9
$TDUSRTIMER
 40
0.0065973148
  9
$USRTIMER
 70
     1
  9
$ANGBASE
 50
0.0
  9
$ANGDIR
 70
     0
  9
$PDMODE
 70
     0
  9
$PDSIZE
 40
0.0
  9
$PLINEWID
 40
0.0
  9
$SPLFRAME
 70
     0
  9
$SPLINETYPE
 70
     6
  9
$SPLINESEGS
 70
     8
  9
$HANDSEED
  5
5DE
  9
$SURFTAB1
 70
     6
  9
$SURFTAB2
 70
     6
  9
$SURFTYPE
 70
     6
  9
$SURFU
 70
     6
  9
$SURFV
 70
     6
  9
$UCSBASE
  2

  9
$UCSNAME
  2

  9
$UCSORG
 10
0.0
 20
0.0
 30
0.0
  9
$UCSXDIR
 10
1.0
 20
0.0
 30
0.0
  9
$UCSYDIR
 10
0.0
 20
1.0
 30
0.0
  9
$UCSORTHOREF
  2

  9
$UCSORTHOVIEW
 70
     0
  9
$UCSORGTOP
 10
0.0
 20
0.0
 30
0.0
  9
$UCSORGBOTTOM
 10
0.0
 20
0.0
 30
0.0
  9
$UCSORGLEFT
 10
0.0
 20
0.0
 30
0.0
  9
$UCSORGRIGHT
 10
0.0
 20
0.0
 30
0.0
  9
$UCSORGFRONT
 10
0.0
 20
0.0
 30
0.0
  9
$UCSORGBACK
 10
0.0
 20
0.0
 30
0.0
  9
$PUCSBASE
  2

  9
$PUCSNAME
  2

  9
$PUCSORG
 10
0.0
 20
0.0
 30
0.0
  9
$PUCSXDIR
 10
1.0
 20
0.0
 30
0.0
  9
$PUCSYDIR
 10
0.0
 20
1.0
 30
0.0
  9
$PUCSORTHOREF
  2

  9
$PUCSORTHOVIEW
 70
     0
  9
$PUCSORGTOP
 10
0.0
 20
0.0
 30
0.0
  9
$PUCSORGBOTTOM
 10
0.0
 20
0.0
 30
0.0
  9
$PUCSORGLEFT
 10
0.0
 20
0.0
 30
0.0
  9
$PUCSORGRIGHT
 10
0.0
 20
0.0
 30
0.0
  9
$PUCSORGFRONT
 10
0.0
 20
0.0
 30
0.0
  9
$PUCSORGBACK
 10
0.0
 20
0.0
 30
0.0
  9
$USERI1
 70
     0
  9
$USERI2
 70
     0
  9
$USERI3
 70
     0
  9
$USERI4
 70
     0
  9
$USERI5
 70
     0
  9
$USERR1
 40
0.0
  9
$USERR2
 40
0.0
  9
$USERR3
 40
0.0
  9
$USERR4
 40
2448925.372986111
  9
$USERR5
 40
0.04166667
  9
$WORLDVIEW
 70
     1
  9
$SHADEDGE
 70
     3
  9
$SHADEDIF
 70
    70
  9
$TILEMODE
 70
     1
  9
$MAXACTVP
 70
    16
  9
$PINSBASE
 10
0.0
 20
0.0
 30
0.0
  9
$PLIMCHECK
 70
     0
  9
$PEXTMIN
 10
1.000000000000000E+20
 20
1.000000000000000E+20
 30
1.000000000000000E+20
  9
$PEXTMAX
 10
-1.000000000000000E+20
 20
-1.000000000000000E+20
 30
-1.000000000000000E+20
  9
$PLIMMIN
 10
0.0
 20
0.0
  9
$PLIMMAX
 10
12.0
 20
9.0
  9
$UNITMODE
 70
     0
  9
$VISRETAIN
 70
     0
  9
$PLINEGEN
 70
     0
  9
$PSLTSCALE
 70
     0
  9
$TREEDEPTH
 70
  3020
  9
$CMLSTYLE
  2
STANDARD
  9
$CMLJUST
 70
     0
  9
$CMLSCALE
 40
1.0
  9
$PROXYGRAPHICS
 70
     1
  9
$MEASUREMENT
 70
     0
  9
$CELWEIGHT
370
    -1
  9
$ENDCAPS
280
     0
  9
$JOINSTYLE
280
     0
  9
$LWDISPLAY
290
     0
  9
$INSUNITS
 70
     0
  9
$HYPERLINKBASE
  1

  9
$STYLESHEET
  1
monochrome.ctb
  9
$XEDIT
290
     1
  9
$CEPSNTYPE
380
     0
  9
$PSTYLEMODE
290
     1
  9
$FINGERPRINTGUID
  2
{BA8486BD-1A7E-4FFB-8941-E80541FD545D}
  9
$VERSIONGUID
  2
{DB7580A4-391C-4C40-8DB2-EB97648A5FEB}
  9
$EXTNAMES
290
     1
  9
$PSVPSCALE
 40
0.0
  9
$OLESTARTUP
290
     0
  0
ENDSEC
  0
SECTION
  2
CLASSES
  0
CLASS
  1
ACDBDICTIONARYWDFLT
  2
AcDbDictionaryWithDefault
  3
ObjectDBX Classes
 90
        0
280
     0
281
     0
  0
CLASS
  1
MATERIAL
  2
AcDbMaterial
  3
ObjectDBX Classes
 90
     1153
280
     0
281
     0
  0
CLASS
  1
SORTENTSTABLE
  2
AcDbSortentsTable
  3
ObjectDBX Classes
 90
        0
280
     0
281
     0
  0
CLASS
  1
VISUALSTYLE
  2
AcDbVisualStyle
  3
ObjectDBX Classes
 90
     4095
280
     0
281
     0
  0
CLASS
  1
SCALE
  2
AcDbScale
  3
ObjectDBX Classes
 90
     1153
280
     0
281
     0
  0
CLASS
  1
DICTIONARYVAR
  2
AcDbDictionaryVar
  3
ObjectDBX Classes
 90
        0
280
     0
281
     0
  0
CLASS
  1
MLEADERSTYLE
  2
AcDbMLeaderStyle
  3
ACDB_MLEADERSTYLE_CLASS
 90
     4095
280
     0
281
     0
  0
CLASS
  1
TABLESTYLE
  2
AcDbTableStyle
  3
ObjectDBX Classes
 90
     4095
280
     0
281
     0
  0
CLASS
  1
ACDBPLACEHOLDER
  2
AcDbPlaceHolder
  3
ObjectDBX Classes
 90
        0
280
     0
281
     0
  0
CLASS
  1
LAYOUT
  2
AcDbLayout
  3
ObjectDBX Classes
 90
        0
280
     0
281
     0
  0
ENDSEC
  0
SECTION
  2
TABLES
  0
TABLE
  2
VPORT
  5
2D
102
{ACAD_XDICTIONARY
360
5A3
102
}
330
0
100
AcDbSymbolTable
 70
     1
  0
VPORT
  5
34
330
2D
100
AcDbSymbolTableRecord
100
AcDbViewportTableRecord
  2
*ACTIVE
 70
     0
 10
0.0
 20
0.0
 11
1.0
 21
1.0
 12
847.7384000794898
 22
401.0486559248826
 13
0.0
 23
0.0
 14
1.0
 24
1.0
 15
50.0
 25
50.0
 16
0.0
 26
0.0
 36
1.0
 17
0.0
 27
0.0
 37
0.0
 40
788.6285912545331
 41
2.177611940298507
 42
50.0
 43
0.0
 44
0.0
 50
0.0
 51
0.0
 71
     0
 72
  5000
 73
     1
 74
     0
 75
     0
 76
     0
 77
     0
 78
     0
281
     0
 65
     1
110
0.0
120
0.0
130
0.0
111
1.0
121
0.0
131
0.0
112
0.0
122
1.0
132
0.0
 79
     0
146
0.0
1001
ACAD_NAV_VCDISPLAY
1070
     3
  0
ENDTAB
  0
TABLE
  2
LTYPE
  5
F
330
0
100
AcDbSymbolTable
 70
     2
  0
LTYPE
  5
10
330
F
100
AcDbSymbolTableRecord
100
AcDbLinetypeTableRecord
  2
BYBLOCK
 70
     0
  3

 72
    65
 73
     0
 40
0.0
  0
LTYPE
  5
11
330
F
100
AcDbSymbolTableRecord
100
AcDbLinetypeTableRecord
  2
BYLAYER
 70
     0
  3

 72
    65
 73
     0
 40
0.0
  0
LTYPE
  5
E
330
F
100
AcDbSymbolTableRecord
100
AcDbLinetypeTableRecord
  2
CONTINUOUS
 70
     0
  3
Solid line
 72
    65
 73
     0
 40
0.0
  0
LTYPE
  5
121
330
F
100
AcDbSymbolTableRecord
100
AcDbLinetypeTableRecord
  2
CENTER
 70
     0
  3
____ _ ____ _ ____ _ ____ _ ____ _ ____ _ ____
 72
    65
 73
     4
 40
2.0
 49
1.25
 74
     0
 49
-0.25
 74
     0
 49
0.25
 74
     0
 49
-0.25
 74
     0
  0
ENDTAB
  0
TABLE
  2
LAYER
  5
2
102
{ACAD_XDICTIONARY
360
3
102
}
330
0
100
AcDbSymbolTable
 70
     7
  0
LAYER
  5
1F
102
{ACAD_XDICTIONARY
360
20
102
}
330
2
100
AcDbSymbolTableRecord
100
AcDbLayerTableRecord
  2
0
 70
     0
 62
     7
  6
CONTINUOUS
370
    -3
390
7
  0
LAYER
  5
1CA
102
{ACAD_XDICTIONARY
360
1CB
102
}
330
2
100
AcDbSymbolTableRecord
100
AcDbLayerTableRecord
  2
1
 70
     0
 62
     9
  6
CONTINUOUS
370
    -3
390
7
  0
LAYER
  5
1
102
{ACAD_XDICTIONARY
360
5
102
}
330
2
100
AcDbSymbolTableRecord
100
AcDbLayerTableRecord
  2
2
 70
     0
 62
     4
  6
CONTINUOUS
370
    -3
390
7
  0
LAYER
  5
5D
102
{ACAD_XDICTIONARY
360
5E
102
}
330
2
100
AcDbSymbolTableRecord
100
AcDbLayerTableRecord
  2
4
 70
     0
 62
     3
  6
CONTINUOUS
370
    -3
390
7
  0
LAYER
  5
11E
102
{ACAD_XDICTIONARY
360
11F
102
}
330
2
100
AcDbSymbolTableRecord
100
AcDbLayerTableRecord
  2
L-CENTER
 70
     0
 62
     1
  6
CENTER
370
    -3
390
7
  0
LAYER
  5
61
102
{ACAD_XDICTIONARY
360
62
102
}
330
2
100
AcDbSymbolTableRecord
100
AcDbLayerTableRecord
  2
3
 70
     0
 62
     2
  6
CONTINUOUS
370
    -3
390
7
  0
LAYER
  5
1BC
330
2
100
AcDbSymbolTableRecord
100
AcDbLayerTableRecord
  2
5
 70
     0
 62
     6
  6
CONTINUOUS
370
    -3
390
7
  0
ENDTAB
  0
TABLE
  2
STYLE
  5
13
330
0
100
AcDbSymbolTable
 70
     2
  0
STYLE
  5
17
330
13
100
AcDbSymbolTableRecord
100
AcDbTextStyleTableRecord
  2
STANDARD
 70
     0
 40
0.0
 41
1.0
 50
0.0
 71
     0
 42
4.5
  3
TXT
  4

  0
STYLE
  5
12
330
13
100
AcDbSymbolTableRecord
100
AcDbTextStyleTableRecord
  2
KANJI
 70
     0
 40
0.0
 41
1.0
 50
0.0
 71
     0
 42
7.5
  3
TXT
  4
BIGFONT
  0
ENDTAB
  0
TABLE
  2
VIEW
  5
2B
330
0
100
AcDbSymbolTable
 70
     0
  0
ENDTAB
  0
TABLE
  2
UCS
  5
2C
330
0
100
AcDbSymbolTable
 70
     0
  0
ENDTAB
  0
TABLE
  2
APPID
  5
D
330
0
100
AcDbSymbolTable
 70
     4
  0
APPID
  5
C
330
D
100
AcDbSymbolTableRecord
100
AcDbRegAppTableRecord
  2
ACAD
 70
     0
  0
APPID
  5
36
330
D
100
AcDbSymbolTableRecord
100
AcDbRegAppTableRecord
  2
ACAD_NAV_VCDISPLAY
 70
     0
  0
APPID
  5
26
330
D
100
AcDbSymbolTableRecord
100
AcDbRegAppTableRecord
  2
ACAD_PSEXT
 70
     0
  0
APPID
  5
588
330
D
100
AcDbSymbolTableRecord
100
AcDbRegAppTableRecord
  2
ACAD_MLEADERVER
 70
     0
  0
ENDTAB
  0
TABLE
  2
DIMSTYLE
  5
16
330
0
100
AcDbSymbolTable
 70
     1
100
AcDbDimStyleTable
  0
DIMSTYLE
105
15
330
16
100
AcDbSymbolTableRecord
100
AcDbDimStyleTableRecord
  2
STANDARD
 70
     0
178
     0
340
17
  0
ENDTAB
  0
TABLE
  2
BLOCK_RECORD
  5
1A
330
0
100
AcDbSymbolTable
 70
     0
  0
BLOCK_RECORD
  5
1B
102
{ACAD_XDICTIONARY
360
1C
102
}
330
1A
100
AcDbSymbolTableRecord
100
AcDbBlockTableRecord
  2
*MODEL_SPACE
340
23
  0
BLOCK_RECORD
  5
27
330
1A
100
AcDbSymbolTableRecord
100
AcDbBlockTableRecord
  2
*PAPER_SPACE
340
2A
  0
ENDTAB
  0
ENDSEC
  0
SECTION
  2
BLOCKS
  0
BLOCK
  5
1E
330
1B
100
AcDbEntity
  8
0
100
AcDbBlockBegin
  2
*MODEL_SPACE
 70
     0
 10
0.0
 20
0.0
 30
0.0
  3
*MODEL_SPACE
  1

  0
ENDBLK
  5
22
330
1B
100
AcDbEntity
  8
0
100
AcDbBlockEnd
  0
BLOCK
  5
28
330
27
100
AcDbEntity
 67
     1
  8
0
100
AcDbBlockBegin
  2
*PAPER_SPACE
 70
     0
 10
0.0
 20
0.0
 30
0.0
  3
*PAPER_SPACE
  1

  0
ENDBLK
  5
29
330
27
100
AcDbEntity
 67
     1
  8
0
100
AcDbBlockEnd
  0
ENDSEC
  0
SECTION
  2
ENTITIES
  0
LINE
  5
AA
330
1B
100
AcDbEntity
  8
4
100
AcDbLine
 10
519.8846026092335
 20
197.6133298915169
 30
0.0
 11
518.8846026092335
 21
196.6133298915169
 31
0.0
  0
LINE
  5
AB
330
1B
100
AcDbEntity
  8
4
100
AcDbLine
 10
595.8846031092332
 20
198.1133298915169
 30
0.0
 11
578.8846026092335
 21
198.1133298915169
 31
0.0
  0
LINE
  5
AC
330
1B
100
AcDbEntity
  8
4
100
AcDbLine
 10
595.8846031092332
 20
205.6133298915169
 30
0.0
 11
596.8846031092337
 21
205.6133298915169
 31
0.0
  0
LINE
  5
AD
330
1B
100
AcDbEntity
  8
4
100
AcDbLine
 10
573.8846026092335
 20
201.1133298915169
 30
0.0
 11
573.8846026092335
 21
197.6133298915169
 31
0.0
  0
LINE
  5
AE
330
1B
100
AcDbEntity
  8
4
100
AcDbLine
 10
578.8846026092335
 20
197.6133298915169
 30
0.0
 11
519.8846026092335
 21
197.6133298915169
 31
0.0
  0
LINE
  5
AF
330
1B
100
AcDbEntity
  8
4
100
AcDbLine
 10
573.8846026092335
 20
201.1133298915169
 30
0.0
 11
518.8846026092335
 21
201.1133298915169
 31
0.0
  0
LINE
  5
B0
330
1B
100
AcDbEntity
  8
4
100
AcDbLine
 10
518.8846026092335
 20
164.6133298915169
 30
0.0
 11
519.8846026092335
 21
163.6133298915169
 31
0.0
  0
LINE
  5
B3
330
1B
100
AcDbEntity
  8
4
100
AcDbLine
 10
595.8846031092332
 20
163.1133298915169
 30
0.0
 11
578.8846026092335
 21
163.1133298915169
 31
0.0
  0
LINE
  5
B4
330
1B
100
AcDbEntity
  8
4
100
AcDbLine
 10
595.8846031092332
 20
155.6133298915169
 30
0.0
 11
596.8846031092337
 21
155.6133298915169
 31
0.0
  0
LINE
  5
B5
330
1B
100
AcDbEntity
  8
4
100
AcDbLine
 10
578.8846026092335
 20
163.6133298915169
 30
0.0
 11
519.8846026092335
 21
163.6133298915169
 31
0.0
  0
LINE
  5
B6
330
1B
100
AcDbEntity
  8
4
100
AcDbLine
 10
578.8846026092335
 20
198.1133298915169
 30
0.0
 11
578.8846026092335
 21
163.1133298915169
 31
0.0
  0
LINE
  5
B7
330
1B
100
AcDbEntity
  8
4
100
AcDbLine
 10
595.8846031092332
 20
205.6133298915169
 30
0.0
 11
595.8846031092332
 21
155.6133298915169
 31
0.0
  0
LINE
  5
B8
330
1B
100
AcDbEntity
  8
4
100
AcDbLine
 10
519.8846026092335
 20
197.6133298915169
 30
0.0
 11
519.8846026092335
 21
163.6133298915169
 31
0.0
  0
LINE
  5
B9
330
1B
100
AcDbEntity
  8
4
100
AcDbLine
 10
518.8846026092335
 20
201.1133298915169
 30
0.0
 11
518.8846026092335
 21
164.6133298915169
 31
0.0
  0
LINE
  5
BA
330
1B
100
AcDbEntity
  8
4
100
AcDbLine
 10
338.2527463361384
 20
461.8803068331858
 30
0.0
 11
337.2527463361384
 21
460.8803068331858
 31
0.0
  0
LINE
  5
BB
330
1B
100
AcDbEntity
  8
4
100
AcDbLine
 10
304.2527463361384
 20
461.8803068331858
 30
0.0
 11
305.2527463361384
 21
460.8803068331858
 31
0.0
  0
LINE
  5
BC
330
1B
100
AcDbEntity
  8
4
100
AcDbLine
 10
304.2527463361384
 20
461.8803068331858
 30
0.0
 11
316.2527463361384
 21
461.8803068331858
 31
0.0
  0
LINE
  5
BD
330
1B
100
AcDbEntity
  8
4
100
AcDbLine
 10
326.2527463361384
 20
461.8803068331858
 30
0.0
 11
338.2527463361384
 21
461.8803068331858
 31
0.0
  0
LINE
  5
BE
330
1B
100
AcDbEntity
  8
4
100
AcDbLine
 10
305.2527463361384
 20
460.8803068331858
 30
0.0
 11
337.2527463361384
 21
460.8803068331858
 31
0.0
  0
ARC
  5
BF
330
1B
100
AcDbEntity
  8
4
100
AcDbCircle
 10
338.7527463361384
 20
520.3803068331856
 30
0.0
 40
0.5
100
AcDbArc
 50
90.0
 51
180.0
  0
LINE
  5
C0
330
1B
100
AcDbEntity
  8
4
100
AcDbLine
 10
338.7527463361384
 20
520.8803068331858
 30
0.0
 11
338.7527463361384
 21
520.8803068331858
 31
0.0
  0
ARC
  5
C1
330
1B
100
AcDbEntity
  8
4
100
AcDbCircle
 10
303.7527463361384
 20
520.3803068331856
 30
0.0
 40
0.5
100
AcDbArc
 50
0.0
 51
90.0
  0
LINE
  5
C2
330
1B
100
AcDbEntity
  8
4
100
AcDbLine
 10
303.7527463361384
 20
520.8803068331858
 30
0.0
 11
303.7527463361384
 21
520.8803068331858
 31
0.0
  0
ARC
  5
C3
330
1B
100
AcDbEntity
  8
4
100
AcDbCircle
 10
321.2527463361384
 20
510.8803068331856
 30
0.0
 40
5.0
100
AcDbArc
 50
0.0
 51
180.0
  0
LINE
  5
C4
330
1B
100
AcDbEntity
  8
4
100
AcDbLine
 10
338.7527463361384
 20
520.8803068331858
 30
0.0
 11
303.7527463361384
 21
520.8803068331858
 31
0.0
  0
LINE
  5
C5
330
1B
100
AcDbEntity
  8
4
100
AcDbLine
 10
346.2527463361384
 20
537.880307333186
 30
0.0
 11
346.2527463361384
 21
538.880307333186
 31
0.0
  0
LINE
  5
C6
330
1B
100
AcDbEntity
  8
4
100
AcDbLine
 10
296.2527463361384
 20
537.880307333186
 30
0.0
 11
296.2527463361384
 21
538.880307333186
 31
0.0
  0
LINE
  5
C7
330
1B
100
AcDbEntity
  8
4
100
AcDbLine
 10
296.2527463361384
 20
537.880307333186
 30
0.0
 11
346.2527463361384
 21
537.880307333186
 31
0.0
  0
LINE
  5
C8
330
1B
100
AcDbEntity
  8
4
100
AcDbLine
 10
303.7527463361384
 20
537.880307333186
 30
0.0
 11
303.7527463361384
 21
520.8803068331858
 31
0.0
  0
LINE
  5
C9
330
1B
100
AcDbEntity
  8
4
100
AcDbLine
 10
338.7527463361384
 20
537.880307333186
 30
0.0
 11
338.7527463361384
 21
520.8803068331858
 31
0.0
  0
LINE
  5
CA
330
1B
100
AcDbEntity
  8
4
100
AcDbLine
 10
326.2527463361384
 20
510.8803068331858
 30
0.0
 11
326.2527463361384
 21
460.8803068331858
 31
0.0
  0
LINE
  5
CB
330
1B
100
AcDbEntity
  8
4
100
AcDbLine
 10
316.2527463361384
 20
510.8803068331858
 30
0.0
 11
316.2527463361384
 21
460.8803068331858
 31
0.0
  0
LINE
  5
CC
330
1B
100
AcDbEntity
  8
4
100
AcDbLine
 10
338.2527463361384
 20
520.3803068331858
 30
0.0
 11
338.2527463361384
 21
461.8803068331858
 31
0.0
  0
LINE
  5
CD
330
1B
100
AcDbEntity
  8
4
100
AcDbLine
 10
304.2527463361384
 20
520.3803068331858
 30
0.0
 11
304.2527463361384
 21
461.8803068331858
 31
0.0
  0
ARC
  5
CE
330
1B
100
AcDbEntity
  8
4
100
AcDbCircle
 10
321.2527463361384
 20
180.6133298915169
 30
0.0
 40
16.9999725
100
AcDbArc
 50
107.104663698329
 51
72.89533500000049
  0
LINE
  5
CF
330
1B
100
AcDbEntity
  8
4
100
AcDbLine
 10
326.2527463361384
 20
193.1133298915169
 30
0.0
 11
326.2527463361384
 21
201.1133298915169
 31
0.0
  0
LINE
  5
D0
330
1B
100
AcDbEntity
  8
4
100
AcDbLine
 10
316.2527463361384
 20
201.1133298915169
 30
0.0
 11
316.2527463361384
 21
193.1133298915169
 31
0.0
  0
LINE
  5
D1
330
1B
100
AcDbEntity
  8
4
100
AcDbLine
 10
326.2527463361384
 20
193.1133298915169
 30
0.0
 11
316.2527463361384
 21
193.1133298915169
 31
0.0
  0
LINE
  5
D2
330
1B
100
AcDbEntity
  8
4
100
AcDbLine
 10
326.2527463361384
 20
201.1133298915169
 30
0.0
 11
316.2527463361384
 21
201.1133298915169
 31
0.0
  0
CIRCLE
  5
D3
330
1B
100
AcDbEntity
  8
4
100
AcDbCircle
 10
321.2527463361384
 20
180.613329891517
 30
0.0
 40
25.0
  0
LINE
  5
D4
330
1B
100
AcDbEntity
  8
4
100
AcDbLine
 10
142.2527463361384
 20
628.3803068331858
 30
0.0
 11
141.2527463361384
 21
627.3803068331858
 31
0.0
  0
LINE
  5
D5
330
1B
100
AcDbEntity
  8
4
100
AcDbLine
 10
142.2527463361384
 20
628.3803068331858
 30
0.0
 11
141.2527463361384
 21
627.3803068331858
 31
0.0
  0
LINE
  5
D6
330
1B
100
AcDbEntity
  8
4
100
AcDbLine
 10
142.2527463361384
 20
628.3803068331858
 30
0.0
 11
142.2527463361384
 21
619.3803068331858
 31
0.0
  0
LINE
  5
D7
330
1B
100
AcDbEntity
  8
4
100
AcDbLine
 10
142.2527463361384
 20
628.3803068331858
 30
0.0
 11
142.2527463361384
 21
619.3803068331858
 31
0.0
  0
LINE
  5
D8
330
1B
100
AcDbEntity
  8
4
100
AcDbLine
 10
209.7527463361384
 20
630.8803068331858
 30
0.0
 11
191.2527463361384
 21
630.8803068331858
 31
0.0
  0
LINE
  5
D9
330
1B
100
AcDbEntity
  8
4
100
AcDbLine
 10
209.7527463361384
 20
630.8803068331858
 30
0.0
 11
191.2527463361384
 21
630.8803068331858
 31
0.0
  0
ARC
  5
DA
330
1B
100
AcDbEntity
  8
4
100
AcDbCircle
 10
182.7527463361384
 20
615.8803068331858
 30
0.0
 40
3.5
100
AcDbArc
 50
270.0
 51
90.0
  0
ARC
  5
DB
330
1B
100
AcDbEntity
  8
4
100
AcDbCircle
 10
182.7527463361384
 20
615.8803068331858
 30
0.0
 40
3.5
100
AcDbArc
 50
270.0
 51
90.0
  0
ARC
  5
DC
330
1B
100
AcDbEntity
  8
4
100
AcDbCircle
 10
190.2527463361384
 20
629.3803068331858
 30
0.0
 40
1.0
100
AcDbArc
 50
270.0
 51
0.0
  0
ARC
  5
DD
330
1B
100
AcDbEntity
  8
4
100
AcDbCircle
 10
190.2527463361384
 20
629.3803068331858
 30
0.0
 40
1.0
100
AcDbArc
 50
270.0
 51
0.0
  0
LINE
  5
DE
330
1B
100
AcDbEntity
  8
4
100
AcDbLine
 10
182.7527463361384
 20
612.3803068331858
 30
0.0
 11
141.2527463361384
 21
612.3803068331858
 31
0.0
  0
LINE
  5
DF
330
1B
100
AcDbEntity
  8
4
100
AcDbLine
 10
182.7527463361384
 20
612.3803068331858
 30
0.0
 11
141.2527463361384
 21
612.3803068331858
 31
0.0
  0
LINE
  5
E0
330
1B
100
AcDbEntity
  8
4
100
AcDbLine
 10
182.7527463361384
 20
619.3803068331858
 30
0.0
 11
141.2527463361384
 21
619.3803068331858
 31
0.0
  0
LINE
  5
E1
330
1B
100
AcDbEntity
  8
4
100
AcDbLine
 10
182.7527463361384
 20
619.3803068331858
 30
0.0
 11
141.2527463361384
 21
619.3803068331858
 31
0.0
  0
LINE
  5
E2
330
1B
100
AcDbEntity
  8
4
100
AcDbLine
 10
190.2527463361384
 20
628.3803068331858
 30
0.0
 11
142.2527463361384
 21
628.3803068331858
 31
0.0
  0
LINE
  5
E3
330
1B
100
AcDbEntity
  8
4
100
AcDbLine
 10
190.2527463361384
 20
628.3803068331858
 30
0.0
 11
142.2527463361384
 21
628.3803068331858
 31
0.0
  0
LINE
  5
E4
330
1B
100
AcDbEntity
  8
4
100
AcDbLine
 10
142.2527463361384
 20
603.3803068331858
 30
0.0
 11
141.2527463361384
 21
604.3803068331858
 31
0.0
  0
LINE
  5
E5
330
1B
100
AcDbEntity
  8
4
100
AcDbLine
 10
142.2527463361384
 20
603.3803068331858
 30
0.0
 11
141.2527463361384
 21
604.3803068331858
 31
0.0
  0
LINE
  5
E6
330
1B
100
AcDbEntity
  8
4
100
AcDbLine
 10
209.7527463361384
 20
600.8803068331858
 30
0.0
 11
191.2527463361384
 21
600.8803068331858
 31
0.0
  0
LINE
  5
E7
330
1B
100
AcDbEntity
  8
4
100
AcDbLine
 10
209.7527463361384
 20
600.8803068331858
 30
0.0
 11
191.2527463361384
 21
600.8803068331858
 31
0.0
  0
ARC
  5
E8
330
1B
100
AcDbEntity
  8
4
100
AcDbCircle
 10
190.2527463361384
 20
602.3803068331858
 30
0.0
 40
1.0
100
AcDbArc
 50
0.0
 51
90.0
  0
ARC
  5
E9
330
1B
100
AcDbEntity
  8
4
100
AcDbCircle
 10
190.2527463361384
 20
602.3803068331858
 30
0.0
 40
1.0
100
AcDbArc
 50
0.0
 51
90.0
  0
LINE
  5
EA
330
1B
100
AcDbEntity
  8
4
100
AcDbLine
 10
190.2527463361384
 20
603.3803068331858
 30
0.0
 11
142.2527463361384
 21
603.3803068331858
 31
0.0
  0
LINE
  5
EB
330
1B
100
AcDbEntity
  8
4
100
AcDbLine
 10
190.2527463361384
 20
603.3803068331858
 30
0.0
 11
142.2527463361384
 21
603.3803068331858
 31
0.0
  0
LINE
  5
EC
330
1B
100
AcDbEntity
  8
4
100
AcDbLine
 10
141.2527463361384
 20
627.3803068331858
 30
0.0
 11
141.2527463361384
 21
604.3803068331858
 31
0.0
  0
LINE
  5
ED
330
1B
100
AcDbEntity
  8
4
100
AcDbLine
 10
141.2527463361384
 20
627.3803068331858
 30
0.0
 11
141.2527463361384
 21
604.3803068331858
 31
0.0
  0
LINE
  5
EE
330
1B
100
AcDbEntity
  8
4
100
AcDbLine
 10
191.2527463361384
 20
630.8803068331858
 30
0.0
 11
191.2527463361384
 21
600.8803068331858
 31
0.0
  0
LINE
  5
EF
330
1B
100
AcDbEntity
  8
4
100
AcDbLine
 10
191.2527463361384
 20
630.8803068331858
 30
0.0
 11
191.2527463361384
 21
600.8803068331858
 31
0.0
  0
LINE
  5
F0
330
1B
100
AcDbEntity
  8
4
100
AcDbLine
 10
142.2527463361384
 20
612.3803068331858
 30
0.0
 11
142.2527463361384
 21
603.3803068331858
 31
0.0
  0
LINE
  5
F1
330
1B
100
AcDbEntity
  8
4
100
AcDbLine
 10
142.2527463361384
 20
612.3803068331858
 30
0.0
 11
142.2527463361384
 21
603.3803068331858
 31
0.0
  0
LINE
  5
105
330
1B
100
AcDbEntity
  8
4
100
AcDbLine
 10
142.2527463361384
 20
293.113330391517
 30
0.0
 11
141.2527463361384
 21
292.113330391517
 31
0.0
  0
LINE
  5
106
330
1B
100
AcDbEntity
  8
4
100
AcDbLine
 10
209.7527463361384
 20
295.613330391517
 30
0.0
 11
191.2527463361384
 21
295.613330391517
 31
0.0
  0
LINE
  5
107
330
1B
100
AcDbEntity
  8
4
100
AcDbLine
 10
186.2527463361384
 20
293.113330391517
 30
0.0
 11
186.2527463361384
 21
296.113330391517
 31
0.0
  0
LINE
  5
108
330
1B
100
AcDbEntity
  8
4
100
AcDbLine
 10
191.2527463361384
 20
293.113330391517
 30
0.0
 11
142.2527463361384
 21
293.113330391517
 31
0.0
  0
LINE
  5
109
330
1B
100
AcDbEntity
  8
4
100
AcDbLine
 10
141.2527463361384
 20
296.113330391517
 30
0.0
 11
186.2527463361384
 21
296.113330391517
 31
0.0
  0
LINE
  5
10A
330
1B
100
AcDbEntity
  8
4
100
AcDbLine
 10
141.2527463361384
 20
269.113330391517
 30
0.0
 11
142.2527463361384
 21
268.113330391517
 31
0.0
  0
LINE
  5
10B
330
1B
100
AcDbEntity
  8
4
100
AcDbLine
 10
209.7527463361384
 20
265.613330391517
 30
0.0
 11
191.2527463361384
 21
265.613330391517
 31
0.0
  0
LINE
  5
10C
330
1B
100
AcDbEntity
  8
4
100
AcDbLine
 10
191.2527463361384
 20
268.113330391517
 30
0.0
 11
142.2527463361384
 21
268.113330391517
 31
0.0
  0
LINE
  5
10D
330
1B
100
AcDbEntity
  8
4
100
AcDbLine
 10
142.2527463361384
 20
293.113330391517
 30
0.0
 11
142.2527463361384
 21
268.113330391517
 31
0.0
  0
LINE
  5
10E
330
1B
100
AcDbEntity
  8
4
100
AcDbLine
 10
141.2527463361384
 20
269.113330391517
 30
0.0
 11
141.2527463361384
 21
296.113330391517
 31
0.0
  0
LINE
  5
10F
330
1B
100
AcDbEntity
  8
4
100
AcDbLine
 10
191.2527463361384
 20
295.613330391517
 30
0.0
 11
191.2527463361384
 21
265.613330391517
 31
0.0
  0
LINE
  5
110
330
1B
100
AcDbEntity
  8
4
100
AcDbLine
 10
1148.264377272448
 20
293.113330391517
 30
0.0
 11
1149.264377272448
 21
292.113330391517
 31
0.0
  0
LINE
  5
111
330
1B
100
AcDbEntity
  8
4
100
AcDbLine
 10
1104.264377272448
 20
293.113330391517
 30
0.0
 11
1104.264377272448
 21
296.113330391517
 31
0.0
  0
LINE
  5
112
330
1B
100
AcDbEntity
  8
4
100
AcDbLine
 10
1149.264377272448
 20
296.113330391517
 30
0.0
 11
1104.264377272448
 21
296.113330391517
 31
0.0
  0
LINE
  5
113
330
1B
100
AcDbEntity
  8
4
100
AcDbLine
 10
1099.264377272448
 20
293.113330391517
 30
0.0
 11
1148.264377272448
 21
293.113330391517
 31
0.0
  0
LINE
  5
114
330
1B
100
AcDbEntity
  8
4
100
AcDbLine
 10
1080.764377272448
 20
295.613330391517
 30
0.0
 11
1099.264377272448
 21
295.613330391517
 31
0.0
  0
LINE
  5
115
330
1B
100
AcDbEntity
  8
4
100
AcDbLine
 10
1149.264377272448
 20
269.113330391517
 30
0.0
 11
1148.264377272448
 21
268.113330391517
 31
0.0
  0
LINE
  5
116
330
1B
100
AcDbEntity
  8
4
100
AcDbLine
 10
1099.264377272448
 20
268.113330391517
 30
0.0
 11
1148.264377272448
 21
268.113330391517
 31
0.0
  0
LINE
  5
117
330
1B
100
AcDbEntity
  8
4
100
AcDbLine
 10
1080.764377272448
 20
265.613330391517
 30
0.0
 11
1099.264377272448
 21
265.613330391517
 31
0.0
  0
LINE
  5
118
330
1B
100
AcDbEntity
  8
4
100
AcDbLine
 10
1099.264377272448
 20
295.613330391517
 30
0.0
 11
1099.264377272448
 21
265.613330391517
 31
0.0
  0
LINE
  5
119
330
1B
100
AcDbEntity
  8
4
100
AcDbLine
 10
1149.264377272448
 20
269.113330391517
 30
0.0
 11
1149.264377272448
 21
296.113330391517
 31
0.0
  0
LINE
  5
11A
330
1B
100
AcDbEntity
  8
4
100
AcDbLine
 10
1148.264377272448
 20
293.113330391517
 30
0.0
 11
1148.264377272448
 21
268.113330391517
 31
0.0
  0
CIRCLE
  5
11B
330
1B
100
AcDbEntity
  8
4
100
AcDbCircle
 10
321.2527463361384
 20
180.6133298915169
 30
0.0
 40
105.0
  0
CIRCLE
  5
11C
330
1B
100
AcDbEntity
  8
4
100
AcDbCircle
 10
321.2527463361384
 20
180.6133298915169
 30
0.0
 40
93.0
  0
LINE
  5
125
330
1B
100
AcDbEntity
  8
L-CENTER
 48
2.5
100
AcDbLine
 10
1079.264376772448
 20
93.20246890873909
 30
0.0
 11
1079.264376772448
 21
53.30648339151674
 31
0.0
  0
LINE
  5
126
330
1B
100
AcDbEntity
  8
L-CENTER
 48
2.5
100
AcDbLine
 10
859.2643777724479
 20
93.20246890873909
 30
0.0
 11
859.2643777724479
 21
53.30648339151674
 31
0.0
  0
LINE
  5
173
330
1B
100
AcDbEntity
  8
4
100
AcDbLine
 10
248.7532363361383
 20
332.1133298915169
 30
0.0
 11
273.7532363361383
 21
332.1133298915169
 31
0.0
  0
LINE
  5
174
330
1B
100
AcDbEntity
  8
4
100
AcDbLine
 10
248.7532363361383
 20
328.1133298915169
 30
0.0
 11
273.7532363361383
 21
328.1133298915169
 31
0.0
  0
LINE
  5
175
330
1B
100
AcDbEntity
  8
4
100
AcDbLine
 10
248.7532363361383
 20
326.1133298915169
 30
0.0
 11
273.7532363361383
 21
326.1133298915169
 31
0.0
  0
LINE
  5
176
330
1B
100
AcDbEntity
  8
4
 62
     3
100
AcDbLine
 10
280.2527468361386
 20
324.6133298915169
 30
0.0
 11
242.2527458361383
 21
324.6133298915169
 31
0.0
  0
LINE
  5
177
330
1B
100
AcDbEntity
  8
4
 62
     3
100
AcDbLine
 10
218.2510137856063
 20
323.6133293915169
 30
0.0
 11
424.2527468361384
 21
323.6133293915169
 31
0.0
  0
ARC
  5
178
330
1B
100
AcDbEntity
  8
4
 62
     3
100
AcDbCircle
 10
321.2527463361384
 20
-42.38667060848329
 30
0.0
 40
330.0
100
AcDbArc
 50
73.92705600000002
 51
106.0734741062263
  0
LINE
  5
179
330
1B
100
AcDbEntity
  8
4
 62
     3
100
AcDbLine
 10
236.2876913361383
 20
202.067220891517
 30
0.0
 11
277.7704898361385
 21
205.4098118915168
 31
0.0
  0
LINE
  5
17A
330
1B
100
AcDbEntity
  8
4
 62
     3
100
AcDbLine
 10
236.2876913361383
 20
159.1594388915167
 30
0.0
 11
277.7704898361385
 21
155.8168478915169
 31
0.0
  0
LINE
  5
17B
330
1B
100
AcDbEntity
  8
L-CENTER
 48
2.5
100
AcDbLine
 10
208.3260413361386
 20
180.6133298915169
 30
0.0
 11
434.1794513361383
 21
180.6133298915169
 31
0.0
  0
ARC
  5
1D9
330
1B
100
AcDbEntity
  8
4
100
AcDbCircle
 10
321.2527463361384
 20
574.4008757151119
 30
0.0
 40
20.36274126524963
100
AcDbArc
 50
207.8752808740769
 51
332.1247191259231
  0
ARC
  5
1DA
330
1B
100
AcDbEntity
  8
4
100
AcDbCircle
 10
417.2527458361383
 20
571.8803063331859
 30
0.0
 40
2.0
100
AcDbArc
 50
270.0
 51
0.0
  0
ARC
  5
1DB
330
1B
100
AcDbEntity
  8
4
100
AcDbCircle
 10
353.2527328361384
 20
571.8803063331859
 30
0.0
 40
2.0
100
AcDbArc
 50
180.0
 51
270.0
  0
LINE
  5
1DC
330
1B
100
AcDbEntity
  8
4
 62
     3
100
AcDbLine
 10
419.2527458361383
 20
572.8803063331859
 30
0.0
 11
419.2527458361383
 21
571.8803063331859
 31
0.0
  0
LINE
  5
1DD
330
1B
100
AcDbEntity
  8
4
 62
     3
100
AcDbLine
 10
351.2527328361384
 20
571.8803063331859
 30
0.0
 11
351.2527328361384
 21
572.8803063331859
 31
0.0
  0
ARC
  5
1DE
330
1B
100
AcDbEntity
  8
4
 62
     3
100
AcDbCircle
 10
631.6832633384058
 20
316.7223929745609
 30
0.0
 40
1.0
100
AcDbArc
 50
85.9999999999905
 51
175.999999999997
  0
LINE
  5
1DF
330
1B
100
AcDbEntity
  8
4
 62
     3
100
AcDbLine
 10
631.7530198121501
 20
317.7199570248207
 30
0.0
 11
634.1672893711814
 21
317.5511348513853
 31
0.0
  0
LINE
  5
1E0
330
1B
100
AcDbEntity
  8
4
 62
     3
100
AcDbLine
 10
629.8695952303281
 20
290.7857306604977
 30
0.0
 11
632.0519763958871
 21
290.6331237031446
 31
0.0
  0
ARC
  5
1E1
330
1B
100
AcDbEntity
  8
4
 62
     3
100
AcDbCircle
 10
629.9393517040724
 20
291.7832947107576
 30
0.0
 40
1.0
100
AcDbArc
 50
175.999999999997
 51
265.9999999999905
  0
LINE
  5
1E2
330
1B
100
AcDbEntity
  8
4
 62
     3
100
AcDbLine
 10
628.9417876538125
 20
291.8530511845017
 30
0.0
 11
630.685699288146
 21
316.7921494483051
 31
0.0
  0
LINE
  5
1E3
330
1B
100
AcDbEntity
  8
4
 62
     3
100
AcDbLine
 10
303.2527463361384
 20
255.6133303915169
 30
0.0
 11
303.2527463361384
 21
267.5441039239025
 31
0.0
  0
ARC
  5
1E4
330
1B
100
AcDbEntity
  8
4
 62
     3
100
AcDbCircle
 10
417.2527463361384
 20
315.613328391517
 30
0.0
 40
1.9999995
100
AcDbArc
 50
0.0
 51
90.0
  0
LINE
  5
1E5
330
1B
100
AcDbEntity
  8
4
 62
     3
100
AcDbLine
 10
408.8189363361389
 20
314.113328391517
 30
0.0
 11
412.2527468361386
 21
314.113328391517
 31
0.0
  0
ARC
  5
1E6
330
1B
100
AcDbEntity
  8
4
 62
     3
100
AcDbCircle
 10
408.8189363361389
 20
313.1133293915169
 30
0.0
 40
1.0000005
100
AcDbArc
 50
90.0
 51
149.0362430000028
  0
ARC
  5
1E7
330
1B
100
AcDbEntity
  8
4
 62
     3
100
AcDbCircle
 10
412.2527468361386
 20
313.1133293915169
 30
0.0
 40
1.0000005
100
AcDbArc
 50
0.0
 51
90.0
  0
LINE
  5
1E8
330
1B
100
AcDbEntity
  8
4
 62
     3
100
AcDbLine
 10
395.7527468361386
 20
306.613328391517
 30
0.0
 11
392.7527468361386
 21
306.613328391517
 31
0.0
  0
ARC
  5
1E9
330
1B
100
AcDbEntity
  8
4
 62
     3
100
AcDbCircle
 10
417.2527463361384
 20
292.6133333915169
 30
0.0
 40
1.9999995
100
AcDbArc
 50
270.0
 51
0.0
  0
ARC
  5
1EA
330
1B
100
AcDbEntity
  8
4
 62
     3
100
AcDbCircle
 10
414.7527458361383
 20
300.613328391517
 30
0.0
 40
1.0000005
100
AcDbArc
 50
0.0
 51
90.0
  0
LINE
  5
1EB
330
1B
100
AcDbEntity
  8
4
 62
     3
100
AcDbLine
 10
409.2527468361386
 20
294.113328891517
 30
0.0
 11
412.2527468361386
 21
294.113328891517
 31
0.0
  0
ARC
  5
1EC
330
1B
100
AcDbEntity
  8
4
 62
     3
100
AcDbCircle
 10
407.2527458361383
 20
295.613328891517
 30
0.0
 40
1.0000005
100
AcDbArc
 50
0.0
 51
90.0
  0
LINE
  5
1ED
330
1B
100
AcDbEntity
  8
4
 62
     3
100
AcDbLine
 10
408.2527463361384
 20
295.613328891517
 30
0.0
 11
408.2527463361384
 21
295.1133293915169
 31
0.0
  0
ARC
  5
1EE
330
1B
100
AcDbEntity
  8
4
 62
     3
100
AcDbCircle
 10
409.2527468361386
 20
295.1133293915169
 30
0.0
 40
1.0000005
100
AcDbArc
 50
180.0
 51
270.0
  0
LINE
  5
1EF
330
1B
100
AcDbEntity
  8
4
 62
     3
100
AcDbLine
 10
415.7527463361384
 20
300.613328391517
 30
0.0
 11
415.7527463361384
 21
297.613328391517
 31
0.0
  0
LINE
  5
1F0
330
1B
100
AcDbEntity
  8
4
 62
     3
100
AcDbLine
 10
414.2527463361384
 20
296.6133293915169
 30
0.0
 11
414.7527458361383
 21
296.6133293915169
 31
0.0
  0
LINE
  5
1F1
330
1B
100
AcDbEntity
  8
4
 62
     3
100
AcDbLine
 10
413.2527458361383
 20
295.1133293915169
 30
0.0
 11
413.2527458361383
 21
295.613328891517
 31
0.0
  0
ARC
  5
1F2
330
1B
100
AcDbEntity
  8
4
 62
     3
100
AcDbCircle
 10
412.2527468361386
 20
295.1133293915169
 30
0.0
 40
1.0000005
100
AcDbArc
 50
270.0
 51
0.0
  0
ARC
  5
1F3
330
1B
100
AcDbEntity
  8
4
 62
     3
100
AcDbCircle
 10
414.2527463361384
 20
295.613328891517
 30
0.0
 40
1.0000005
100
AcDbArc
 50
90.0
 51
180.0
  0
ARC
  5
1F4
330
1B
100
AcDbEntity
  8
4
 62
     3
100
AcDbCircle
 10
414.7527458361383
 20
297.613328391517
 30
0.0
 40
1.0000005
100
AcDbArc
 50
270.0
 51
0.0
  0
LINE
  5
1F5
330
1B
100
AcDbEntity
  8
4
 62
     3
100
AcDbLine
 10
414.2527463361384
 20
301.613328891517
 30
0.0
 11
414.7527458361383
 21
301.613328891517
 31
0.0
  0
ARC
  5
1F6
330
1B
100
AcDbEntity
  8
4
 62
     3
100
AcDbCircle
 10
414.2527463361384
 20
302.6133293915169
 30
0.0
 40
1.0000005
100
AcDbArc
 50
180.0
 51
270.0
  0
LINE
  5
1F7
330
1B
100
AcDbEntity
  8
4
 62
     3
100
AcDbLine
 10
395.7527468361386
 20
301.613328891517
 30
0.0
 11
392.7527468361386
 21
301.613328891517
 31
0.0
  0
LINE
  5
1F8
330
1B
100
AcDbEntity
  8
4
 62
     3
100
AcDbLine
 10
396.7527458361383
 20
302.6133293915169
 30
0.0
 11
396.7527458361383
 21
305.6133293915169
 31
0.0
  0
ARC
  5
1F9
330
1B
100
AcDbEntity
  8
4
 62
     3
100
AcDbCircle
 10
395.7527468361386
 20
302.6133293915169
 30
0.0
 40
1.0000005
100
AcDbArc
 50
270.0
 51
0.0
  0
LINE
  5
1FA
330
1B
100
AcDbEntity
  8
4
 62
     3
100
AcDbLine
 10
400.7527463361384
 20
301.3363448915171
 30
0.0
 11
400.7527463361384
 21
297.613328391517
 31
0.0
  0
ARC
  5
1FB
330
1B
100
AcDbEntity
  8
4
 62
     3
100
AcDbCircle
 10
401.7527468361386
 20
297.613328391517
 30
0.0
 40
1.0000005
100
AcDbArc
 50
180.0
 51
270.0
  0
ARC
  5
1FC
330
1B
100
AcDbEntity
  8
4
 62
     3
100
AcDbCircle
 10
401.7527468361386
 20
301.3363448915171
 30
0.0
 40
1.0000005
100
AcDbArc
 50
149.0362430000028
 51
180.0
  0
LINE
  5
1FD
330
1B
100
AcDbEntity
  8
4
 62
     3
100
AcDbLine
 10
401.7527468361386
 20
296.6133293915169
 30
0.0
 11
407.2527458361383
 21
296.6133293915169
 31
0.0
  0
ARC
  5
1FE
330
1B
100
AcDbEntity
  8
4
 62
     3
100
AcDbCircle
 10
395.7527468361386
 20
305.6133293915169
 30
0.0
 40
1.0000005
100
AcDbArc
 50
0.0
 51
90.0
  0
LINE
  5
1FF
330
1B
100
AcDbEntity
  8
4
 62
     3
100
AcDbLine
 10
419.2527458361383
 20
315.613328391517
 30
0.0
 11
419.2527458361387
 21
292.6133333915169
 31
0.0
  0
LINE
  5
200
330
1B
100
AcDbEntity
  8
4
 62
     3
100
AcDbLine
 10
400.8952538361382
 20
301.850840391517
 30
0.0
 11
407.9614433361385
 21
313.627824891517
 31
0.0
  0
LINE
  5
201
330
1B
100
AcDbEntity
  8
4
 62
     3
100
AcDbLine
 10
413.2527458361383
 20
302.6133293915169
 30
0.0
 11
413.2527458361383
 21
313.1133293915169
 31
0.0
  0
ARC
  5
202
330
1B
100
AcDbEntity
  8
4
 62
     3
100
AcDbCircle
 10
383.7527408361384
 20
310.113326391517
 30
0.0
 40
4.0000005
100
AcDbArc
 50
0.0
 51
90.0
  0
LINE
  5
203
330
1B
100
AcDbEntity
  8
4
 62
     3
100
AcDbLine
 10
387.7527398361385
 20
309.236802891517
 30
0.0
 11
387.7527398361385
 21
310.113326391517
 31
0.0
  0
ARC
  5
204
330
1B
100
AcDbEntity
  8
4
 62
     3
100
AcDbCircle
 10
373.7527373361386
 20
313.113326391517
 30
0.0
 40
1.0000005
100
AcDbArc
 50
90.0
 51
180.0
  0
LINE
  5
205
330
1B
100
AcDbEntity
  8
4
 62
     3
100
AcDbLine
 10
373.7527373361386
 20
314.113326891517
 30
0.0
 11
383.7527408361384
 21
314.113326891517
 31
0.0
  0
LINE
  5
206
330
1B
100
AcDbEntity
  8
4
 62
     3
100
AcDbLine
 10
355.7527703361384
 20
314.113326891517
 30
0.0
 11
358.7527703361384
 21
314.1133313915169
 31
0.0
  0
ARC
  5
207
330
1B
100
AcDbEntity
  8
4
 62
     3
100
AcDbCircle
 10
358.7527673361383
 20
313.1133278915171
 30
0.0
 40
1.0000005
100
AcDbArc
 50
359.9998459985447
 51
89.99984599997813
  0
ARC
  5
208
330
1B
100
AcDbEntity
  8
4
 62
     3
100
AcDbCircle
 10
353.2527323361383
 20
315.613328391517
 30
0.0
 40
1.9999995
100
AcDbArc
 50
90.0
 51
180.0
  0
ARC
  5
209
330
1B
100
AcDbEntity
  8
4
 62
     3
100
AcDbCircle
 10
355.7527688361388
 20
313.1133293915169
 30
0.0
 40
1.0000005
100
AcDbArc
 50
89.99988400002549
 51
179.9998839998386
  0
ARC
  5
20A
330
1B
100
AcDbEntity
  8
4
 62
     3
100
AcDbCircle
 10
383.7527408361384
 20
298.9898513915169
 30
0.0
 40
4.0000005
100
AcDbArc
 50
0.0
 51
52.020127999994
  0
ARC
  5
20B
330
1B
100
AcDbEntity
  8
4
 62
     3
100
AcDbCircle
 10
383.7527408361384
 20
298.1133263915168
 30
0.0
 40
4.0000005
100
AcDbArc
 50
270.0
 51
0.0
  0
LINE
  5
20C
330
1B
100
AcDbEntity
  8
4
 62
     3
100
AcDbLine
 10
387.7527398361385
 20
298.9898513915169
 30
0.0
 11
387.7527398361385
 21
298.1133263915168
 31
0.0
  0
LINE
  5
20D
330
1B
100
AcDbEntity
  8
4
 62
     3
100
AcDbLine
 10
391.7527463361384
 20
302.6133293915169
 30
0.0
 11
391.7527463361384
 21
305.6133293915169
 31
0.0
  0
LINE
  5
20E
330
1B
100
AcDbEntity
  8
4
 62
     3
100
AcDbLine
 10
368.7527303361385
 20
295.1133293915169
 30
0.0
 11
368.7527303361385
 21
298.1133293915169
 31
0.0
  0
ARC
  5
20F
330
1B
100
AcDbEntity
  8
4
 62
     3
100
AcDbCircle
 10
373.7527373361386
 20
295.1133263915168
 30
0.0
 40
1.0000005
100
AcDbArc
 50
180.0
 51
270.0
  0
LINE
  5
210
330
1B
100
AcDbEntity
  8
4
 62
     3
100
AcDbLine
 10
373.7527373361386
 20
294.1133273915171
 30
0.0
 11
383.7527408361384
 21
294.1133273915171
 31
0.0
  0
LINE
  5
211
330
1B
100
AcDbEntity
  8
4
 62
     3
100
AcDbLine
 10
355.7527298361383
 20
294.1133273915171
 30
0.0
 11
367.7527298361383
 21
294.113328891517
 31
0.0
  0
LINE
  5
212
330
1B
100
AcDbEntity
  8
4
 62
     3
100
AcDbLine
 10
360.7527323361383
 20
299.113328391517
 30
0.0
 11
367.7527298361383
 21
299.113328391517
 31
0.0
  0
ARC
  5
213
330
1B
100
AcDbEntity
  8
4
 62
     3
100
AcDbCircle
 10
360.7527323361383
 20
300.113328891517
 30
0.0
 40
1.0000005
100
AcDbArc
 50
180.0
 51
270.0
  0
ARC
  5
214
330
1B
100
AcDbEntity
  8
4
 62
     3
100
AcDbCircle
 10
353.2527323361383
 20
292.6133333915169
 30
0.0
 40
1.9999995
100
AcDbArc
 50
180.0
 51
270.0
  0
ARC
  5
215
330
1B
100
AcDbEntity
  8
4
 62
     3
100
AcDbCircle
 10
355.7527328361384
 20
295.1133293915169
 30
0.0
 40
1.0000005
100
AcDbArc
 50
179.9998839998386
 51
269.9998840000255
  0
ARC
  5
216
330
1B
100
AcDbEntity
  8
4
 62
     3
100
AcDbCircle
 10
367.7527298361383
 20
298.1133293915169
 30
0.0
 40
1.0000005
100
AcDbArc
 50
0.0
 51
90.0
  0
ARC
  5
217
330
1B
100
AcDbEntity
  8
4
 62
     3
100
AcDbCircle
 10
367.7527298361383
 20
295.1133293915169
 30
0.0
 40
1.0000005
100
AcDbArc
 50
270.0
 51
0.0
  0
LINE
  5
218
330
1B
100
AcDbEntity
  8
4
 62
     3
100
AcDbLine
 10
339.2527463361384
 20
255.6133303915169
 30
0.0
 11
339.2527463361384
 21
267.5441039239025
 31
0.0
  0
LINE
  5
219
330
1B
100
AcDbEntity
  8
4
 62
     3
100
AcDbLine
 10
351.2527328361384
 20
292.6133333915169
 30
0.0
 11
351.2527328361384
 21
315.613328391517
 31
0.0
  0
LINE
  5
21A
330
1B
100
AcDbEntity
  8
4
 62
     3
100
AcDbLine
 10
372.7527368361389
 20
295.1133263915168
 30
0.0
 11
372.7527368361389
 21
313.113326391517
 31
0.0
  0
LINE
  5
21B
330
1B
100
AcDbEntity
  8
4
 62
     3
100
AcDbLine
 10
354.7527323361383
 20
295.113330891517
 30
0.0
 11
354.7527683361386
 21
313.113330891517
 31
0.0
  0
LINE
  5
21C
330
1B
100
AcDbEntity
  8
4
 62
     3
100
AcDbLine
 10
359.7527303361385
 20
300.113328891517
 30
0.0
 11
359.7527678361384
 21
313.113326391517
 31
0.0
  0
ARC
  5
21D
330
1B
100
AcDbEntity
  8
4
 62
     3
100
AcDbCircle
 10
383.7527408361384
 20
309.236802891517
 30
0.0
 40
4.0000005
100
AcDbArc
 50
307.979872000006
 51
0.0
  0
ARC
  5
21E
330
1B
100
AcDbEntity
  8
4
 62
     3
100
AcDbCircle
 10
387.7527398361385
 20
304.1133263915168
 30
0.0
 40
2.5000005
100
AcDbArc
 50
127.9798719999962
 51
232.0201280000038
  0
ARC
  5
21F
330
1B
100
AcDbEntity
  8
4
 62
     3
100
AcDbCircle
 10
321.2527463361384
 20
255.613330391517
 30
0.0
 40
18.0
100
AcDbArc
 50
180.0
 51
0.0
  0
LINE
  5
220
330
1B
100
AcDbEntity
  8
4
 62
     3
100
AcDbLine
 10
353.2527323361383
 20
290.613332391517
 30
0.0
 11
417.2527463361384
 21
290.613332391517
 31
0.0
  0
LINE
  5
221
330
1B
100
AcDbEntity
  8
4
 62
     3
100
AcDbLine
 10
353.2527323361383
 20
317.6133293915169
 30
0.0
 11
417.2527463361384
 21
317.6133293915169
 31
0.0
  0
ARC
  5
222
330
1B
100
AcDbEntity
  8
4
 62
     3
100
AcDbCircle
 10
392.7527468361386
 20
305.6133293915169
 30
0.0
 40
1.0000005
100
AcDbArc
 50
90.0
 51
180.0
  0
ARC
  5
223
330
1B
100
AcDbEntity
  8
4
 62
     3
100
AcDbCircle
 10
392.7527468361386
 20
302.6133293915169
 30
0.0
 40
1.0000005
100
AcDbArc
 50
180.0
 51
270.0
  0
LINE
  5
224
330
1B
100
AcDbEntity
  8
2
100
AcDbLine
 10
1020.207752945422
 20
263.8498448661765
 30
0.0
 11
1021.651128618396
 21
266.3498448661765
 31
0.0
  0
LINE
  5
225
330
1B
100
AcDbEntity
  8
2
100
AcDbLine
 10
1017.321001599473
 20
263.8498448661765
 30
0.0
 11
1020.207752945422
 21
263.8498448661765
 31
0.0
  0
LINE
  5
226
330
1B
100
AcDbEntity
  8
2
100
AcDbLine
 10
1015.877625926499
 20
266.3498448661765
 30
0.0
 11
1017.321001599473
 21
263.8498448661765
 31
0.0
  0
LINE
  5
227
330
1B
100
AcDbEntity
  8
2
100
AcDbLine
 10
1017.321001599473
 20
268.8498448661766
 30
0.0
 11
1020.207752945422
 21
268.8498448661766
 31
0.0
  0
LINE
  5
228
330
1B
100
AcDbEntity
  8
2
100
AcDbLine
 10
1015.877625926499
 20
266.3498448661765
 30
0.0
 11
1017.321001599473
 21
268.8498448661766
 31
0.0
  0
LINE
  5
229
330
1B
100
AcDbEntity
  8
2
100
AcDbLine
 10
1020.207752945422
 20
268.8498448661766
 30
0.0
 11
1021.651128618396
 21
266.3498448661765
 31
0.0
  0
CIRCLE
  5
22A
330
1B
100
AcDbEntity
  8
4
100
AcDbCircle
 10
1018.764377272447
 20
266.3498448661765
 30
0.0
 40
5.75
  0
CIRCLE
  5
22B
330
1B
100
AcDbEntity
  8
4
100
AcDbCircle
 10
1018.764377272447
 20
266.3498448661765
 30
0.0
 40
5.0
  0
LINE
  5
22C
330
1B
100
AcDbEntity
  8
2
100
AcDbLine
 10
918.321001599473
 20
268.8498448661761
 30
0.0
 11
916.8776259264989
 21
266.349844866176
 31
0.0
  0
LINE
  5
22D
330
1B
100
AcDbEntity
  8
2
100
AcDbLine
 10
922.6511286183961
 20
266.349844866176
 30
0.0
 11
921.207752945422
 21
268.8498448661761
 31
0.0
  0
LINE
  5
22E
330
1B
100
AcDbEntity
  8
2
100
AcDbLine
 10
921.207752945422
 20
268.8498448661761
 30
0.0
 11
918.321001599473
 21
268.8498448661761
 31
0.0
  0
LINE
  5
22F
330
1B
100
AcDbEntity
  8
2
100
AcDbLine
 10
922.6511286183961
 20
266.349844866176
 30
0.0
 11
921.207752945422
 21
263.849844866176
 31
0.0
  0
LINE
  5
230
330
1B
100
AcDbEntity
  8
2
100
AcDbLine
 10
921.207752945422
 20
263.849844866176
 30
0.0
 11
918.321001599473
 21
263.849844866176
 31
0.0
  0
LINE
  5
231
330
1B
100
AcDbEntity
  8
2
100
AcDbLine
 10
918.321001599473
 20
263.849844866176
 30
0.0
 11
916.8776259264989
 21
266.349844866176
 31
0.0
  0
CIRCLE
  5
232
330
1B
100
AcDbEntity
  8
4
100
AcDbCircle
 10
919.764377272448
 20
266.349844866176
 30
0.0
 40
5.0
  0
CIRCLE
  5
233
330
1B
100
AcDbEntity
  8
4
100
AcDbCircle
 10
919.764377272448
 20
266.349844866176
 30
0.0
 40
5.75
  0
LINE
  5
234
330
1B
100
AcDbEntity
  8
2
100
AcDbLine
 10
1020.207752945422
 20
92.37681491685748
 30
0.0
 11
1021.651128618396
 21
94.8768149168576
 31
0.0
  0
LINE
  5
235
330
1B
100
AcDbEntity
  8
2
100
AcDbLine
 10
1015.8776259265
 20
94.8768149168576
 30
0.0
 11
1017.321001599474
 21
92.37681491685748
 31
0.0
  0
LINE
  5
236
330
1B
100
AcDbEntity
  8
2
100
AcDbLine
 10
1017.321001599474
 20
92.37681491685748
 30
0.0
 11
1020.207752945422
 21
92.37681491685748
 31
0.0
  0
LINE
  5
237
330
1B
100
AcDbEntity
  8
2
100
AcDbLine
 10
1015.8776259265
 20
94.8768149168576
 30
0.0
 11
1017.321001599474
 21
97.3768149168576
 31
0.0
  0
LINE
  5
238
330
1B
100
AcDbEntity
  8
2
100
AcDbLine
 10
1017.321001599474
 20
97.3768149168576
 30
0.0
 11
1020.207752945422
 21
97.3768149168576
 31
0.0
  0
LINE
  5
239
330
1B
100
AcDbEntity
  8
2
100
AcDbLine
 10
1020.207752945422
 20
97.3768149168576
 30
0.0
 11
1021.651128618396
 21
94.8768149168576
 31
0.0
  0
CIRCLE
  5
23A
330
1B
100
AcDbEntity
  8
4
100
AcDbCircle
 10
1018.764377272448
 20
94.8768149168576
 30
0.0
 40
5.0
  0
CIRCLE
  5
23B
330
1B
100
AcDbEntity
  8
4
100
AcDbCircle
 10
1018.764377272448
 20
94.8768149168576
 30
0.0
 40
5.75
  0
LINE
  5
23C
330
1B
100
AcDbEntity
  8
2
100
AcDbLine
 10
918.3210015994734
 20
97.3768149168576
 30
0.0
 11
916.8776259264998
 21
94.8768149168576
 31
0.0
  0
LINE
  5
23D
330
1B
100
AcDbEntity
  8
2
100
AcDbLine
 10
921.207752945422
 20
97.3768149168576
 30
0.0
 11
918.3210015994734
 21
97.3768149168576
 31
0.0
  0
LINE
  5
23E
330
1B
100
AcDbEntity
  8
2
100
AcDbLine
 10
922.6511286183961
 20
94.8768149168576
 30
0.0
 11
921.207752945422
 21
97.3768149168576
 31
0.0
  0
LINE
  5
23F
330
1B
100
AcDbEntity
  8
2
100
AcDbLine
 10
921.207752945422
 20
92.37681491685748
 30
0.0
 11
918.3210015994739
 21
92.37681491685748
 31
0.0
  0
LINE
  5
240
330
1B
100
AcDbEntity
  8
2
100
AcDbLine
 10
922.6511286183961
 20
94.8768149168576
 30
0.0
 11
921.207752945422
 21
92.37681491685748
 31
0.0
  0
LINE
  5
241
330
1B
100
AcDbEntity
  8
2
100
AcDbLine
 10
918.3210015994739
 20
92.37681491685748
 30
0.0
 11
916.8776259264998
 21
94.8768149168576
 31
0.0
  0
CIRCLE
  5
242
330
1B
100
AcDbEntity
  8
4
100
AcDbCircle
 10
919.764377272448
 20
94.8768149168576
 30
0.0
 40
5.75
  0
CIRCLE
  5
243
330
1B
100
AcDbEntity
  8
4
100
AcDbCircle
 10
919.764377272448
 20
94.8768149168576
 30
0.0
 40
5.0
  0
LINE
  5
244
330
1B
100
AcDbEntity
  8
2
100
AcDbLine
 10
1069.707752945422
 20
183.113329891517
 30
0.0
 11
1071.151128618396
 21
180.613329891517
 31
0.0
  0
LINE
  5
245
330
1B
100
AcDbEntity
  8
2
100
AcDbLine
 10
1066.821001599474
 20
183.113329891517
 30
0.0
 11
1069.707752945422
 21
183.113329891517
 31
0.0
  0
LINE
  5
246
330
1B
100
AcDbEntity
  8
2
100
AcDbLine
 10
1065.3776259265
 20
180.613329891517
 30
0.0
 11
1066.821001599474
 21
183.113329891517
 31
0.0
  0
LINE
  5
247
330
1B
100
AcDbEntity
  8
2
100
AcDbLine
 10
1066.821001599474
 20
178.1133298915169
 30
0.0
 11
1069.707752945422
 21
178.1133298915167
 31
0.0
  0
LINE
  5
248
330
1B
100
AcDbEntity
  8
2
100
AcDbLine
 10
1065.3776259265
 20
180.613329891517
 30
0.0
 11
1066.821001599474
 21
178.1133298915169
 31
0.0
  0
LINE
  5
249
330
1B
100
AcDbEntity
  8
2
100
AcDbLine
 10
1069.707752945422
 20
178.1133298915167
 30
0.0
 11
1071.151128618396
 21
180.613329891517
 31
0.0
  0
CIRCLE
  5
24A
330
1B
100
AcDbEntity
  8
4
100
AcDbCircle
 10
1068.264377272448
 20
180.6133298915169
 30
0.0
 40
5.75
  0
CIRCLE
  5
24B
330
1B
100
AcDbEntity
  8
4
100
AcDbCircle
 10
1068.264377272448
 20
180.6133298915169
 30
0.0
 40
5.0
  0
LINE
  5
24C
330
1B
100
AcDbEntity
  8
2
100
AcDbLine
 10
873.1511286183961
 20
180.613329891517
 30
0.0
 11
871.707752945422
 21
183.113329891517
 31
0.0
  0
LINE
  5
24D
330
1B
100
AcDbEntity
  8
2
100
AcDbLine
 10
868.8210015994739
 20
178.1133298915167
 30
0.0
 11
867.3776259264998
 21
180.613329891517
 31
0.0
  0
LINE
  5
24E
330
1B
100
AcDbEntity
  8
2
100
AcDbLine
 10
871.707752945422
 20
178.1133298915169
 30
0.0
 11
868.8210015994739
 21
178.1133298915167
 31
0.0
  0
LINE
  5
24F
330
1B
100
AcDbEntity
  8
2
100
AcDbLine
 10
871.707752945422
 20
183.113329891517
 30
0.0
 11
868.8210015994734
 21
183.113329891517
 31
0.0
  0
LINE
  5
250
330
1B
100
AcDbEntity
  8
2
100
AcDbLine
 10
873.1511286183961
 20
180.613329891517
 30
0.0
 11
871.707752945422
 21
178.1133298915169
 31
0.0
  0
LINE
  5
251
330
1B
100
AcDbEntity
  8
2
100
AcDbLine
 10
868.8210015994734
 20
183.113329891517
 30
0.0
 11
867.3776259264998
 21
180.613329891517
 31
0.0
  0
CIRCLE
  5
252
330
1B
100
AcDbEntity
  8
4
100
AcDbCircle
 10
870.264377272448
 20
180.6133298915169
 30
0.0
 40
5.0
  0
CIRCLE
  5
253
330
1B
100
AcDbEntity
  8
4
100
AcDbCircle
 10
870.264377272448
 20
180.6133298915169
 30
0.0
 40
5.75
  0
ARC
  5
254
330
1B
100
AcDbEntity
  8
4
100
AcDbCircle
 10
884.7059747461146
 20
204.9829126165973
 30
0.0
 40
3.0
100
AcDbArc
 50
163.92311168739
 51
275.1263803664074
  0
ARC
  5
255
330
1B
100
AcDbEntity
  8
4
100
AcDbCircle
 10
944.8947945473685
 20
265.1717324178503
 30
0.0
 40
3.0
100
AcDbArc
 50
354.8736196335946
 51
106.07688831261
  0
ARC
  5
256
330
1B
100
AcDbEntity
  8
4
100
AcDbCircle
 10
932.5432259368392
 20
217.3344812271266
 30
0.0
 40
3.0
100
AcDbArc
 50
97.10223814956889
 51
172.897761850429
  0
ARC
  5
257
330
1B
100
AcDbEntity
  8
4
100
AcDbCircle
 10
929.8864278603107
 20
219.9912793036551
 30
0.0
 40
3.0
100
AcDbArc
 50
97.61903501642539
 51
172.3809649835703
  0
ARC
  5
258
330
1B
100
AcDbEntity
  8
4
100
AcDbCircle
 10
919.7911120894044
 20
211.1425091922406
 30
0.0
 40
6.0
100
AcDbArc
 50
275.1263803664074
 51
354.2741567175669
  0
ARC
  5
259
330
1B
100
AcDbEntity
  8
4
100
AcDbCircle
 10
938.7351979717253
 20
230.0865950745615
 30
0.0
 40
6.0
100
AcDbArc
 50
275.7258432824342
 51
354.8736196335938
  0
LINE
  5
25A
330
1B
100
AcDbEntity
  8
L-CENTER
 48
2.5
100
AcDbLine
 10
925.764377272448
 20
255.9575400207626
 30
0.0
 11
913.764377272448
 21
276.7421497115896
 31
0.0
  0
LINE
  5
25B
330
1B
100
AcDbEntity
  8
4
100
AcDbLine
 10
947.8827946396079
 20
264.90367375118
 30
0.0
 11
944.7111981562041
 21
229.550477741221
 31
0.0
  0
ARC
  5
25C
330
1B
100
AcDbEntity
  8
4
100
AcDbCircle
 10
1005.985528608058
 20
217.3344812271266
 30
0.0
 40
3.0
100
AcDbArc
 50
7.102238149571051
 51
82.89776185043112
  0
ARC
  5
25D
330
1B
100
AcDbEntity
  8
4
100
AcDbCircle
 10
1008.642326684586
 20
219.9912793036551
 30
0.0
 40
3.0
100
AcDbArc
 50
7.619035016427544
 51
82.38096498356586
  0
ARC
  5
25E
330
1B
100
AcDbEntity
  8
4
100
AcDbCircle
 10
1018.737642455493
 20
211.1425091922406
 30
0.0
 40
6.0
100
AcDbArc
 50
185.725843282432
 51
264.8736196335926
  0
ARC
  5
25F
330
1B
100
AcDbEntity
  8
4
100
AcDbCircle
 10
999.7935565731716
 20
230.0865950745615
 30
0.0
 40
6.0
100
AcDbArc
 50
185.1263803664062
 51
264.2741567175658
  0
ARC
  5
260
330
1B
100
AcDbEntity
  8
4
100
AcDbCircle
 10
1053.822779798782
 20
204.9829126165973
 30
0.0
 40
3.0
100
AcDbArc
 50
264.8736196335926
 51
16.0768883126079
  0
LINE
  5
261
330
1B
100
AcDbEntity
  8
4
100
AcDbLine
 10
1053.554721132112
 20
201.9949125243569
 30
0.0
 11
1018.201525122152
 21
205.1665090077607
 31
0.0
  0
LINE
  5
262
330
1B
100
AcDbEntity
  8
L-CENTER
 48
2.5
100
AcDbLine
 10
1012.764377272448
 20
255.9575400207626
 30
0.0
 11
1024.764377272448
 21
276.7421497115896
 31
0.0
  0
ARC
  5
263
330
1B
100
AcDbEntity
  8
4
100
AcDbCircle
 10
993.6339599975283
 20
265.1717324178503
 30
0.0
 40
3.0
100
AcDbArc
 50
73.92311168739002
 51
185.1263803664054
  0
ARC
  5
264
330
1B
100
AcDbEntity
  8
4
100
AcDbCircle
 10
969.264377272448
 20
-74.386670108483
 30
0.0
 40
300.0
100
AcDbArc
 50
82.38096498357213
 51
97.61903501642787
  0
ARC
  5
265
330
1B
100
AcDbEntity
  8
4
100
AcDbCircle
 10
969.264377272448
 20
-77.386670108483
 30
0.0
 40
300.0
100
AcDbArc
 50
82.89776185042847
 51
97.10223814957153
  0
LINE
  5
266
330
1B
100
AcDbEntity
  8
4
100
AcDbLine
 10
990.6459599052889
 20
264.90367375118
 30
0.0
 11
993.8175563886928
 21
229.550477741221
 31
0.0
  0
LINE
  5
267
330
1B
100
AcDbEntity
  8
4
100
AcDbLine
 10
884.9740334127848
 20
201.9949125243569
 30
0.0
 11
920.3272294227447
 21
205.1665090077607
 31
0.0
  0
ARC
  5
268
330
1B
100
AcDbEntity
  8
4
100
AcDbCircle
 10
884.7059747461146
 20
156.2437471664366
 30
0.0
 40
3.0
100
AcDbArc
 50
84.87361963359261
 51
196.0768883126073
  0
ARC
  5
269
330
1B
100
AcDbEntity
  8
4
100
AcDbCircle
 10
932.5432259368392
 20
143.8921785559073
 30
0.0
 40
3.0
100
AcDbArc
 50
187.102238149571
 51
262.8977618504312
  0
ARC
  5
26A
330
1B
100
AcDbEntity
  8
4
100
AcDbCircle
 10
929.8864278603107
 20
141.2353804793788
 30
0.0
 40
3.0
100
AcDbArc
 50
187.6190350164275
 51
262.3809649835658
  0
ARC
  5
26B
330
1B
100
AcDbEntity
  8
4
100
AcDbCircle
 10
938.7351979717253
 20
131.1400647084724
 30
0.0
 40
6.0
100
AcDbArc
 50
5.126380366406224
 51
84.2741567175658
  0
ARC
  5
26C
330
1B
100
AcDbEntity
  8
4
100
AcDbCircle
 10
919.7911120894044
 20
150.0841505907933
 30
0.0
 40
6.0
100
AcDbArc
 50
5.72584328243309
 51
84.87361963359257
  0
LINE
  5
26D
330
1B
100
AcDbEntity
  8
L-CENTER
 48
2.5
100
AcDbLine
 10
925.7643772724489
 20
105.2691197622711
 30
0.0
 11
913.764377272448
 21
84.4845100714441
 31
0.0
  0
ARC
  5
26E
330
1B
100
AcDbEntity
  8
4
100
AcDbCircle
 10
944.8947945473685
 20
96.05492736518363
 30
0.0
 40
3.0
100
AcDbArc
 50
253.9231116873903
 51
5.126380366407433
  0
LINE
  5
26F
330
1B
100
AcDbEntity
  8
4
100
AcDbLine
 10
947.8827946396079
 20
96.3229860318537
 30
0.0
 11
944.7111981562041
 21
131.6761820418127
 31
0.0
  0
CIRCLE
  5
270
330
1B
100
AcDbEntity
  8
4
100
AcDbCircle
 10
1034.264377272448
 20
180.613329891517
 30
0.0
 40
2.5
  0
ARC
  5
271
330
1B
100
AcDbEntity
  8
4
100
AcDbCircle
 10
999.7935565731716
 20
131.1400647084724
 30
0.0
 40
6.0
100
AcDbArc
 50
95.7258432824342
 51
174.8736196335938
  0
ARC
  5
272
330
1B
100
AcDbEntity
  8
4
100
AcDbCircle
 10
1005.985528608058
 20
143.8921785559073
 30
0.0
 40
3.0
100
AcDbArc
 50
277.1022381495688
 51
352.8977618504289
  0
ARC
  5
273
330
1B
100
AcDbEntity
  8
4
100
AcDbCircle
 10
1008.642326684586
 20
141.2353804793788
 30
0.0
 40
3.0
100
AcDbArc
 50
277.6190350164342
 51
352.3809649835724
  0
ARC
  5
274
330
1B
100
AcDbEntity
  8
4
100
AcDbCircle
 10
1018.737642455493
 20
150.0841505907933
 30
0.0
 40
6.0
100
AcDbArc
 50
95.12638036640745
 51
174.2741567175669
  0
ARC
  5
275
330
1B
100
AcDbEntity
  8
4
100
AcDbCircle
 10
1053.822779798782
 20
156.2437471664366
 30
0.0
 40
3.0
100
AcDbArc
 50
343.9231116873921
 51
95.1263803664074
  0
CIRCLE
  5
276
330
1B
100
AcDbEntity
  8
4
100
AcDbCircle
 10
1034.264377272448
 20
180.613329891517
 30
0.0
 40
14.0
  0
LINE
  5
277
330
1B
100
AcDbEntity
  8
4
100
AcDbLine
 10
1053.554721132112
 20
159.2317472586759
 30
0.0
 11
1018.201525122152
 21
156.0601507752721
 31
0.0
  0
LINE
  5
278
330
1B
100
AcDbEntity
  8
L-CENTER
 48
2.5
100
AcDbLine
 10
1012.764377272448
 20
105.2691197622702
 30
0.0
 11
1024.764377272448
 21
84.4845100714441
 31
0.0
  0
ARC
  5
279
330
1B
100
AcDbEntity
  8
4
100
AcDbCircle
 10
969.264377272448
 20
435.613329891517
 30
0.0
 40
300.0
100
AcDbArc
 50
262.3809649835721
 51
277.6190350164279
  0
ARC
  5
27A
330
1B
100
AcDbEntity
  8
4
100
AcDbCircle
 10
969.264377272448
 20
438.613329891517
 30
0.0
 40
300.0
100
AcDbArc
 50
262.8977618504285
 51
277.1022381495714
  0
ARC
  5
27B
330
1B
100
AcDbEntity
  8
4
100
AcDbCircle
 10
993.6339599975283
 20
96.05492736518363
 30
0.0
 40
3.0
100
AcDbArc
 50
174.8736196335926
 51
286.0768883126097
  0
LINE
  5
27C
330
1B
100
AcDbEntity
  8
4
100
AcDbLine
 10
990.6459599052889
 20
96.3229860318537
 30
0.0
 11
993.8175563886928
 21
131.6761820418127
 31
0.0
  0
LINE
  5
27D
330
1B
100
AcDbEntity
  8
4
100
AcDbLine
 10
884.9740334127848
 20
159.2317472586759
 30
0.0
 11
920.3272294227447
 21
156.0601507752721
 31
0.0
  0
ARC
  5
27E
330
1B
100
AcDbEntity
  8
4
100
AcDbCircle
 10
1227.264377272448
 20
180.613329891517
 30
0.0
 40
300.0
100
AcDbArc
 50
172.8977618504285
 51
187.1022381495714
  0
ARC
  5
27F
330
1B
100
AcDbEntity
  8
4
100
AcDbCircle
 10
714.264377272448
 20
180.613329891517
 30
0.0
 40
300.0
100
AcDbArc
 50
352.3809649835721
 51
7.619035016427832
  0
ARC
  5
280
330
1B
100
AcDbEntity
  8
4
100
AcDbCircle
 10
711.264377272448
 20
180.613329891517
 30
0.0
 40
300.0
100
AcDbArc
 50
352.8977618504284
 51
7.102238149571463
  0
CIRCLE
  5
281
330
1B
100
AcDbEntity
  8
4
100
AcDbCircle
 10
969.264377272448
 20
180.613329891517
 30
0.0
 40
25.0
  0
ARC
  5
282
330
1B
100
AcDbEntity
  8
4
100
AcDbCircle
 10
1224.264377272448
 20
180.613329891517
 30
0.0
 40
300.0
100
AcDbArc
 50
172.3809649835721
 51
187.6190350164278
  0
CIRCLE
  5
283
330
1B
100
AcDbEntity
  8
4
100
AcDbCircle
 10
969.264377272448
 20
180.613329891517
 30
0.0
 40
91.0
  0
CIRCLE
  5
284
330
1B
100
AcDbEntity
  8
L-CENTER
 48
2.5
100
AcDbCircle
 10
969.264377272448
 20
180.613329891517
 30
0.0
 40
98.99999999999983
  0
CIRCLE
  5
285
330
1B
100
AcDbEntity
  8
4
100
AcDbCircle
 10
969.264377272448
 20
180.613329891517
 30
0.0
 40
105.0
  0
LINE
  5
286
330
1B
100
AcDbEntity
  8
4
 62
     3
100
AcDbLine
 10
864.5323267724482
 20
322.6133303915168
 30
0.0
 11
858.7643767724478
 21
322.6133303915168
 31
0.0
  0
ARC
  5
287
330
1B
100
AcDbEntity
  8
4
 62
     3
100
AcDbCircle
 10
866.2643767724478
 20
322.6133303915168
 30
0.0
 40
1.0000005
100
AcDbArc
 50
90.0
 51
180.0
  0
ARC
  5
288
330
1B
100
AcDbEntity
  8
4
 62
     3
100
AcDbCircle
 10
864.5323267724482
 20
323.6133293915169
 30
0.0
 40
1.0000005
100
AcDbArc
 50
270.0
 51
330.0000000000009
  0
LINE
  5
289
330
1B
100
AcDbEntity
  8
4
100
AcDbLine
 10
858.764377272448
 20
311.613330391517
 30
0.0
 11
857.764377272448
 21
311.613330391517
 31
0.0
  0
ARC
  5
28A
330
1B
100
AcDbEntity
  8
4
 62
     3
100
AcDbCircle
 10
864.264377272448
 20
291.6133298915169
 30
0.0
 40
1.0000005
100
AcDbArc
 50
270.0
 51
0.0
  0
LINE
  5
28B
330
1B
100
AcDbEntity
  8
4
 62
     3
100
AcDbLine
 10
865.2643777724481
 20
291.6133298915169
 30
0.0
 11
865.2643777724481
 21
322.6133303915168
 31
0.0
  0
ARC
  5
28C
330
1B
100
AcDbEntity
  8
4
 62
     3
100
AcDbCircle
 10
1009.274376772448
 20
324.6033293915169
 30
0.0
 40
0.99
100
AcDbArc
 50
270.0
 51
0.0
  0
LINE
  5
28D
330
1B
100
AcDbEntity
  8
4
 62
     3
100
AcDbLine
 10
1010.264376772448
 20
324.6133298915169
 30
0.0
 11
1010.264376772448
 21
324.6033293915169
 31
0.0
  0
LINE
  5
28E
330
1B
100
AcDbEntity
  8
4
100
AcDbLine
 10
1023.013887272448
 20
328.1133298915169
 30
0.0
 11
1023.013887272448
 21
332.1133298915169
 31
0.0
  0
LINE
  5
28F
330
1B
100
AcDbEntity
  8
4
100
AcDbLine
 10
1017.763887272448
 20
324.6133298915169
 30
0.0
 11
1017.763887272448
 21
326.1133298915169
 31
0.0
  0
LINE
  5
290
330
1B
100
AcDbEntity
  8
4
100
AcDbLine
 10
1016.763887272448
 20
326.1133298915169
 30
0.0
 11
1016.763887272448
 21
332.1133298915169
 31
0.0
  0
LINE
  5
291
330
1B
100
AcDbEntity
  8
4
100
AcDbLine
 10
1040.763887272448
 20
324.6133298915169
 30
0.0
 11
1040.763887272448
 21
326.1133298915169
 31
0.0
  0
LINE
  5
292
330
1B
100
AcDbEntity
  8
4
100
AcDbLine
 10
1041.763887272448
 20
326.1133298915169
 30
0.0
 11
1041.763887272448
 21
332.1133298915169
 31
0.0
  0
LINE
  5
293
330
1B
100
AcDbEntity
  8
4
100
AcDbLine
 10
1035.513887272448
 20
328.1133298915169
 30
0.0
 11
1035.513887272448
 21
332.1133298915169
 31
0.0
  0
ARC
  5
294
330
1B
100
AcDbEntity
  8
4
 62
     3
100
AcDbCircle
 10
1049.254377772448
 20
324.6033293915169
 30
0.0
 40
0.99
100
AcDbArc
 50
180.0
 51
270.0
  0
LINE
  5
295
330
1B
100
AcDbEntity
  8
4
 62
     3
100
AcDbLine
 10
1048.264377772448
 20
324.6133298915169
 30
0.0
 11
1048.264377772448
 21
324.6033293915169
 31
0.0
  0
LINE
  5
296
330
1B
100
AcDbEntity
  8
4
100
AcDbLine
 10
1041.763887272448
 20
332.1133298915169
 30
0.0
 11
1016.763887272448
 21
332.1133298915169
 31
0.0
  0
LINE
  5
297
330
1B
100
AcDbEntity
  8
4
100
AcDbLine
 10
1041.763887272448
 20
328.1133298915169
 30
0.0
 11
1016.763887272448
 21
328.1133298915169
 31
0.0
  0
LINE
  5
298
330
1B
100
AcDbEntity
  8
4
100
AcDbLine
 10
1041.763887272448
 20
326.1133298915169
 30
0.0
 11
1016.763887272448
 21
326.1133298915169
 31
0.0
  0
LINE
  5
299
330
1B
100
AcDbEntity
  8
L-CENTER
 48
2.5
100
AcDbLine
 10
1029.264377272448
 20
315.4540129471615
 30
0.0
 11
1029.264377272448
 21
338.2494288361567
 31
0.0
  0
ARC
  5
29A
330
1B
100
AcDbEntity
  8
4
 62
     3
100
AcDbCircle
 10
1073.996427772448
 20
323.6133293915169
 30
0.0
 40
1.0000005
100
AcDbArc
 50
209.9999999999959
 51
270.0
  0
LINE
  5
29B
330
1B
100
AcDbEntity
  8
4
 62
     3
100
AcDbLine
 10
1079.764377772448
 20
322.6133303915168
 30
0.0
 11
1073.996427772448
 21
322.6133303915168
 31
0.0
  0
ARC
  5
29C
330
1B
100
AcDbEntity
  8
4
 62
     3
100
AcDbCircle
 10
1074.264377272448
 20
291.6133298915169
 30
0.0
 40
1.0000005
100
AcDbArc
 50
180.0
 51
270.0
  0
LINE
  5
29D
330
1B
100
AcDbEntity
  8
4
100
AcDbLine
 10
1079.764377772448
 20
311.613330391517
 30
0.0
 11
1080.764377772448
 21
311.613330391517
 31
0.0
  0
LINE
  5
29E
330
1B
100
AcDbEntity
  8
4
 62
     3
100
AcDbLine
 10
1073.264376772448
 20
291.6133298915169
 30
0.0
 11
1073.264376772448
 21
322.6133303915168
 31
0.0
  0
ARC
  5
29F
330
1B
100
AcDbEntity
  8
4
 62
     3
100
AcDbCircle
 10
1072.264377772448
 20
322.6133303915168
 30
0.0
 40
1.0000005
100
AcDbArc
 50
29.91501546532378
 51
90.0
  0
LINE
  5
2A0
330
1B
100
AcDbEntity
  8
4
 62
     3
100
AcDbLine
 10
1010.264376772448
 20
324.6133298915169
 30
0.0
 11
1048.264377772448
 21
324.6133298915169
 31
0.0
  0
LINE
  5
2A1
330
1B
100
AcDbEntity
  8
4
 62
     3
100
AcDbLine
 10
1072.26610982298
 20
323.6133293915169
 30
0.0
 11
866.2643767724478
 21
323.6133293915169
 31
0.0
  0
ARC
  5
2A2
330
1B
100
AcDbEntity
  8
4
 62
     3
100
AcDbCircle
 10
864.264377272448
 20
269.6133293915167
 30
0.0
 40
1.0000005
100
AcDbArc
 50
0.0
 51
90.0
  0
LINE
  5
2A3
330
1B
100
AcDbEntity
  8
4
100
AcDbLine
 10
858.764377272448
 20
249.613330391517
 30
0.0
 11
857.764377272448
 21
249.613330391517
 31
0.0
  0
ARC
  5
2A4
330
1B
100
AcDbEntity
  8
4
 62
     3
100
AcDbCircle
 10
879.0077167724478
 20
270.8699903915168
 30
0.0
 40
4.0000005
100
AcDbArc
 50
106.0729439999987
 51
163.9270559999993
  0
LINE
  5
2A5
330
1B
100
AcDbEntity
  8
4
 62
     3
100
AcDbLine
 10
863.2643767724478
 20
238.613330391517
 30
0.0
 11
858.7643767724478
 21
238.613330391517
 31
0.0
  0
ARC
  5
2A6
330
1B
100
AcDbEntity
  8
4
 62
     3
100
AcDbCircle
 10
863.2643767724478
 20
236.6133293915167
 30
0.0
 40
1.9999995
100
AcDbArc
 50
0.0
 51
90.0
  0
LINE
  5
2A7
330
1B
100
AcDbEntity
  8
4
 62
     3
100
AcDbLine
 10
865.2643777724481
 20
225.0092753915168
 30
0.0
 11
865.2643777724481
 21
269.6133293915167
 31
0.0
  0
ARC
  5
2A8
330
1B
100
AcDbEntity
  8
4
 62
     3
100
AcDbCircle
 10
841.2643777724481
 20
83.61332939151691
 30
0.0
 40
1.9999995
100
AcDbArc
 50
90.0
 51
180.0
  0
LINE
  5
2A9
330
1B
100
AcDbEntity
  8
4
 62
     3
100
AcDbLine
 10
839.2643767724478
 20
83.61332939151691
 30
0.0
 11
839.2643767724478
 21
60.61332989151686
 31
0.0
  0
ARC
  5
2AA
330
1B
100
AcDbEntity
  8
4
 62
     3
100
AcDbCircle
 10
857.2643767724478
 20
90.61332989151686
 30
0.0
 40
4.9999995
100
AcDbArc
 50
270.0
 51
0.0
  0
ARC
  5
2AB
330
1B
100
AcDbEntity
  8
4
 62
     3
100
AcDbCircle
 10
887.2643767724478
 20
83.61332939151691
 30
0.0
 40
1.9999995
100
AcDbArc
 50
0.0
 51
90.0
  0
ARC
  5
2AC
330
1B
100
AcDbEntity
  8
4
 62
     3
100
AcDbCircle
 10
889.2643777724481
 20
83.61332939151691
 30
0.0
 40
1.9999995
100
AcDbArc
 50
0.0
 51
90.0
  0
ARC
  5
2AD
330
1B
100
AcDbEntity
  8
4
 62
     3
100
AcDbCircle
 10
869.5803217724481
 20
90.61332989151686
 30
0.0
 40
4.9999995
100
AcDbArc
 50
270.0
 51
15.58434900000201
  0
LINE
  5
2AE
330
1B
100
AcDbEntity
  8
4
 62
     3
100
AcDbLine
 10
889.2643777724481
 20
83.61332939151691
 30
0.0
 11
889.2643777724481
 21
60.61332989151686
 31
0.0
  0
LINE
  5
2AF
330
1B
100
AcDbEntity
  8
4
 62
     3
100
AcDbLine
 10
891.264377272448
 20
83.61332939151691
 30
0.0
 11
891.264377272448
 21
60.61332989151686
 31
0.0
  0
ARC
  5
2B0
330
1B
100
AcDbEntity
  8
4
 62
     3
100
AcDbCircle
 10
896.2643767724478
 20
76.66379189151701
 30
0.0
 40
4.9999995
100
AcDbArc
 50
77.41366699999448
 51
180.0
  0
ARC
  5
2B1
330
1B
100
AcDbEntity
  8
4
 62
     3
100
AcDbCircle
 10
896.2643767724478
 20
65.61332939151691
 30
0.0
 40
4.9999995
100
AcDbArc
 50
90.0
 51
180.0
  0
LINE
  5
2B2
330
1B
100
AcDbEntity
  8
4
 62
     3
100
AcDbLine
 10
891.264377272448
 20
60.61332989151686
 30
0.0
 11
839.2643767724478
 21
60.61332989151686
 31
0.0
  0
LINE
  5
2B3
330
1B
100
AcDbEntity
  8
4
 62
     3
100
AcDbLine
 10
889.2643777724481
 20
85.6133303915168
 30
0.0
 11
841.2643777724481
 21
85.6133303915168
 31
0.0
  0
ARC
  5
2B4
330
1B
100
AcDbEntity
  8
4
 62
     3
100
AcDbCircle
 10
1192.264377772448
 20
180.6133298915169
 30
0.0
 40
330.0
100
AcDbArc
 50
163.927056
 51
195.5843489999999
  0
LINE
  5
2B5
330
1B
100
AcDbEntity
  8
4
 62
     3
100
AcDbLine
 10
862.2643777724481
 20
180.6133298915169
 30
0.0
 11
862.2643777724481
 21
90.61332989151686
 31
0.0
  0
ARC
  5
2B6
330
1B
100
AcDbEntity
  8
4
 62
     3
100
AcDbCircle
 10
1059.521037772448
 20
270.8699903915168
 30
0.0
 40
4.0000005
100
AcDbArc
 50
16.07294400000068
 51
73.92705600000133
  0
ARC
  5
2B7
330
1B
100
AcDbEntity
  8
4
 62
     3
100
AcDbCircle
 10
1074.264377272448
 20
269.6133293915167
 30
0.0
 40
1.0000005
100
AcDbArc
 50
90.0
 51
180.0
  0
LINE
  5
2B8
330
1B
100
AcDbEntity
  8
4
100
AcDbLine
 10
1079.764377772448
 20
249.613330391517
 30
0.0
 11
1080.764377772448
 21
249.613330391517
 31
0.0
  0
ARC
  5
2B9
330
1B
100
AcDbEntity
  8
4
 62
     3
100
AcDbCircle
 10
1075.264377772448
 20
236.6133293915167
 30
0.0
 40
1.9999995
100
AcDbArc
 50
90.0
 51
180.0
  0
LINE
  5
2BA
330
1B
100
AcDbEntity
  8
4
 62
     3
100
AcDbLine
 10
1075.264377772448
 20
238.613330391517
 30
0.0
 11
1079.764377772448
 21
238.613330391517
 31
0.0
  0
LINE
  5
2BB
330
1B
100
AcDbEntity
  8
4
 62
     3
100
AcDbLine
 10
1073.264376772448
 20
225.0092753915168
 30
0.0
 11
1073.264376772448
 21
269.6133293915167
 31
0.0
  0
LINE
  5
2BC
330
1B
100
AcDbEntity
  8
4
100
AcDbLine
 10
1079.764377772448
 20
157.6133293915169
 30
0.0
 11
1078.264377772448
 21
157.6133293915169
 31
0.0
  0
ARC
  5
2BD
330
1B
100
AcDbEntity
  8
4
 62
     3
100
AcDbCircle
 10
1078.264377772448
 20
163.6133303915168
 30
0.0
 40
1.9999995
100
AcDbArc
 50
180.0
 51
270.0
  0
LINE
  5
2BE
330
1B
100
AcDbEntity
  8
4
100
AcDbLine
 10
1086.764377772448
 20
158.6133293915169
 30
0.0
 11
1079.764377772448
 21
158.6133293915169
 31
0.0
  0
LINE
  5
2BF
330
1B
100
AcDbEntity
  8
4
 62
     3
100
AcDbLine
 10
1076.264376772448
 20
180.6133298915169
 30
0.0
 11
1076.264376772448
 21
163.6133303915168
 31
0.0
  0
LINE
  5
2C0
330
1B
100
AcDbEntity
  8
4
100
AcDbLine
 10
1081.764377772448
 20
151.1133293915169
 30
0.0
 11
1086.764377772448
 21
151.1133293915169
 31
0.0
  0
LINE
  5
2C1
330
1B
100
AcDbEntity
  8
4
100
AcDbLine
 10
1081.764377772448
 20
136.1133293915169
 30
0.0
 11
1086.764377772448
 21
136.1133293915169
 31
0.0
  0
LINE
  5
2C2
330
1B
100
AcDbEntity
  8
4
100
AcDbLine
 10
1079.764377772448
 20
129.6133293915169
 30
0.0
 11
1078.264377772448
 21
129.6133293915169
 31
0.0
  0
LINE
  5
2C3
330
1B
100
AcDbEntity
  8
4
100
AcDbLine
 10
1079.764377772448
 20
128.6133293915169
 30
0.0
 11
1086.764377772448
 21
128.6133293915169
 31
0.0
  0
LINE
  5
2C4
330
1B
100
AcDbEntity
  8
L-CENTER
 48
2.5
100
AcDbLine
 10
1066.318652272448
 20
143.6133293915169
 30
0.0
 11
1089.889879021747
 21
143.6133293915169
 31
0.0
  0
LINE
  5
2C5
330
1B
100
AcDbEntity
  8
4
100
AcDbLine
 10
1078.264377772448
 20
129.6133293915169
 30
0.0
 11
1078.264377772448
 21
157.6133293915169
 31
0.0
  0
LINE
  5
2C6
330
1B
100
AcDbEntity
  8
4
100
AcDbLine
 10
1079.764377772448
 20
128.6133293915169
 30
0.0
 11
1079.764377772448
 21
158.6133293915169
 31
0.0
  0
LINE
  5
2C7
330
1B
100
AcDbEntity
  8
4
100
AcDbLine
 10
1081.764377772448
 20
128.6133293915169
 30
0.0
 11
1081.764377772448
 21
158.6133293915169
 31
0.0
  0
LINE
  5
2C8
330
1B
100
AcDbEntity
  8
4
100
AcDbLine
 10
1086.764377772448
 20
128.6133293915169
 30
0.0
 11
1086.764377772448
 21
158.6133293915169
 31
0.0
  0
ARC
  5
2C9
330
1B
100
AcDbEntity
  8
4
 62
     3
100
AcDbCircle
 10
1049.264376772448
 20
83.61332939151691
 30
0.0
 40
1.9999995
100
AcDbArc
 50
90.0
 51
180.0
  0
ARC
  5
2CA
330
1B
100
AcDbEntity
  8
4
 62
     3
100
AcDbCircle
 10
1051.264377772448
 20
83.61332939151691
 30
0.0
 40
1.9999995
100
AcDbArc
 50
90.0
 51
180.0
  0
ARC
  5
2CB
330
1B
100
AcDbEntity
  8
4
 62
     3
100
AcDbCircle
 10
1042.264377772448
 20
76.66379189151701
 30
0.0
 40
4.9999995
100
AcDbArc
 50
0.0
 51
102.5863330000055
  0
LINE
  5
2CC
330
1B
100
AcDbEntity
  8
4
 62
     3
100
AcDbLine
 10
1047.264377272448
 20
83.61332939151691
 30
0.0
 11
1047.264377272448
 21
60.61332989151686
 31
0.0
  0
LINE
  5
2CD
330
1B
100
AcDbEntity
  8
4
 62
     3
100
AcDbLine
 10
1049.264376772448
 20
83.61332939151691
 30
0.0
 11
1049.264376772448
 21
60.61332989151686
 31
0.0
  0
ARC
  5
2CE
330
1B
100
AcDbEntity
  8
4
 62
     3
100
AcDbCircle
 10
1042.264377772448
 20
65.61332939151691
 30
0.0
 40
4.9999995
100
AcDbArc
 50
0.0
 51
90.0
  0
ARC
  5
2CF
330
1B
100
AcDbEntity
  8
4
 62
     3
100
AcDbCircle
 10
1068.948432772448
 20
90.61332989151686
 30
0.0
 40
4.9999995
100
AcDbArc
 50
164.4156509999983
 51
270.0
  0
LINE
  5
2D0
330
1B
100
AcDbEntity
  8
4
 62
     3
100
AcDbLine
 10
1079.264376772448
 20
110.6133293915169
 30
0.0
 11
1079.264376772448
 21
90.61332989151686
 31
0.0
  0
LINE
  5
2D1
330
1B
100
AcDbEntity
  8
4
 62
     3
100
AcDbLine
 10
1078.764377272448
 20
90.61332989151686
 30
0.0
 11
1079.264376772448
 21
90.61332989151686
 31
0.0
  0
ARC
  5
2D2
330
1B
100
AcDbEntity
  8
4
 62
     3
100
AcDbCircle
 10
1078.764377272448
 20
90.1133303915168
 30
0.0
 40
0.4999995
100
AcDbArc
 50
90.0
 51
180.0
  0
LINE
  5
2D3
330
1B
100
AcDbEntity
  8
4
100
AcDbLine
 10
1080.264376772448
 20
106.6133303915168
 30
0.0
 11
1079.264376772448
 21
106.6133303915168
 31
0.0
  0
LINE
  5
2D4
330
1B
100
AcDbEntity
  8
4
 62
     3
100
AcDbLine
 10
1079.264376772448
 20
110.6133293915169
 30
0.0
 11
1078.764377272448
 21
110.6133293915169
 31
0.0
  0
LINE
  5
2D5
330
1B
100
AcDbEntity
  8
4
100
AcDbLine
 10
1080.264376772448
 20
94.6133303915168
 30
0.0
 11
1079.264376772448
 21
94.6133303915168
 31
0.0
  0
LINE
  5
2D6
330
1B
100
AcDbEntity
  8
4
100
AcDbLine
 10
1080.264376772448
 20
94.6133303915168
 30
0.0
 11
1080.264376772448
 21
106.6133303915168
 31
0.0
  0
ARC
  5
2D7
330
1B
100
AcDbEntity
  8
4
 62
     3
100
AcDbCircle
 10
1080.264377272448
 20
87.61332989151686
 30
0.0
 40
1.9999995
100
AcDbArc
 50
180.0
 51
270.0
  0
ARC
  5
2D8
330
1B
100
AcDbEntity
  8
4
 62
     3
100
AcDbCircle
 10
1081.264377772448
 20
90.61332989151686
 30
0.0
 40
4.9999995
100
AcDbArc
 50
180.0
 51
270.0
  0
LINE
  5
2D9
330
1B
100
AcDbEntity
  8
L-CENTER
 48
2.5
100
AcDbLine
 10
1064.929706272448
 20
100.6133303915168
 30
0.0
 11
1083.504932272448
 21
100.6133303915168
 31
0.0
  0
ARC
  5
2DA
330
1B
100
AcDbEntity
  8
4
 62
     3
100
AcDbCircle
 10
969.264377272448
 20
403.613330391517
 30
0.0
 40
330.0
100
AcDbArc
 50
270.0
 51
282.586333
  0
ARC
  5
2DB
330
1B
100
AcDbEntity
  8
4
 62
     3
100
AcDbCircle
 10
746.2643767724478
 20
180.6133298915169
 30
0.0
 40
330.0
100
AcDbArc
 50
344.4156509999999
 51
16.07294400000001
  0
LINE
  5
2DC
330
1B
100
AcDbEntity
  8
4
 62
     3
100
AcDbLine
 10
1078.264377772448
 20
87.61332989151686
 30
0.0
 11
1078.264377772448
 21
161.6133293915169
 31
0.0
  0
LINE
  5
2DD
330
1B
100
AcDbEntity
  8
4
 62
     3
100
AcDbLine
 10
1076.264376772448
 20
180.6133298915169
 30
0.0
 11
1076.264376772448
 21
90.61332989151686
 31
0.0
  0
ARC
  5
2DE
330
1B
100
AcDbEntity
  8
4
 62
     3
100
AcDbCircle
 10
1078.764377272448
 20
111.1133303915168
 30
0.0
 40
0.4999995
100
AcDbArc
 50
180.0
 51
270.0
  0
ARC
  5
2DF
330
1B
100
AcDbEntity
  8
4
 62
     3
100
AcDbCircle
 10
969.264377272448
 20
-42.38667060848329
 30
0.0
 40
330.0
100
AcDbArc
 50
73.92652589377367
 51
106.072944
  0
LINE
  5
2E0
330
1B
100
AcDbEntity
  8
L-CENTER
 48
2.5
100
AcDbLine
 10
1082.191082272448
 20
180.6133298915169
 30
0.0
 11
856.3376722724481
 21
180.6133298915169
 31
0.0
  0
LINE
  5
2E1
330
1B
100
AcDbEntity
  8
L-CENTER
 48
2.5
100
AcDbLine
 10
851.2940686518245
 20
280.613330391517
 30
0.0
 11
1156.05449307864
 21
280.613330391517
 31
0.0
  0
LINE
  5
2E2
330
1B
100
AcDbEntity
  8
4
 62
     3
100
AcDbLine
 10
1042.264377772448
 20
70.6133303915168
 30
0.0
 11
896.2643767724478
 21
70.6133303915168
 31
0.0
  0
ARC
  5
2E3
330
1B
100
AcDbEntity
  8
4
 62
     3
100
AcDbCircle
 10
969.264377272448
 20
403.613330391517
 30
0.0
 40
330.0
100
AcDbArc
 50
257.413667
 51
270.0
  0
ARC
  5
2E4
330
1B
100
AcDbEntity
  8
4
 62
     3
100
AcDbCircle
 10
1097.264376772448
 20
83.61332939151691
 30
0.0
 40
1.9999995
100
AcDbArc
 50
0.0
 51
90.0
  0
LINE
  5
2E5
330
1B
100
AcDbEntity
  8
4
 62
     3
100
AcDbLine
 10
1099.264377772448
 20
83.61332939151691
 30
0.0
 11
1099.264377772448
 21
60.61332989151686
 31
0.0
  0
LINE
  5
2E6
330
1B
100
AcDbEntity
  8
4
 62
     3
100
AcDbLine
 10
1099.264377772448
 20
60.61332989151686
 30
0.0
 11
1047.264377272448
 21
60.61332989151686
 31
0.0
  0
LINE
  5
2E7
330
1B
100
AcDbEntity
  8
4
 62
     3
100
AcDbLine
 10
1097.264376772448
 20
85.6133303915168
 30
0.0
 11
1080.264377272448
 21
85.6133303915168
 31
0.0
  0
LINE
  5
2E8
330
1B
100
AcDbEntity
  8
4
 62
     3
100
AcDbLine
 10
1049.264376772448
 20
85.6133303915168
 30
0.0
 11
1097.264376772448
 21
85.6133303915168
 31
0.0
  0
LINE
  5
2E9
330
1B
100
AcDbEntity
  8
4
 62
     3
100
AcDbLine
 10
1079.764377772448
 20
322.6133303915168
 30
0.0
 11
1079.764377772448
 21
238.613330391517
 31
0.0
  0
LINE
  5
2EA
330
1B
100
AcDbEntity
  8
4
100
AcDbLine
 10
1080.764377772448
 20
311.613330391517
 30
0.0
 11
1080.764377772448
 21
249.613330391517
 31
0.0
  0
LINE
  5
2EB
330
1B
100
AcDbEntity
  8
4
 62
     3
100
AcDbLine
 10
858.7643767724478
 20
322.6133303915168
 30
0.0
 11
858.7643767724478
 21
238.613330391517
 31
0.0
  0
LINE
  5
2EC
330
1B
100
AcDbEntity
  8
L-CENTER
 48
2.5
100
AcDbLine
 10
969.264377272448
 20
67.686624891517
 30
0.0
 11
969.264377272448
 21
330.6133298915169
 31
0.0
  0
LINE
  5
2ED
330
1B
100
AcDbEntity
  8
4
100
AcDbLine
 10
857.764377272448
 20
311.613330391517
 30
0.0
 11
857.764377272448
 21
249.613330391517
 31
0.0
  0
LINE
  5
2EE
330
1B
100
AcDbEntity
  8
4
100
AcDbLine
 10
415.2527463361384
 20
682.6803068331858
 30
0.0
 11
415.2527463361384
 21
676.6803068331858
 31
0.0
  0
LINE
  5
2EF
330
1B
100
AcDbEntity
  8
4
100
AcDbLine
 10
425.2527463361384
 20
682.6803068331858
 30
0.0
 11
425.2527463361384
 21
676.6803068331858
 31
0.0
  0
LINE
  5
2F0
330
1B
100
AcDbEntity
  8
4
100
AcDbLine
 10
414.5027463361384
 20
676.6803068331858
 30
0.0
 11
414.5027463361384
 21
675.1803068331858
 31
0.0
  0
LINE
  5
2F1
330
1B
100
AcDbEntity
  8
4
100
AcDbLine
 10
426.0027463361384
 20
676.6803068331858
 30
0.0
 11
426.0027463361384
 21
675.1803068331858
 31
0.0
  0
LINE
  5
2F2
330
1B
100
AcDbEntity
  8
4
100
AcDbLine
 10
414.5027463361384
 20
676.6803068331858
 30
0.0
 11
426.0027463361384
 21
676.6803068331858
 31
0.0
  0
ARC
  5
2F3
330
1B
100
AcDbEntity
  8
4
100
AcDbCircle
 10
425.2527463361384
 20
674.1803068331858
 30
0.0
 40
1.0
100
AcDbArc
 50
0.0
 51
90.0
  0
LINE
  5
2F4
330
1B
100
AcDbEntity
  8
4
100
AcDbLine
 10
415.2527463361384
 20
682.6803068331858
 30
0.0
 11
425.2527463361384
 21
682.6803068331858
 31
0.0
  0
ARC
  5
2F5
330
1B
100
AcDbEntity
  8
4
100
AcDbCircle
 10
447.2527463361384
 20
686.8803063331859
 30
0.0
 40
4.0000005
100
AcDbArc
 50
0.0
 51
90.0
  0
LINE
  5
2F6
330
1B
100
AcDbEntity
  8
4
100
AcDbLine
 10
426.2527463361384
 20
658.8803073331858
 30
0.0
 11
426.2527463361384
 21
663.8803068331856
 31
0.0
  0
LINE
  5
2F7
330
1B
100
AcDbEntity
  8
4
100
AcDbLine
 10
431.7527463361384
 20
646.8803068331858
 30
0.0
 11
432.7527463361384
 21
646.8803068331858
 31
0.0
  0
LINE
  5
2F8
330
1B
100
AcDbEntity
  8
4
100
AcDbLine
 10
428.2527463361384
 20
657.8803068331858
 30
0.0
 11
428.2527463361384
 21
658.8803073331858
 31
0.0
  0
LINE
  5
2F9
330
1B
100
AcDbEntity
  8
L-CENTER
 48
2.5
100
AcDbLine
 10
417.8803403361385
 20
670.8803073331858
 30
0.0
 11
444.8954468361385
 21
670.8803073331858
 31
0.0
  0
LINE
  5
2FA
330
1B
100
AcDbEntity
  8
L-CENTER
 48
2.5
100
AcDbLine
 10
420.2527463361384
 20
653.1534768307254
 30
0.0
 11
420.2527463361384
 21
683.913070757457
 31
0.0
  0
LINE
  5
2FB
330
1B
100
AcDbEntity
  8
L-CENTER
 48
2.5
100
AcDbLine
 10
431.2527458361383
 20
657.6626178331858
 30
0.0
 11
431.2527458361383
 21
684.6775863331859
 31
0.0
  0
LINE
  5
2FC
330
1B
100
AcDbEntity
  8
4
100
AcDbLine
 10
426.2527463361384
 20
674.1803068331858
 30
0.0
 11
426.2527463361384
 21
664.1803068331858
 31
0.0
  0
ARC
  5
2FD
330
1B
100
AcDbEntity
  8
4
100
AcDbCircle
 10
431.2527458361383
 20
670.8803073331858
 30
0.0
 40
7.5
100
AcDbArc
 50
228.1896902289139
 51
134.176119687506
  0
LINE
  5
2FE
330
1B
100
AcDbEntity
  8
4
100
AcDbLine
 10
375.7527465023527
 20
682.6803068331858
 30
0.0
 11
375.7527465023527
 21
676.6803068331858
 31
0.0
  0
LINE
  5
2FF
330
1B
100
AcDbEntity
  8
4
100
AcDbLine
 10
365.7527465023527
 20
682.6803068331858
 30
0.0
 11
365.7527465023527
 21
676.6803068331858
 31
0.0
  0
LINE
  5
300
330
1B
100
AcDbEntity
  8
4
100
AcDbLine
 10
401.3003653837582
 20
675.1803068331858
 30
0.0
 11
375.7527465023527
 21
682.178132874614
 31
0.0
  0
LINE
  5
301
330
1B
100
AcDbEntity
  8
4
100
AcDbLine
 10
401.1489233361385
 20
686.9869353331858
 30
0.0
 11
400.8786337792599
 21
676.8510782331425
 31
0.0
  0
LINE
  5
302
330
1B
100
AcDbEntity
  8
4
100
AcDbLine
 10
365.0027465023527
 20
676.6803068331858
 30
0.0
 11
365.0027465023527
 21
675.1803068331858
 31
0.0
  0
LINE
  5
303
330
1B
100
AcDbEntity
  8
4
100
AcDbLine
 10
376.5027465023527
 20
676.6803068331858
 30
0.0
 11
376.5027465023527
 21
675.1803068331858
 31
0.0
  0
LINE
  5
304
330
1B
100
AcDbEntity
  8
4
100
AcDbLine
 10
365.0027465023527
 20
676.6803068331858
 30
0.0
 11
376.5027465023527
 21
676.6803068331858
 31
0.0
  0
LINE
  5
305
330
1B
100
AcDbEntity
  8
4
100
AcDbLine
 10
373.9194130028052
 20
682.6803068331858
 30
0.0
 11
367.353589927126
 21
684.4787714147851
 31
0.0
  0
LINE
  5
306
330
1B
100
AcDbEntity
  8
4
100
AcDbLine
 10
365.7527465023527
 20
682.6803068331858
 30
0.0
 11
375.7527465023527
 21
682.6803068331858
 31
0.0
  0
ARC
  5
307
330
1B
100
AcDbEntity
  8
4
100
AcDbCircle
 10
362.4889504951393
 20
694.7803068331862
 30
0.0
 40
1.0
100
AcDbArc
 50
15.2551187030612
 51
90.0
  0
LINE
  5
308
330
1B
100
AcDbEntity
  8
4
100
AcDbLine
 10
346.2527463361384
 20
696.7803068331862
 30
0.0
 11
346.2527463361384
 21
695.7803068331862
 31
0.0
  0
ARC
  5
309
330
1B
100
AcDbEntity
  8
4
100
AcDbCircle
 10
367.8819533552883
 20
686.4077172636312
 30
0.0
 40
2.0
100
AcDbArc
 50
195.2551187030549
 51
254.6816642065432
  0
LINE
  5
30A
330
1B
100
AcDbEntity
  8
4
100
AcDbLine
 10
363.453714316377
 20
695.0434242389781
 30
0.0
 11
365.9524257128128
 21
685.8814824520471
 31
0.0
  0
ARC
  5
30B
330
1B
100
AcDbEntity
  8
4
100
AcDbCircle
 10
405.1475018361384
 20
686.8803063331859
 30
0.0
 40
4.0000005
100
AcDbArc
 50
90.0
 51
178.4724749999995
  0
LINE
  5
30C
330
1B
100
AcDbEntity
  8
4
100
AcDbLine
 10
276.7527461699242
 20
682.6803068331858
 30
0.0
 11
276.7527461699242
 21
676.6803068331858
 31
0.0
  0
LINE
  5
30D
330
1B
100
AcDbEntity
  8
4
100
AcDbLine
 10
266.7527461699242
 20
682.6803068331858
 30
0.0
 11
266.7527461699242
 21
676.6803068331858
 31
0.0
  0
LINE
  5
30E
330
1B
100
AcDbEntity
  8
4
100
AcDbLine
 10
277.5027461699242
 20
676.6803068331858
 30
0.0
 11
266.0027461699242
 21
676.6803068331858
 31
0.0
  0
LINE
  5
30F
330
1B
100
AcDbEntity
  8
4
100
AcDbLine
 10
266.0027461699242
 20
676.6803068331858
 30
0.0
 11
266.0027461699242
 21
675.1803068331858
 31
0.0
  0
LINE
  5
310
330
1B
100
AcDbEntity
  8
4
100
AcDbLine
 10
277.5027461699242
 20
676.6803068331858
 30
0.0
 11
277.5027461699242
 21
675.1803068331858
 31
0.0
  0
ARC
  5
311
330
1B
100
AcDbEntity
  8
4
100
AcDbCircle
 10
275.8965473514331
 20
687.2748286395974
 30
0.0
 40
1.0
100
AcDbArc
 50
285.3183357934568
 51
344.7448812969523
  0
LINE
  5
312
330
1B
100
AcDbEntity
  8
4
100
AcDbLine
 10
279.0517783558998
 20
695.0434242389783
 30
0.0
 11
276.8613111726709
 21
687.0117112338053
 31
0.0
  0
LINE
  5
313
330
1B
100
AcDbEntity
  8
4
100
AcDbLine
 10
268.5860796694712
 20
682.6803068331858
 30
0.0
 11
275.1519027451509
 21
684.4787714147851
 31
0.0
  0
LINE
  5
314
330
1B
100
AcDbEntity
  8
4
100
AcDbLine
 10
276.7527461699242
 20
682.6803068331858
 30
0.0
 11
266.7527461699242
 21
682.6803068331858
 31
0.0
  0
LINE
  5
315
330
1B
100
AcDbEntity
  8
4
100
AcDbLine
 10
276.5530669594641
 20
685.8814824520471
 30
0.0
 11
276.821109319997
 21
686.8643044406674
 31
0.0
  0
ARC
  5
316
330
1B
100
AcDbEntity
  8
4
100
AcDbCircle
 10
274.6235393169886
 20
686.4077172636312
 30
0.0
 40
2.0
100
AcDbArc
 50
285.3183357934568
 51
344.7448812969451
  0
ARC
  5
317
330
1B
100
AcDbEntity
  8
4
100
AcDbCircle
 10
280.0165421771376
 20
694.7803068331862
 30
0.0
 40
1.0
100
AcDbArc
 50
90.0
 51
164.7448812969388
  0
LINE
  5
318
330
1B
100
AcDbEntity
  8
4
100
AcDbLine
 10
296.2527463361384
 20
696.7803068331862
 30
0.0
 11
296.2527463361384
 21
695.7803068331862
 31
0.0
  0
LINE
  5
319
330
1B
100
AcDbEntity
  8
4
100
AcDbLine
 10
280.0165421771376
 20
695.7803068331862
 30
0.0
 11
362.4889504951393
 21
695.7803068331862
 31
0.0
  0
LINE
  5
31A
330
1B
100
AcDbEntity
  8
4
100
AcDbLine
 10
296.2527463361384
 20
696.7803068331862
 30
0.0
 11
346.2527463361384
 21
696.7803068331862
 31
0.0
  0
LINE
  5
31B
330
1B
100
AcDbEntity
  8
4
100
AcDbLine
 10
280.0165421771376
 20
684.7803068331862
 30
0.0
 11
362.4889504951393
 21
684.7803068331862
 31
0.0
  0
LINE
  5
31C
330
1B
100
AcDbEntity
  8
L-CENTER
 48
2.5
100
AcDbLine
 10
370.7527465023527
 20
653.1534768307254
 30
0.0
 11
370.7527465023527
 21
683.913070757457
 31
0.0
  0
LINE
  5
31D
330
1B
100
AcDbEntity
  8
L-CENTER
 48
2.5
100
AcDbLine
 10
271.7527461699242
 20
653.1534768307254
 30
0.0
 11
271.7527461699242
 21
683.913070757457
 31
0.0
  0
LINE
  5
31E
330
1B
100
AcDbEntity
  8
4
100
AcDbLine
 10
405.1475018361384
 20
690.8803068331858
 30
0.0
 11
447.2527463361384
 21
690.8803068331858
 31
0.0
  0
LINE
  5
31F
330
1B
100
AcDbEntity
  8
4
100
AcDbLine
 10
365.7943418112689
 20
686.4611234243748
 30
0.0
 11
406.9782753981485
 21
675.1803068331858
 31
0.0
  0
LINE
  5
320
330
1B
100
AcDbEntity
  8
4
100
AcDbLine
 10
431.7527463361384
 20
584.8803068331858
 30
0.0
 11
432.7527463361384
 21
584.8803068331858
 31
0.0
  0
LINE
  5
321
330
1B
100
AcDbEntity
  8
L-CENTER
 48
2.5
100
AcDbLine
 10
261.2527463361384
 20
590.3822289608513
 30
0.0
 11
261.2527463361384
 21
640.0990314937878
 31
0.0
  0
LINE
  5
322
330
1B
100
AcDbEntity
  8
4
100
AcDbLine
 10
426.2527463361384
 20
564.8803068331858
 30
0.0
 11
426.2527463361384
 21
572.8803063331859
 31
0.0
  0
LINE
  5
323
330
1B
100
AcDbEntity
  8
L-CENTER
 48
2.5
100
AcDbLine
 10
417.5152283361385
 20
560.8803063331859
 30
0.0
 11
444.8954468361385
 21
560.8803063331859
 31
0.0
  0
ARC
  5
324
330
1B
100
AcDbEntity
  8
4
100
AcDbCircle
 10
431.2527458361383
 20
560.8803063331859
 30
0.0
 40
7.5
100
AcDbArc
 50
147.7690428489584
 51
131.8103097710873
  0
LINE
  5
325
330
1B
100
AcDbEntity
  8
4
100
AcDbLine
 10
428.2527463361384
 20
572.8803063331859
 30
0.0
 11
428.2527463361384
 21
573.8803068331856
 31
0.0
  0
ARC
  5
326
330
1B
100
AcDbEntity
  8
4
100
AcDbCircle
 10
447.2527463361384
 20
544.880307333186
 30
0.0
 40
4.0000005
100
AcDbArc
 50
270.0
 51
0.0
  0
LINE
  5
327
330
1B
100
AcDbEntity
  8
L-CENTER
 48
2.5
100
AcDbLine
 10
431.2527458361383
 20
547.0472868331858
 30
0.0
 11
431.2527458361383
 21
574.4273343331859
 31
0.0
  0
LINE
  5
328
330
1B
100
AcDbEntity
  8
4
100
AcDbLine
 10
361.2527468361386
 20
538.880307333186
 30
0.0
 11
363.2527463361384
 21
548.8803063331859
 31
0.0
  0
ARC
  5
329
330
1B
100
AcDbEntity
  8
4
100
AcDbCircle
 10
405.1475018361384
 20
544.880307333186
 30
0.0
 40
4.0000005
100
AcDbArc
 50
181.5275250000005
 51
270.0
  0
LINE
  5
32A
330
1B
100
AcDbEntity
  8
4
100
AcDbLine
 10
281.2527458361383
 20
538.880307333186
 30
0.0
 11
279.2527463361384
 21
548.8803063331859
 31
0.0
  0
LINE
  5
32B
330
1B
100
AcDbEntity
  8
4
100
AcDbLine
 10
281.2527458361383
 20
538.880307333186
 30
0.0
 11
361.2527468361386
 21
538.880307333186
 31
0.0
  0
LINE
  5
32C
330
1B
100
AcDbEntity
  8
4
100
AcDbLine
 10
279.2527463361384
 20
548.8803063331859
 30
0.0
 11
363.2527463361384
 21
548.8803063331859
 31
0.0
  0
LINE
  5
32D
330
1B
100
AcDbEntity
  8
4
100
AcDbLine
 10
400.720993576108
 20
560.8210215695019
 30
0.0
 11
401.1455992553092
 21
544.898304618772
 31
0.0
  0
LINE
  5
32E
330
1B
100
AcDbEntity
  8
4
100
AcDbLine
 10
405.1475018361384
 20
540.8803068331858
 30
0.0
 11
447.2527463361384
 21
540.8803068331858
 31
0.0
  0
LINE
  5
32F
330
1B
100
AcDbEntity
  8
4
100
AcDbLine
 10
412.421285984155
 20
564.8803068331858
 30
0.0
 11
363.0252668361386
 21
547.7429118331859
 31
0.0
  0
LINE
  5
330
330
1B
100
AcDbEntity
  8
4
100
AcDbLine
 10
409.370393314545
 20
564.8803068331858
 30
0.0
 11
363.2527463361384
 21
548.8803063331859
 31
0.0
  0
LINE
  5
331
330
1B
100
AcDbEntity
  8
L-CENTER
 48
2.5
100
AcDbLine
 10
321.2527463361384
 20
455.1079263331951
 30
0.0
 11
321.2527463361384
 21
702.1095776207146
 31
0.0
  0
LINE
  5
332
330
1B
100
AcDbEntity
  8
4
100
AcDbLine
 10
432.7527463361384
 20
646.8803068331858
 30
0.0
 11
432.7527463361384
 21
584.8803068331858
 31
0.0
  0
LINE
  5
333
330
1B
100
AcDbEntity
  8
4
100
AcDbLine
 10
431.7527463361384
 20
573.8803068331858
 30
0.0
 11
431.7527463361384
 21
657.8803068331858
 31
0.0
  0
LINE
  5
334
330
1B
100
AcDbEntity
  8
4
100
AcDbLine
 10
425.2527463361384
 20
573.8803068331856
 30
0.0
 11
425.2527463361384
 21
657.8803068331861
 31
0.0
  0
LINE
  5
335
330
1B
100
AcDbEntity
  8
4
100
AcDbLine
 10
451.2527468361386
 20
544.880307333186
 30
0.0
 11
451.2527468361386
 21
686.8803063331859
 31
0.0
  0
LINE
  5
336
330
1B
100
AcDbEntity
  8
4
100
AcDbLine
 10
217.2527463361384
 20
682.6803068331858
 30
0.0
 11
217.2527463361384
 21
676.6803068331858
 31
0.0
  0
LINE
  5
337
330
1B
100
AcDbEntity
  8
4
100
AcDbLine
 10
227.2527463361384
 20
682.6803068331858
 30
0.0
 11
227.2527463361384
 21
676.6803068331858
 31
0.0
  0
LINE
  5
338
330
1B
100
AcDbEntity
  8
4
100
AcDbLine
 10
242.2527463361384
 20
683.2803068331864
 30
0.0
 11
242.2527463361384
 21
677.7854396658427
 31
0.0
  0
LINE
  5
339
330
1B
100
AcDbEntity
  8
4
100
AcDbLine
 10
241.3565693361384
 20
686.9869353331858
 30
0.0
 11
241.6268588930168
 21
676.8510782331421
 31
0.0
  0
LINE
  5
33A
330
1B
100
AcDbEntity
  8
4
100
AcDbLine
 10
228.0027463361384
 20
676.6803068331858
 30
0.0
 11
216.5027463361384
 21
676.6803068331858
 31
0.0
  0
LINE
  5
33B
330
1B
100
AcDbEntity
  8
4
100
AcDbLine
 10
216.5027463361384
 20
676.6803068331858
 30
0.0
 11
216.5027463361384
 21
675.1803068331858
 31
0.0
  0
ARC
  5
33C
330
1B
100
AcDbEntity
  8
4
100
AcDbCircle
 10
217.2527463361384
 20
674.1803068331858
 30
0.0
 40
1.0
100
AcDbArc
 50
90.0
 51
180.0
  0
LINE
  5
33D
330
1B
100
AcDbEntity
  8
4
100
AcDbLine
 10
228.0027463361384
 20
676.6803068331858
 30
0.0
 11
228.0027463361384
 21
675.1803068331858
 31
0.0
  0
ARC
  5
33E
330
1B
100
AcDbEntity
  8
4
100
AcDbCircle
 10
241.2527463361384
 20
677.7854396658427
 30
0.0
 40
1.0
100
AcDbArc
 50
285.3183357934568
 51
0.0
  0
LINE
  5
33F
330
1B
100
AcDbEntity
  8
4
100
AcDbLine
 10
227.2527463361384
 20
682.6803068331858
 30
0.0
 11
217.2527463361384
 21
682.6803068331858
 31
0.0
  0
LINE
  5
340
330
1B
100
AcDbEntity
  8
4
100
AcDbLine
 10
195.2527463361384
 20
690.8803068331858
 30
0.0
 11
237.3579908361385
 21
690.8803068331858
 31
0.0
  0
ARC
  5
341
330
1B
100
AcDbEntity
  8
4
100
AcDbCircle
 10
195.2527463361384
 20
686.8803063331859
 30
0.0
 40
4.0000005
100
AcDbArc
 50
90.0
 51
180.0
  0
ARC
  5
342
330
1B
100
AcDbEntity
  8
4
100
AcDbCircle
 10
243.2527463361384
 20
683.2803068331864
 30
0.0
 40
1.0
100
AcDbArc
 50
90.0
 51
180.0
  0
ARC
  5
343
330
1B
100
AcDbEntity
  8
4
100
AcDbCircle
 10
237.3579908361385
 20
686.8803063331859
 30
0.0
 40
4.0000005
100
AcDbArc
 50
1.527525000000444
 51
90.0
  0
LINE
  5
344
330
1B
100
AcDbEntity
  8
L-CENTER
 48
2.5
100
AcDbLine
 10
198.4737773361385
 20
670.8803073331858
 30
0.0
 11
224.7587273361387
 21
670.8803073331858
 31
0.0
  0
LINE
  5
345
330
1B
100
AcDbEntity
  8
4
100
AcDbLine
 10
216.2527463361384
 20
658.8803073331858
 30
0.0
 11
216.2527463361384
 21
663.8803068331861
 31
0.0
  0
LINE
  5
346
330
1B
100
AcDbEntity
  8
4
100
AcDbLine
 10
210.7527458361383
 20
646.8803068331858
 30
0.0
 11
209.7527458361383
 21
646.8803068331858
 31
0.0
  0
LINE
  5
347
330
1B
100
AcDbEntity
  8
4
100
AcDbLine
 10
214.2527463361384
 20
657.8803068331858
 30
0.0
 11
214.2527463361384
 21
658.8803073331858
 31
0.0
  0
LINE
  5
348
330
1B
100
AcDbEntity
  8
L-CENTER
 48
2.5
100
AcDbLine
 10
222.2527463361384
 20
653.1534768307254
 30
0.0
 11
222.2527463361384
 21
683.913070757457
 31
0.0
  0
LINE
  5
349
330
1B
100
AcDbEntity
  8
L-CENTER
 48
2.5
100
AcDbLine
 10
211.2527468361386
 20
656.5674408331859
 30
0.0
 11
211.2527468361386
 21
685.4077428331859
 31
0.0
  0
LINE
  5
34A
330
1B
100
AcDbEntity
  8
4
100
AcDbLine
 10
216.2527463361384
 20
674.1803068331858
 30
0.0
 11
216.2527463361384
 21
664.1803068331858
 31
0.0
  0
ARC
  5
34B
330
1B
100
AcDbEntity
  8
4
100
AcDbCircle
 10
211.2527468361386
 20
670.8803073331858
 30
0.0
 40
7.5
100
AcDbArc
 50
45.82388031249412
 51
311.8103097710862
  0
LINE
  5
34C
330
1B
100
AcDbEntity
  8
4
100
AcDbLine
 10
210.7527458361383
 20
584.8803068331858
 30
0.0
 11
209.7527458361383
 21
584.8803068331858
 31
0.0
  0
LINE
  5
34D
330
1B
100
AcDbEntity
  8
L-CENTER
 48
2.5
100
AcDbLine
 10
198.1087103361388
 20
560.8803063331859
 30
0.0
 11
224.7587273361387
 21
560.8803063331859
 31
0.0
  0
LINE
  5
34E
330
1B
100
AcDbEntity
  8
4
100
AcDbLine
 10
216.2527463361384
 20
564.8803068331858
 30
0.0
 11
216.2527463361384
 21
572.8803063331859
 31
0.0
  0
ARC
  5
34F
330
1B
100
AcDbEntity
  8
4
100
AcDbCircle
 10
211.2527468361386
 20
560.8803063331859
 30
0.0
 40
7.5
100
AcDbArc
 50
48.18969022891267
 51
32.23095715104168
  0
LINE
  5
350
330
1B
100
AcDbEntity
  8
4
100
AcDbLine
 10
214.2527463361384
 20
572.8803063331859
 30
0.0
 11
214.2527463361384
 21
573.8803068331856
 31
0.0
  0
LINE
  5
351
330
1B
100
AcDbEntity
  8
4
100
AcDbLine
 10
195.2527463361384
 20
540.8803068331858
 30
0.0
 11
237.3579908361385
 21
540.8803068331858
 31
0.0
  0
ARC
  5
352
330
1B
100
AcDbEntity
  8
4
100
AcDbCircle
 10
195.2527463361384
 20
544.880307333186
 30
0.0
 40
4.0000005
100
AcDbArc
 50
180.0
 51
270.0
  0
ARC
  5
353
330
1B
100
AcDbEntity
  8
4
100
AcDbCircle
 10
237.3579908361385
 20
544.880307333186
 30
0.0
 40
4.0000005
100
AcDbArc
 50
270.0
 51
358.4724749999996
  0
LINE
  5
354
330
1B
100
AcDbEntity
  8
L-CENTER
 48
2.5
100
AcDbLine
 10
211.2527468361386
 20
547.7774553331858
 30
0.0
 11
211.2527468361386
 21
574.4273343331859
 31
0.0
  0
LINE
  5
355
330
1B
100
AcDbEntity
  8
4
100
AcDbLine
 10
241.3565693361384
 20
544.7736783331859
 30
0.0
 11
241.7844985483384
 21
560.8210217595656
 31
0.0
  0
LINE
  5
356
330
1B
100
AcDbEntity
  8
4
100
AcDbLine
 10
209.7527458361383
 20
646.8803068331858
 30
0.0
 11
209.7527458361383
 21
584.8803068331858
 31
0.0
  0
LINE
  5
357
330
1B
100
AcDbEntity
  8
4
100
AcDbLine
 10
217.2527463361384
 20
573.8803068331858
 30
0.0
 11
217.2527463361384
 21
657.8803068331858
 31
0.0
  0
LINE
  5
358
330
1B
100
AcDbEntity
  8
4
100
AcDbLine
 10
210.7527458361383
 20
573.8803068331858
 30
0.0
 11
210.7527458361383
 21
657.8803068331858
 31
0.0
  0
LINE
  5
359
330
1B
100
AcDbEntity
  8
4
100
AcDbLine
 10
191.2527458361383
 20
544.880307333186
 30
0.0
 11
191.2527458361383
 21
686.8803063331859
 31
0.0
  0
LINE
  5
35A
330
1B
100
AcDbEntity
  8
4
100
AcDbLine
 10
216.2527463361384
 20
564.8803068331858
 30
0.0
 11
426.2527463361384
 21
564.8803068331858
 31
0.0
  0
LINE
  5
35B
330
1B
100
AcDbEntity
  8
4
100
AcDbLine
 10
353.2527328361384
 20
569.8803063331859
 30
0.0
 11
417.2527458361383
 21
569.8803063331859
 31
0.0
  0
LINE
  5
35C
330
1B
100
AcDbEntity
  8
4
100
AcDbLine
 10
214.2527463361384
 20
572.8803063331859
 30
0.0
 11
428.2527463361384
 21
572.8803063331859
 31
0.0
  0
LINE
  5
35D
330
1B
100
AcDbEntity
  8
4
100
AcDbLine
 10
210.7527458361383
 20
573.8803068331858
 30
0.0
 11
431.7527463361384
 21
573.8803068331858
 31
0.0
  0
LINE
  5
35E
330
1B
100
AcDbEntity
  8
4
100
AcDbLine
 10
230.0842066881221
 20
564.8803068331858
 30
0.0
 11
279.4802258361387
 21
547.7429118331859
 31
0.0
  0
LINE
  5
35F
330
1B
100
AcDbEntity
  8
4
100
AcDbLine
 10
233.1350993577321
 20
564.8803068331858
 30
0.0
 11
279.2527463361384
 21
548.8803063331859
 31
0.0
  0
LINE
  5
360
330
1B
100
AcDbEntity
  8
L-CENTER
 48
2.5
100
AcDbLine
 10
458.6093810060141
 20
615.8803068331858
 30
0.0
 11
135.6896339234924
 21
615.8803068331858
 31
0.0
  0
LINE
  5
361
330
1B
100
AcDbEntity
  8
4
100
AcDbLine
 10
235.5272172741284
 20
675.1803068331858
 30
0.0
 11
276.1607290655143
 21
686.3103557151744
 31
0.0
  0
LINE
  5
362
330
1B
100
AcDbEntity
  8
4
100
AcDbLine
 10
241.2051272885192
 20
675.1803068331858
 30
0.0
 11
266.7527461699242
 21
682.1781328746142
 31
0.0
  0
LINE
  5
363
330
1B
100
AcDbEntity
  8
4
100
AcDbLine
 10
426.2527463361384
 20
664.1803068331858
 30
0.0
 11
216.2527463361384
 21
664.1803068331858
 31
0.0
  0
LINE
  5
364
330
1B
100
AcDbEntity
  8
4
100
AcDbLine
 10
425.2527463361384
 20
675.1803068331858
 30
0.0
 11
217.2527463361384
 21
675.1803068331858
 31
0.0
  0
LINE
  5
365
330
1B
100
AcDbEntity
  8
4
100
AcDbLine
 10
216.2527463361384
 20
663.8803068331861
 30
0.0
 11
426.2527463361384
 21
663.8803068331856
 31
0.0
  0
LINE
  5
366
330
1B
100
AcDbEntity
  8
4
100
AcDbLine
 10
214.2527463361384
 20
658.8803073331858
 30
0.0
 11
428.2527463361384
 21
658.8803073331858
 31
0.0
  0
LINE
  5
367
330
1B
100
AcDbEntity
  8
4
100
AcDbLine
 10
210.7527458361383
 20
657.8803068331858
 30
0.0
 11
431.7527463361384
 21
657.8803068331858
 31
0.0
  0
LWPOLYLINE
  5
368
330
1B
100
AcDbEntity
  8
4
100
AcDbPolyline
 90
        6
 70
     1
 43
0.0
 10
273.7527463361384
 20
615.8803068331858
 10
267.5027463361384
 20
626.7056243804914
 10
255.0027463361384
 20
626.7056243804914
 10
248.7527463361384
 20
615.8803068331858
 10
255.0027463361384
 20
605.0549892858803
 10
267.5027463361384
 20
605.0549892858803
  0
CIRCLE
  5
369
330
1B
100
AcDbEntity
  8
4
100
AcDbCircle
 10
261.2527463361384
 20
615.8803068331858
 30
0.0
 40
12.5
  0
CIRCLE
  5
36A
330
1B
100
AcDbEntity
  8
4
100
AcDbCircle
 10
261.2527463361384
 20
615.8803068331858
 30
0.0
 40
19.0
  0
LINE
  5
36B
330
1B
100
AcDbEntity
  8
4
100
AcDbLine
 10
243.2527463361384
 20
684.2803068331864
 30
0.0
 11
268.7494394963524
 21
684.2803068331862
 31
0.0
  0
LINE
  5
36C
330
1B
100
AcDbEntity
  8
4
100
AcDbLine
 10
740.6846026092337
 20
261.3499023915169
 30
0.0
 11
740.6846026092337
 21
271.3499023915168
 31
0.0
  0
ARC
  5
371
330
1B
100
AcDbEntity
  8
4
 62
     3
100
AcDbCircle
 10
693.8846021092334
 20
323.9481428915168
 30
0.0
 40
1.0000005
100
AcDbArc
 50
180.0
 51
266.190165
  0
LINE
  5
372
330
1B
100
AcDbEntity
  8
4
100
AcDbLine
 10
686.3847251092336
 20
328.1133298915169
 30
0.0
 11
661.3847251092336
 21
328.1133298915169
 31
0.0
  0
LINE
  5
373
330
1B
100
AcDbEntity
  8
4
100
AcDbLine
 10
684.7099201092335
 20
332.1133298915169
 30
0.0
 11
663.0592851092335
 21
332.1133298915169
 31
0.0
  0
LINE
  5
374
330
1B
100
AcDbEntity
  8
4
100
AcDbLine
 10
686.3847251092336
 20
326.1133298915169
 30
0.0
 11
661.3847251092336
 21
326.1133298915169
 31
0.0
  0
LINE
  5
375
330
1B
100
AcDbEntity
  8
4
100
AcDbLine
 10
663.0592851092335
 20
328.1133298915169
 30
0.0
 11
663.0592851092335
 21
332.1133298915169
 31
0.0
  0
LINE
  5
376
330
1B
100
AcDbEntity
  8
4
100
AcDbLine
 10
662.3847251092336
 20
324.6133298915169
 30
0.0
 11
662.3847251092336
 21
326.1133298915169
 31
0.0
  0
LINE
  5
377
330
1B
100
AcDbEntity
  8
4
100
AcDbLine
 10
661.3847251092336
 20
326.1133298915169
 30
0.0
 11
661.3847251092336
 21
328.1133298915169
 31
0.0
  0
LINE
  5
378
330
1B
100
AcDbEntity
  8
4
100
AcDbLine
 10
684.7099201092335
 20
328.1133298915169
 30
0.0
 11
684.7099201092335
 21
332.1133298915169
 31
0.0
  0
LINE
  5
379
330
1B
100
AcDbEntity
  8
4
100
AcDbLine
 10
685.3847251092336
 20
324.6133298915169
 30
0.0
 11
685.3847251092336
 21
326.1133298915169
 31
0.0
  0
LINE
  5
37A
330
1B
100
AcDbEntity
  8
4
100
AcDbLine
 10
686.3847251092336
 20
326.1133298915169
 30
0.0
 11
686.3847251092336
 21
328.1133298915169
 31
0.0
  0
LINE
  5
37B
330
1B
100
AcDbEntity
  8
4
 62
     3
100
AcDbLine
 10
692.8846031092337
 20
324.6133298915169
 30
0.0
 11
692.8846031092337
 21
323.9481428915168
 31
0.0
  0
ARC
  5
37C
330
1B
100
AcDbEntity
  8
4
 62
     3
100
AcDbCircle
 10
709.5831836092336
 20
317.452760391517
 30
0.0
 40
4.0000005
100
AcDbArc
 50
7.149430000000284
 51
83.07307699999927
  0
ARC
  5
37D
330
1B
100
AcDbEntity
  8
4
 62
     3
100
AcDbCircle
 10
653.8846031092337
 20
323.9481428915168
 30
0.0
 40
1.0000005
100
AcDbArc
 50
273.809835
 51
0.0
  0
ARC
  5
37E
330
1B
100
AcDbEntity
  8
4
 62
     3
100
AcDbCircle
 10
638.1860216092334
 20
317.452760391517
 30
0.0
 40
4.0000005
100
AcDbArc
 50
96.92692300000073
 51
172.8505699999997
  0
LINE
  5
37F
330
1B
100
AcDbEntity
  8
4
 62
     3
100
AcDbLine
 10
654.8846021092334
 20
324.6133298915169
 30
0.0
 11
654.8846021092334
 21
323.9481428915168
 31
0.0
  0
ARC
  5
380
330
1B
100
AcDbEntity
  8
4
 62
     3
100
AcDbCircle
 10
673.8846026092335
 20
23.61332939151691
 30
0.0
 40
300.0
100
AcDbArc
 50
83.07307699999998
 51
96.926923
  0
LINE
  5
381
330
1B
100
AcDbEntity
  8
4
 62
     3
100
AcDbLine
 10
692.8846031092337
 20
324.6133298915169
 30
0.0
 11
654.8846021092334
 21
324.6133298915169
 31
0.0
  0
LINE
  5
382
330
1B
100
AcDbEntity
  8
4
100
AcDbLine
 10
732.1846026092337
 20
285.6133298915169
 30
0.0
 11
721.8846026092335
 21
285.6133298915169
 31
0.0
  0
ARC
  5
383
330
1B
100
AcDbEntity
  8
4
 62
     3
100
AcDbCircle
 10
717.8846021092334
 20
286.613330391517
 30
0.0
 40
1.0000005
100
AcDbArc
 50
180.0
 51
270.0
  0
LINE
  5
384
330
1B
100
AcDbEntity
  8
4
 62
     3
100
AcDbLine
 10
716.2812401092335
 20
287.6133293915167
 30
0.0
 11
716.3946026092337
 21
287.6133293915167
 31
0.0
  0
ARC
  5
385
330
1B
100
AcDbEntity
  8
4
 62
     3
100
AcDbCircle
 10
716.2812401092335
 20
288.1033298915169
 30
0.0
 40
0.4900004999999999
100
AcDbArc
 50
181.4282999999998
 51
270.0
  0
LINE
  5
386
330
1B
100
AcDbEntity
  8
4
 62
     3
100
AcDbLine
 10
716.8846031092337
 20
287.1233303915168
 30
0.0
 11
716.8846031092337
 21
286.613330391517
 31
0.0
  0
ARC
  5
387
330
1B
100
AcDbEntity
  8
4
 62
     3
100
AcDbCircle
 10
716.3946026092337
 20
287.1233303915168
 30
0.0
 40
0.4900004999999999
100
AcDbArc
 50
0.0
 51
90.0
  0
LINE
  5
388
330
1B
100
AcDbEntity
  8
4
 62
     3
100
AcDbLine
 10
717.8846021092334
 20
285.6133298915169
 30
0.0
 11
721.8846026092335
 21
285.6133298915169
 31
0.0
  0
ARC
  5
389
330
1B
100
AcDbEntity
  8
4
100
AcDbCircle
 10
732.1846026092337
 20
284.6133298915169
 30
0.0
 40
1.0
100
AcDbArc
 50
0.0
 51
90.0
  0
ARC
  5
38A
330
1B
100
AcDbEntity
  8
4
 62
     3
100
AcDbCircle
 10
629.8846031092337
 20
286.613330391517
 30
0.0
 40
1.0000005
100
AcDbArc
 50
270.0
 51
0.0
  0
LINE
  5
38B
330
1B
100
AcDbEntity
  8
4
 62
     3
100
AcDbLine
 10
623.8846031092337
 20
285.6133298915169
 30
0.0
 11
629.8846031092337
 21
285.6133298915169
 31
0.0
  0
ARC
  5
38C
330
1B
100
AcDbEntity
  8
4
 62
     3
100
AcDbCircle
 10
623.8846031092337
 20
284.6133293915167
 30
0.0
 40
1.0000005
100
AcDbArc
 50
90.0
 51
180.0
  0
LINE
  5
38D
330
1B
100
AcDbEntity
  8
4
 62
     3
100
AcDbLine
 10
630.8846021092334
 20
287.1233303915168
 30
0.0
 11
630.8846021092334
 21
286.613330391517
 31
0.0
  0
LINE
  5
38E
330
1B
100
AcDbEntity
  8
4
 62
     3
100
AcDbLine
 10
631.3746026092333
 20
287.6133293915167
 30
0.0
 11
631.4879651092335
 21
287.6133293915167
 31
0.0
  0
ARC
  5
38F
330
1B
100
AcDbEntity
  8
4
 62
     3
100
AcDbCircle
 10
631.4879651092335
 20
288.1033298915169
 30
0.0
 40
0.4900004999999999
100
AcDbArc
 50
270.0
 51
358.5717000000002
  0
ARC
  5
390
330
1B
100
AcDbEntity
  8
4
 62
     3
100
AcDbCircle
 10
631.3746026092333
 20
287.1233303915168
 30
0.0
 40
0.4900004999999999
100
AcDbArc
 50
90.0
 51
180.0
  0
LINE
  5
391
330
1B
100
AcDbEntity
  8
L-CENTER
 48
2.5
100
AcDbLine
 10
719.3985656092334
 20
280.613330391517
 30
0.0
 11
627.3246806092336
 21
280.613330391517
 31
0.0
  0
LINE
  5
392
330
1B
100
AcDbEntity
  8
4
100
AcDbLine
 10
734.6846026092337
 20
260.5999023915169
 30
0.0
 11
734.6846026092337
 21
272.0999023915168
 31
0.0
  0
LINE
  5
393
330
1B
100
AcDbEntity
  8
4
100
AcDbLine
 10
734.6846026092337
 20
272.0999023915168
 30
0.0
 11
733.1846026092337
 21
272.0999023915168
 31
0.0
  0
LINE
  5
394
330
1B
100
AcDbEntity
  8
4
100
AcDbLine
 10
734.6846026092337
 20
260.5999023915169
 30
0.0
 11
733.1846026092337
 21
260.5999023915169
 31
0.0
  0
LINE
  5
395
330
1B
100
AcDbEntity
  8
2
100
AcDbLine
 10
733.1846026092337
 20
266.3499023915168
 30
0.0
 11
734.6846026092337
 21
267.8499023915168
 31
0.0
  0
LINE
  5
396
330
1B
100
AcDbEntity
  8
2
100
AcDbLine
 10
733.1846026092337
 20
264.2285820479573
 30
0.0
 11
734.6846026092337
 21
265.7285820479573
 31
0.0
  0
CIRCLE
  5
397
330
1B
100
AcDbEntity
  8
4
 62
     3
100
AcDbCircle
 10
673.8846026092335
 20
280.613330391517
 30
0.0
 40
31.0000005
  0
LINE
  5
398
330
1B
100
AcDbEntity
  8
4
100
AcDbLine
 10
431.7527463361384
 20
311.613330391517
 30
0.0
 11
432.7527463361384
 21
311.613330391517
 31
0.0
  0
ARC
  5
399
330
1B
100
AcDbEntity
  8
4
 62
     3
100
AcDbCircle
 10
425.9847968361385
 20
323.6133293915169
 30
0.0
 40
1.0000005
100
AcDbArc
 50
210.0000000000064
 51
270.0
  0
LINE
  5
39A
330
1B
100
AcDbEntity
  8
4
 62
     3
100
AcDbLine
 10
425.9847968361385
 20
322.6133303915168
 30
0.0
 11
431.7527468361384
 21
322.6133303915168
 31
0.0
  0
ARC
  5
39B
330
1B
100
AcDbEntity
  8
4
 62
     3
100
AcDbCircle
 10
424.2527468361384
 20
322.6133303915168
 30
0.0
 40
1.0000005
100
AcDbArc
 50
0.0
 51
90.0
  0
LINE
  5
39C
330
1B
100
AcDbEntity
  8
4
100
AcDbLine
 10
273.7532363361383
 20
326.1133298915169
 30
0.0
 11
273.7532363361383
 21
332.1133298915169
 31
0.0
  0
LINE
  5
39D
330
1B
100
AcDbEntity
  8
4
100
AcDbLine
 10
272.7532363361383
 20
324.6133298915169
 30
0.0
 11
272.7532363361383
 21
326.1133298915169
 31
0.0
  0
LINE
  5
39E
330
1B
100
AcDbEntity
  8
4
100
AcDbLine
 10
267.5032363361383
 20
328.1133298915169
 30
0.0
 11
267.5032363361383
 21
332.1133298915169
 31
0.0
  0
LINE
  5
39F
330
1B
100
AcDbEntity
  8
4
100
AcDbLine
 10
255.0032363361383
 20
328.1133298915169
 30
0.0
 11
255.0032363361383
 21
332.1133298915169
 31
0.0
  0
LINE
  5
3A0
330
1B
100
AcDbEntity
  8
4
 62
     3
100
AcDbLine
 10
280.2527468361386
 20
324.6133298915169
 30
0.0
 11
280.2527468361386
 21
324.6033293915169
 31
0.0
  0
ARC
  5
3A1
330
1B
100
AcDbEntity
  8
4
 62
     3
100
AcDbCircle
 10
281.2427468361384
 20
324.6033293915169
 30
0.0
 40
0.99
100
AcDbArc
 50
180.0
 51
270.0
  0
LINE
  5
3A2
330
1B
100
AcDbEntity
  8
L-CENTER
 48
2.5
100
AcDbLine
 10
261.2527463361384
 20
315.4540129471615
 30
0.0
 11
261.2527463361384
 21
338.2494288361567
 31
0.0
  0
ARC
  5
3A3
330
1B
100
AcDbEntity
  8
4
 62
     3
100
AcDbCircle
 10
426.2527463361384
 20
291.6133298915169
 30
0.0
 40
1.0000005
100
AcDbArc
 50
180.0
 51
270.0
  0
LINE
  5
3A4
330
1B
100
AcDbEntity
  8
4
100
AcDbLine
 10
431.7527463361384
 20
249.613330391517
 30
0.0
 11
432.7527463361384
 21
249.613330391517
 31
0.0
  0
ARC
  5
3A5
330
1B
100
AcDbEntity
  8
4
 62
     3
100
AcDbCircle
 10
426.2527463361384
 20
269.6133293915167
 30
0.0
 40
1.0000005
100
AcDbArc
 50
90.0
 51
180.0
  0
ARC
  5
3A6
330
1B
100
AcDbEntity
  8
4
 62
     3
100
AcDbCircle
 10
411.5094068361384
 20
270.8699903915168
 30
0.0
 40
4.0000005
100
AcDbArc
 50
16.07294399999888
 51
73.92705600000133
  0
LINE
  5
3A7
330
1B
100
AcDbEntity
  8
4
 62
     3
100
AcDbLine
 10
425.2527458361385
 20
291.6133298915169
 30
0.0
 11
425.2527458361385
 21
322.6133303915168
 31
0.0
  0
LINE
  5
3A8
330
1B
100
AcDbEntity
  8
4
100
AcDbLine
 10
432.7527463361384
 20
311.613330391517
 30
0.0
 11
432.7527463361384
 21
249.613330391517
 31
0.0
  0
LINE
  5
3AB
330
1B
100
AcDbEntity
  8
L-CENTER
 48
2.5
100
AcDbLine
 10
711.1577726067733
 20
266.3499023915168
 30
0.0
 11
741.917366533505
 21
266.3499023915168
 31
0.0
  0
LINE
  5
3AC
330
1B
100
AcDbEntity
  8
4
100
AcDbLine
 10
740.6846026092337
 20
271.3499023915168
 30
0.0
 11
734.6846026092337
 21
271.3499023915168
 31
0.0
  0
LINE
  5
3AD
330
1B
100
AcDbEntity
  8
4
100
AcDbLine
 10
740.6846026092337
 20
261.3499023915169
 30
0.0
 11
734.6846026092337
 21
261.3499023915168
 31
0.0
  0
LINE
  5
3AE
330
1B
100
AcDbEntity
  8
4
100
AcDbLine
 10
753.0477200150265
 20
222.8142978717555
 30
0.0
 11
743.885778228095
 21
225.3130092681912
 31
0.0
  0
ARC
  5
3AF
330
1B
100
AcDbEntity
  8
4
100
AcDbCircle
 10
744.4120130396798
 20
227.2425369106667
 30
0.0
 40
2.0
100
AcDbArc
 50
195.3183357934497
 51
254.7448812969384
  0
ARC
  5
3B0
330
1B
100
AcDbEntity
  8
4
100
AcDbCircle
 10
752.7846026092341
 20
221.8495340505177
 30
0.0
 40
1.0
100
AcDbArc
 50
0.0
 51
74.74488129692537
  0
LINE
  5
3B1
330
1B
100
AcDbEntity
  8
4
100
AcDbLine
 10
744.4654192004239
 20
205.6133298915166
 30
0.0
 11
742.7846026092323
 21
205.6133298915166
 31
0.0
  0
LINE
  5
3B2
330
1B
100
AcDbEntity
  8
4
100
AcDbLine
 10
754.7843576092339
 20
205.6133298915169
 30
0.0
 11
753.7843576092334
 21
205.6133298915169
 31
0.0
  0
LINE
  5
3B3
330
1B
100
AcDbEntity
  8
4
100
AcDbLine
 10
742.7846026092341
 20
205.6133298915166
 30
0.0
 11
742.7846026092341
 21
225.1251899519142
 31
0.0
  0
LINE
  5
3B4
330
1B
100
AcDbEntity
  8
4
100
AcDbLine
 10
744.4654192004239
 20
155.6133298915169
 30
0.0
 11
742.7846026092341
 21
155.6133298915169
 31
0.0
  0
LINE
  5
3B5
330
1B
100
AcDbEntity
  8
4
100
AcDbLine
 10
754.7843576092339
 20
155.6133298915169
 30
0.0
 11
753.7843576092334
 21
155.6133298915169
 31
0.0
  0
LINE
  5
3B6
330
1B
100
AcDbEntity
  8
4
100
AcDbLine
 10
753.0477200150265
 20
138.4123619112783
 30
0.0
 11
743.885778228095
 21
135.9136505148427
 31
0.0
  0
ARC
  5
3B7
330
1B
100
AcDbEntity
  8
4
100
AcDbCircle
 10
744.4120130396798
 20
133.984122872367
 30
0.0
 40
2.0
100
AcDbArc
 50
105.2551187030616
 51
164.6816642065472
  0
ARC
  5
3B8
330
1B
100
AcDbEntity
  8
4
100
AcDbCircle
 10
752.7846026092341
 20
139.377125732516
 30
0.0
 40
1.0
100
AcDbArc
 50
285.2551187030755
 51
0.0
  0
LINE
  5
3B9
330
1B
100
AcDbEntity
  8
4
100
AcDbLine
 10
742.7846026092341
 20
135.6133298915166
 30
0.0
 11
742.7846026092341
 21
155.6133298915169
 31
0.0
  0
LINE
  5
3BA
330
1B
100
AcDbEntity
  8
4
100
AcDbLine
 10
753.7846026092341
 20
139.377125732516
 30
0.0
 11
753.7846026092341
 21
221.8495340505177
 31
0.0
  0
LINE
  5
3BB
330
1B
100
AcDbEntity
  8
4
100
AcDbLine
 10
744.4654192004239
 20
155.6133298915169
 30
0.0
 11
744.4654192004239
 21
205.6133298915166
 31
0.0
  0
LINE
  5
3BC
330
1B
100
AcDbEntity
  8
4
100
AcDbLine
 10
754.7843576092339
 20
205.6133298915169
 30
0.0
 11
754.7843576092339
 21
155.6133298915169
 31
0.0
  0
LINE
  5
3BD
330
1B
100
AcDbEntity
  8
4
100
AcDbLine
 10
740.6846026092337
 20
175.613329891517
 30
0.0
 11
740.6846026092337
 21
185.6133298915169
 31
0.0
  0
ARC
  5
3BE
330
1B
100
AcDbEntity
  8
4
 62
     3
100
AcDbCircle
 10
746.8846031092337
 20
83.61332939151691
 30
0.0
 40
1.9999995
100
AcDbArc
 50
0.0
 51
90.0
  0
LINE
  5
3BF
330
1B
100
AcDbEntity
  8
4
100
AcDbLine
 10
740.6846026092337
 20
89.8767573915178
 30
0.0
 11
740.6846026092337
 21
99.87675739151769
 31
0.0
  0
LINE
  5
3C0
330
1B
100
AcDbEntity
  8
4
 62
     3
100
AcDbLine
 10
748.8846026092335
 20
83.61332939151691
 30
0.0
 11
748.8846026092335
 21
60.61332989151686
 31
0.0
  0
ARC
  5
3C1
330
1B
100
AcDbEntity
  8
4
 62
     3
100
AcDbCircle
 10
709.5831836092336
 20
243.773900391517
 30
0.0
 40
4.0000005
100
AcDbArc
 50
276.9269230000008
 51
352.8505699999997
  0
LINE
  5
3C2
330
1B
100
AcDbEntity
  8
4
 62
     3
100
AcDbLine
 10
597.6884861092333
 20
220.7741063915169
 30
0.0
 11
605.2768346092337
 21
222.2917763915169
 31
0.0
  0
ARC
  5
3C3
330
1B
100
AcDbEntity
  8
4
 62
     3
100
AcDbCircle
 10
597.8846021092334
 20
219.7935263915168
 30
0.0
 40
1.0000005
100
AcDbArc
 50
101.3099319999972
 51
180.0
  0
ARC
  5
3C4
330
1B
100
AcDbEntity
  8
4
100
AcDbCircle
 10
605.3819801092334
 20
224.3524133915168
 30
0.0
 40
1.9999995
100
AcDbArc
 50
281.3099320000086
 51
340.3461760000039
  0
LINE
  5
3C5
330
1B
100
AcDbEntity
  8
4
100
AcDbLine
 10
605.2768346092337
 20
222.2917763915169
 30
0.0
 11
605.7742121092335
 21
222.3912518915168
 31
0.0
  0
ARC
  5
3C6
330
1B
100
AcDbEntity
  8
4
 62
     3
100
AcDbCircle
 10
638.1860216092334
 20
243.773900391517
 30
0.0
 40
4.0000005
100
AcDbArc
 50
187.1494300000003
 51
263.0730769999992
  0
ARC
  5
3C7
330
1B
100
AcDbEntity
  8
4
 62
     3
100
AcDbCircle
 10
673.8846026092335
 20
537.6133313915171
 30
0.0
 40
300.0
100
AcDbArc
 50
263.073077
 51
276.926923
  0
LINE
  5
3C8
330
1B
100
AcDbEntity
  8
4
100
AcDbLine
 10
734.6846026092337
 20
186.3633298915169
 30
0.0
 11
733.1846026092337
 21
186.3633298915169
 31
0.0
  0
LINE
  5
3C9
330
1B
100
AcDbEntity
  8
4
100
AcDbLine
 10
605.1985423049684
 20
205.6133301988439
 30
0.0
 11
622.8846026092335
 21
201.613329730211
 31
0.0
  0
LINE
  5
3CA
330
1B
100
AcDbEntity
  8
4
100
AcDbLine
 10
606.9009799533426
 20
205.6133301988436
 30
0.0
 11
622.8846026092335
 21
201.9983646828324
 31
0.0
  0
LINE
  5
3CB
330
1B
100
AcDbEntity
  8
4
100
AcDbLine
 10
605.1985423049684
 20
205.6133301988435
 30
0.0
 11
606.9009799533426
 21
205.6133301988435
 31
0.0
  0
LINE
  5
3CC
330
1B
100
AcDbEntity
  8
4
100
AcDbLine
 10
606.9009799533426
 20
205.6133301988435
 30
0.0
 11
606.9009799533426
 21
222.0707761094144
 31
0.0
  0
LINE
  5
3CD
330
1B
100
AcDbEntity
  8
2
100
AcDbLine
 10
733.1846026092337
 20
178.4920095479573
 30
0.0
 11
734.6846026092337
 21
179.9920095479573
 31
0.0
  0
LINE
  5
3CE
330
1B
100
AcDbEntity
  8
2
100
AcDbLine
 10
733.1846026092337
 20
180.6133298915169
 30
0.0
 11
734.6846026092337
 21
182.1133298915169
 31
0.0
  0
LINE
  5
3CF
330
1B
100
AcDbEntity
  8
4
100
AcDbLine
 10
734.6846026092337
 20
174.863329891517
 30
0.0
 11
733.1846026092337
 21
174.863329891517
 31
0.0
  0
LINE
  5
3D0
330
1B
100
AcDbEntity
  8
4
100
AcDbLine
 10
606.9009799533426
 20
155.6133295841901
 30
0.0
 11
622.8846026092335
 21
159.2282951002013
 31
0.0
  0
LINE
  5
3D1
330
1B
100
AcDbEntity
  8
4
100
AcDbLine
 10
605.1985423049684
 20
155.6133295841901
 30
0.0
 11
622.8846026092335
 21
159.6133300528227
 31
0.0
  0
LINE
  5
3D2
330
1B
100
AcDbEntity
  8
4
100
AcDbLine
 10
605.1985423049684
 20
155.6133295841902
 30
0.0
 11
606.9009799533426
 21
155.6133295841902
 31
0.0
  0
LINE
  5
3D3
330
1B
100
AcDbEntity
  8
4
 62
     3
100
AcDbLine
 10
597.6884861092333
 20
140.4525533915169
 30
0.0
 11
605.7753386466313
 21
138.835182123888
 31
0.0
  0
ARC
  5
3D4
330
1B
100
AcDbEntity
  8
4
 62
     3
100
AcDbCircle
 10
597.8846021092334
 20
141.4331333915169
 30
0.0
 40
1.0000005
100
AcDbArc
 50
180.0
 51
258.6900680000028
  0
ARC
  5
3D5
330
1B
100
AcDbEntity
  8
4
100
AcDbCircle
 10
605.3817956092337
 20
136.8742838915169
 30
0.0
 40
1.9999995
100
AcDbArc
 50
18.92367000000244
 51
78.69006800000444
  0
ARC
  5
3D6
330
1B
100
AcDbEntity
  8
4
 62
     3
100
AcDbCircle
 10
603.6793586092338
 20
137.2147703915169
 30
0.0
 40
1.9999995
100
AcDbArc
 50
18.92367000000244
 51
78.69006800000444
  0
LINE
  5
3D7
330
1B
100
AcDbEntity
  8
4
100
AcDbLine
 10
604.0715906092335
 20
139.1759318915168
 30
0.0
 11
605.7740276092334
 21
138.8354453915168
 31
0.0
  0
LINE
  5
3D8
330
1B
100
AcDbEntity
  8
4
100
AcDbLine
 10
606.9009799533426
 20
138.6100537567373
 30
0.0
 11
606.9009799533426
 21
155.6133295841901
 31
0.0
  0
LINE
  5
3D9
330
1B
100
AcDbEntity
  8
4
 62
     3
100
AcDbLine
 10
596.8846031092337
 20
219.7935263915168
 30
0.0
 11
596.8846031092337
 21
141.4331333915169
 31
0.0
  0
LINE
  5
3DA
330
1B
100
AcDbEntity
  8
4
100
AcDbLine
 10
605.1985423049684
 20
155.6133295841902
 30
0.0
 11
605.1985423049684
 21
205.6133301988439
 31
0.0
  0
LINE
  5
3DB
330
1B
100
AcDbEntity
  8
4
100
AcDbLine
 10
734.6846026092337
 20
174.863329891517
 30
0.0
 11
734.6846026092337
 21
186.3633298915169
 31
0.0
  0
ARC
  5
3DC
330
1B
100
AcDbEntity
  8
4
 62
     3
100
AcDbCircle
 10
427.2527468361384
 20
236.6133293915167
 30
0.0
 40
1.9999995
100
AcDbArc
 50
90.0
 51
180.0
  0
LINE
  5
3DD
330
1B
100
AcDbEntity
  8
4
 62
     3
100
AcDbLine
 10
427.2527468361384
 20
238.613330391517
 30
0.0
 11
431.7527468361384
 21
238.613330391517
 31
0.0
  0
ARC
  5
3DE
330
1B
100
AcDbEntity
  8
4
 62
     3
100
AcDbCircle
 10
357.0900158361385
 20
216.4505993915167
 30
0.0
 40
1.9999995
100
AcDbArc
 50
6.907067000000085
 51
83.09293299999993
  0
ARC
  5
3DF
330
1B
100
AcDbEntity
  8
4
 62
     3
100
AcDbCircle
 10
358.8690713361384
 20
218.2296548915168
 30
0.0
 40
1.9999995
100
AcDbArc
 50
7.251750999999385
 51
82.74824900000063
  0
ARC
  5
3E0
330
1B
100
AcDbEntity
  8
4
 62
     3
100
AcDbCircle
 10
283.6364213361385
 20
218.2296548915168
 30
0.0
 40
1.9999995
100
AcDbArc
 50
97.25175099999937
 51
172.7482490000006
  0
ARC
  5
3E1
330
1B
100
AcDbEntity
  8
4
 62
     3
100
AcDbCircle
 10
285.4154768361384
 20
216.4505993915167
 30
0.0
 40
1.9999995
100
AcDbArc
 50
96.90706700000007
 51
173.0929329999999
  0
ARC
  5
3E2
330
1B
100
AcDbEntity
  8
4
 62
     3
100
AcDbCircle
 10
321.2527463361384
 20
-79.38666960848295
 30
0.0
 40
300.0
100
AcDbArc
 50
83.092933
 51
96.90706700000001
  0
ARC
  5
3E3
330
1B
100
AcDbEntity
  8
4
 62
     3
100
AcDbCircle
 10
321.2527463361384
 20
-77.38667010848289
 30
0.0
 40
300.0
100
AcDbArc
 50
82.74824900000003
 51
97.25175099999998
  0
ARC
  5
3E4
330
1B
100
AcDbEntity
  8
4
 62
     3
100
AcDbCircle
 10
364.9759538361384
 20
208.4001203915169
 30
0.0
 40
3.0
100
AcDbArc
 50
185.2617349999998
 51
265.3931879999984
  0
LINE
  5
3E5
330
1B
100
AcDbEntity
  8
4
 62
     3
100
AcDbLine
 10
406.2178013361386
 20
202.067220891517
 30
0.0
 11
364.7350028361384
 21
205.4098118915168
 31
0.0
  0
ARC
  5
3E6
330
1B
100
AcDbEntity
  8
4
 62
     3
100
AcDbCircle
 10
277.5295388361385
 20
208.4001203915169
 30
0.0
 40
3.0
100
AcDbArc
 50
274.6068120000016
 51
354.7382650000002
  0
ARC
  5
3E7
330
1B
100
AcDbEntity
  8
4
 62
     3
100
AcDbCircle
 10
406.5390713361385
 20
206.0542988915169
 30
0.0
 40
4.0000005
100
AcDbArc
 50
265.3931879999981
 51
16.60987800000092
  0
LINE
  5
3E8
330
1B
100
AcDbEntity
  8
4
 62
     3
100
AcDbLine
 10
406.2178013361386
 20
159.1594388915167
 30
0.0
 11
364.7350028361384
 21
155.8168478915169
 31
0.0
  0
ARC
  5
3E9
330
1B
100
AcDbEntity
  8
4
 62
     3
100
AcDbCircle
 10
349.0395368361385
 20
136.8901223915169
 30
0.0
 40
3.0
100
AcDbArc
 50
95.26173499999754
 51
175.3931879999984
  0
ARC
  5
3EA
330
1B
100
AcDbEntity
  8
4
 62
     3
100
AcDbCircle
 10
358.8690713361384
 20
142.9970048915169
 30
0.0
 40
1.9999995
100
AcDbArc
 50
277.2517509999994
 51
352.7482490000006
  0
ARC
  5
3EB
330
1B
100
AcDbEntity
  8
4
 62
     3
100
AcDbCircle
 10
357.0900158361385
 20
144.776060391517
 30
0.0
 40
1.9999995
100
AcDbArc
 50
276.9070670000001
 51
353.0929329999999
  0
ARC
  5
3EC
330
1B
100
AcDbEntity
  8
4
 62
     3
100
AcDbCircle
 10
293.4659558361384
 20
136.8901223915169
 30
0.0
 40
3.0
100
AcDbArc
 50
4.606812000001621
 51
84.73826500000246
  0
ARC
  5
3ED
330
1B
100
AcDbEntity
  8
4
 62
     3
100
AcDbCircle
 10
283.6364213361385
 20
142.9970048915169
 30
0.0
 40
1.9999995
100
AcDbArc
 50
187.2517509999994
 51
262.7482490000006
  0
ARC
  5
3EE
330
1B
100
AcDbEntity
  8
4
 62
     3
100
AcDbCircle
 10
285.4154768361384
 20
144.776060391517
 30
0.0
 40
1.9999995
100
AcDbArc
 50
186.9070670000001
 51
263.0929329999999
  0
ARC
  5
3EF
330
1B
100
AcDbEntity
  8
4
 62
     3
100
AcDbCircle
 10
321.2527463361384
 20
438.6133298915166
 30
0.0
 40
300.0
100
AcDbArc
 50
262.7482489999999
 51
277.251751
  0
ARC
  5
3F0
330
1B
100
AcDbEntity
  8
4
 62
     3
100
AcDbCircle
 10
321.2527463361384
 20
440.6133293915167
 30
0.0
 40
300.0
100
AcDbArc
 50
263.0929330000001
 51
276.907067
  0
ARC
  5
3F1
330
1B
100
AcDbEntity
  8
4
 62
     3
100
AcDbCircle
 10
277.5295388361385
 20
152.8265393915168
 30
0.0
 40
3.0
100
AcDbArc
 50
5.261734999999806
 51
85.3931879999984
  0
ARC
  5
3F2
330
1B
100
AcDbEntity
  8
4
 62
     3
100
AcDbCircle
 10
364.9759538361384
 20
152.8265393915168
 30
0.0
 40
3.0
100
AcDbArc
 50
94.60681200000161
 51
174.7382650000002
  0
ARC
  5
3F3
330
1B
100
AcDbEntity
  8
4
 62
     3
100
AcDbCircle
 10
406.5390713361385
 20
155.1723608915169
 30
0.0
 40
4.0000005
100
AcDbArc
 50
343.3901220000009
 51
94.60681200000194
  0
ARC
  5
3F4
330
1B
100
AcDbEntity
  8
4
 62
     3
100
AcDbCircle
 10
61.25274683613861
 20
180.6133298915169
 30
0.0
 40
300.0
100
AcDbArc
 50
353.0929330000001
 51
6.907066999999978
  0
ARC
  5
3F5
330
1B
100
AcDbEntity
  8
4
 62
     3
100
AcDbCircle
 10
63.25274633613844
 20
180.6133298915169
 30
0.0
 40
300.0
100
AcDbArc
 50
352.7482490000001
 51
7.251750999999988
  0
ARC
  5
3F6
330
1B
100
AcDbEntity
  8
4
 62
     3
100
AcDbCircle
 10
579.2527463361384
 20
180.6133298915169
 30
0.0
 40
300.0
100
AcDbArc
 50
172.748249
 51
187.251751
  0
ARC
  5
3F7
330
1B
100
AcDbEntity
  8
4
 62
     3
100
AcDbCircle
 10
581.2527458361383
 20
180.6133298915169
 30
0.0
 40
300.0
100
AcDbArc
 50
173.0929329999999
 51
186.907067
  0
LINE
  5
3F8
330
1B
100
AcDbEntity
  8
4
100
AcDbLine
 10
734.6846026092337
 20
100.6267573915176
 30
0.0
 11
733.1846026092337
 21
100.6267573915176
 31
0.0
  0
LINE
  5
3F9
330
1B
100
AcDbEntity
  8
2
100
AcDbLine
 10
733.1846026092337
 20
94.87675739151769
 30
0.0
 11
734.6846026092337
 21
96.37675739151769
 31
0.0
  0
ARC
  5
3FA
330
1B
100
AcDbEntity
  8
4
 62
     3
100
AcDbCircle
 10
705.8846021092334
 20
87.61332989151686
 30
0.0
 40
1.9999995
100
AcDbArc
 50
180.0
 51
270.0
  0
LINE
  5
3FB
330
1B
100
AcDbEntity
  8
4
100
AcDbLine
 10
734.6846026092337
 20
89.1267573915178
 30
0.0
 11
733.1846026092337
 21
89.1267573915178
 31
0.0
  0
LINE
  5
3FC
330
1B
100
AcDbEntity
  8
2
100
AcDbLine
 10
733.1846026092337
 20
92.75543704795803
 30
0.0
 11
734.6846026092337
 21
94.25543704795803
 31
0.0
  0
ARC
  5
3FD
330
1B
100
AcDbEntity
  8
4
 62
     3
100
AcDbCircle
 10
600.8846021092334
 20
83.61332939151691
 30
0.0
 40
1.9999995
100
AcDbArc
 50
90.0
 51
180.0
  0
ARC
  5
3FE
330
1B
100
AcDbEntity
  8
4
 62
     3
100
AcDbCircle
 10
641.8846031092337
 20
87.61332989151686
 30
0.0
 40
1.9999995
100
AcDbArc
 50
270.0
 51
0.0
  0
LINE
  5
3FF
330
1B
100
AcDbEntity
  8
4
100
AcDbLine
 10
734.6846026092337
 20
89.1267573915178
 30
0.0
 11
734.6846026092337
 21
100.6267573915176
 31
0.0
  0
LINE
  5
406
330
1B
100
AcDbEntity
  8
L-CENTER
 48
2.5
100
AcDbLine
 10
728.8846031092337
 20
92.6133303915168
 30
0.0
 11
728.8846031092337
 21
53.61332989151686
 31
0.0
  0
LINE
  5
407
330
1B
100
AcDbEntity
  8
L-CENTER
 48
2.5
100
AcDbLine
 10
618.8846021092334
 20
92.6133303915168
 30
0.0
 11
618.8846021092334
 21
53.61332989151686
 31
0.0
  0
LINE
  5
408
330
1B
100
AcDbEntity
  8
4
 62
     3
100
AcDbLine
 10
598.8846026092335
 20
83.61332939151691
 30
0.0
 11
598.8846026092335
 21
60.61332989151686
 31
0.0
  0
ARC
  5
40A
330
1B
100
AcDbEntity
  8
4
 62
     3
100
AcDbCircle
 10
420.9368018361383
 20
90.61332989151686
 30
0.0
 40
4.9999995
100
AcDbArc
 50
164.415651
 51
270.0
  0
ARC
  5
40B
330
1B
100
AcDbEntity
  8
4
 62
     3
100
AcDbCircle
 10
433.2527468361384
 20
90.61332989151686
 30
0.0
 40
4.9999995
100
AcDbArc
 50
180.0
 51
270.0
  0
ARC
  5
40D
330
1B
100
AcDbEntity
  8
4
 62
     3
100
AcDbCircle
 10
449.2527458361385
 20
83.61332939151691
 30
0.0
 40
1.9999995
100
AcDbArc
 50
0.0
 51
90.0
  0
ARC
  5
40F
330
1B
100
AcDbEntity
  8
4
 62
     3
100
AcDbCircle
 10
394.2527468361384
 20
65.61332939151691
 30
0.0
 40
4.9999995
100
AcDbArc
 50
0.0
 51
90.0
  0
ARC
  5
410
330
1B
100
AcDbEntity
  8
4
 62
     3
100
AcDbCircle
 10
394.2527468361384
 20
76.66379189151701
 30
0.0
 40
4.9999995
100
AcDbArc
 50
0.0
 51
102.5863330000002
  0
ARC
  5
411
330
1B
100
AcDbEntity
  8
4
 62
     3
100
AcDbCircle
 10
401.2527458361385
 20
83.61332939151691
 30
0.0
 40
1.9999995
100
AcDbArc
 50
90.0
 51
180.0
  0
ARC
  5
412
330
1B
100
AcDbEntity
  8
4
 62
     3
100
AcDbCircle
 10
403.2527468361384
 20
83.61332939151691
 30
0.0
 40
1.9999995
100
AcDbArc
 50
90.0
 51
180.0
  0
ARC
  5
413
330
1B
100
AcDbEntity
  8
4
 62
     3
100
AcDbCircle
 10
321.2527463361384
 20
403.613330391517
 30
0.0
 40
330.0
100
AcDbArc
 50
270.0
 51
282.586333
  0
ARC
  5
414
330
1B
100
AcDbEntity
  8
4
 62
     3
100
AcDbCircle
 10
346.6937153361384
 20
95.32700489151682
 30
0.0
 40
4.0000005
100
AcDbArc
 50
175.3931879999998
 51
286.6098780000009
  0
ARC
  5
415
330
1B
100
AcDbEntity
  8
4
 62
     3
100
AcDbCircle
 10
295.8117773361384
 20
95.32700489151682
 30
0.0
 40
4.0000005
100
AcDbArc
 50
253.3901219999991
 51
4.606812000000274
  0
LINE
  5
416
330
1B
100
AcDbEntity
  8
4
 62
     3
100
AcDbLine
 10
401.2527458361385
 20
85.6133303915168
 30
0.0
 11
449.2527458361385
 21
85.6133303915168
 31
0.0
  0
TEXT
  5
41B
330
1B
100
AcDbEntity
  8
3
100
AcDbText
 10
479.6623014132051
 20
55.46388219350752
 30
0.0
 40
7.5
  1
LB4-03
  7
KANJI
 72
     1
 11
500.2873014132051
 21
55.46388219350752
 31
0.0
100
AcDbText
  0
LINE
  5
41F
330
1B
100
AcDbEntity
  8
4
 62
     3
100
AcDbLine
 10
399.2527463361384
 20
60.61332989151686
 30
0.0
 11
451.2527468361384
 21
60.61332989151686
 31
0.0
  0
LWPOLYLINE
  5
420
330
1B
100
AcDbEntity
  8
4
100
AcDbPolyline
 90
       44
 70
     0
 43
0.0
 10
416.0266758361381
 20
85.62258489151725
 10
416.3090683361379
 20
85.26114239151741
 10
416.5815933361382
 20
84.90116239151746
 10
416.834390836138
 20
84.54410989151745
 10
417.3757458361381
 20
83.50513239151735
 10
417.450968336138
 20
83.17441239151742
 10
417.4571383361381
 20
82.8539298915174
 10
417.3843858361381
 20
82.54515489151743
 10
417.204190836138
 20
82.21263989151737
 10
416.9456258361381
 20
81.89061489151743
 10
416.6423958361381
 20
81.57294739151746
 10
416.328208336138
 20
81.25350989151741
 10
416.0367658361381
 20
80.92616989151736
 10
415.8017808361381
 20
80.58479489151739
 10
415.658125836138
 20
80.25275989151748
 10
415.5823983361381
 20
79.90536489151725
 10
415.5655783361381
 20
79.54445489151738
 10
415.7783833361382
 20
78.39911739151728
 10
416.1966708361381
 20
77.1986698915174
 10
416.5769158361381
 20
75.99299989151734
 10
416.653120836138
 20
75.59857239151722
 10
416.6890208361381
 20
75.21095239151725
 10
416.6755958361382
 20
74.83199239151725
 10
416.5655483361381
 20
74.3201323915174
 10
416.3657633361381
 20
73.82491489151732
 10
416.0999133361381
 20
73.34255739151729
 10
415.1426133361381
 20
71.9348848915173
 10
414.8491558361382
 20
71.46619739151731
 10
414.6079608361381
 20
70.99148239151725
 10
414.4427008361381
 20
70.50695989151734
 10
414.3742508361381
 20
70.06834739151725
 10
414.372590836138
 20
69.62035739151736
 10
414.426763336138
 20
69.16422239151723
 10
414.8147408361381
 20
67.7592298915173
 10
415.3108583361382
 20
66.32516489151737
 10
415.449140836138
 20
65.84641989151748
 10
415.5556208361381
 20
65.36935739151738
 10
415.6193433361382
 20
64.89521239151725
 10
415.6165833361381
 20
64.1474873915173
 10
415.5001333361381
 20
63.40853239151727
 10
415.292728336138
 20
62.67659489151731
 10
415.0171083361381
 20
61.94991989151742
 10
414.6960108361382
 20
61.22675239151738
 10
414.4036474632671
 20
60.61332989151731
  0
LINE
  5
421
330
1B
100
AcDbEntity
  8
4
100
AcDbLine
 10
438.752745836138
 20
85.61332989151731
 30
0.0
 11
438.752745836138
 21
60.61332989151731
 31
0.0
  0
LINE
  5
422
330
1B
100
AcDbEntity
  8
4
100
AcDbLine
 10
423.752745836138
 20
85.61332989151731
 30
0.0
 11
423.752745836138
 21
60.61332989151731
 31
0.0
  0
LINE
  5
423
330
1B
100
AcDbEntity
  8
4
 62
     3
100
AcDbLine
 10
399.2527463361384
 20
83.61332939151691
 30
0.0
 11
399.2527463361384
 21
60.61332989151686
 31
0.0
  0
LINE
  5
424
330
1B
100
AcDbEntity
  8
4
 62
     3
100
AcDbLine
 10
401.2527458361385
 20
83.61332939151691
 30
0.0
 11
401.2527458361385
 21
60.61332989151686
 31
0.0
  0
LINE
  5
425
330
1B
100
AcDbEntity
  8
L-CENTER
 48
2.5
100
AcDbLine
 10
431.2527458361385
 20
92.6133303915168
 30
0.0
 11
431.2527458361385
 21
53.61332989151686
 31
0.0
  0
LINE
  5
427
330
1B
100
AcDbEntity
  8
4
 62
     3
100
AcDbLine
 10
451.2527468361384
 20
83.61332939151691
 30
0.0
 11
451.2527468361384
 21
60.61332989151686
 31
0.0
  0
LINE
  5
429
330
1B
100
AcDbEntity
  8
4
 62
     3
100
AcDbLine
 10
703.8846026092335
 20
168.3451943915169
 30
0.0
 11
703.8846026092335
 21
87.61332989151686
 31
0.0
  0
LINE
  5
42A
330
1B
100
AcDbEntity
  8
4
 62
     3
100
AcDbLine
 10
643.8846026092335
 20
168.3451943915169
 30
0.0
 11
643.8846026092335
 21
87.61332989151686
 31
0.0
  0
LINE
  5
42B
330
1B
100
AcDbEntity
  8
4
 62
     3
100
AcDbLine
 10
605.5708690645049
 20
137.8645289602174
 30
0.0
 11
622.8846026092335
 21
87.36334289151682
 31
0.0
  0
LINE
  5
42C
330
1B
100
AcDbEntity
  8
4
100
AcDbLine
 10
607.2733060646672
 20
137.524042459745
 30
0.0
 11
622.884602609234
 21
91.98857263252398
 31
0.0
  0
LINE
  5
42D
330
1B
100
AcDbEntity
  8
4
 62
     3
100
AcDbLine
 10
428.2527458361385
 20
180.6133298915169
 30
0.0
 11
428.2527458361385
 21
90.61332989151686
 31
0.0
  0
LINE
  5
42E
330
1B
100
AcDbEntity
  8
4
 62
     3
100
AcDbLine
 10
299.7988553361383
 20
95.64827489151673
 30
0.0
 11
296.4562643361385
 21
137.1310733915169
 31
0.0
  0
LINE
  5
42F
330
1B
100
AcDbEntity
  8
4
 62
     3
100
AcDbLine
 10
342.7066373361386
 20
95.64827489151673
 30
0.0
 11
346.0492283361384
 21
137.1310733915169
 31
0.0
  0
LINE
  5
430
330
1B
100
AcDbEntity
  8
4
 62
     3
100
AcDbLine
 10
598.8846026092335
 20
60.61332989151686
 30
0.0
 11
748.8846026092335
 21
60.61332989151686
 31
0.0
  0
LINE
  5
431
330
1B
100
AcDbEntity
  8
4
 62
     3
100
AcDbLine
 10
746.8846031092337
 20
85.6133303915168
 30
0.0
 11
600.9057218656892
 21
85.6133303915168
 31
0.0
  0
LINE
  5
432
330
1B
100
AcDbEntity
  8
L-CENTER
 48
2.5
100
AcDbLine
 10
760.2401845746772
 20
180.6133298915169
 30
0.0
 11
515.015073749173
 21
180.613329891517
 31
0.0
  0
LINE
  5
433
330
1B
100
AcDbEntity
  8
4
100
AcDbLine
 10
744.465419200423
 20
136.0717344163864
 30
0.0
 11
734.6846026092337
 21
100.3639913056961
 31
0.0
  0
LINE
  5
434
330
1B
100
AcDbEntity
  8
4
100
AcDbLine
 10
733.2013240548861
 20
100.6267573915176
 30
0.0
 11
742.4830671908323
 21
134.5124863005295
 31
0.0
  0
LINE
  5
435
330
1B
100
AcDbEntity
  8
4
100
AcDbLine
 10
744.4654192004239
 20
155.6133298915169
 30
0.0
 11
733.1846026092337
 21
159.6133298915173
 31
0.0
  0
LINE
  5
436
330
1B
100
AcDbEntity
  8
4
100
AcDbLine
 10
742.7846026092341
 20
155.6133298915169
 30
0.0
 11
733.1846026092346
 21
159.0173387848084
 31
0.0
  0
LINE
  5
437
330
1B
100
AcDbEntity
  8
4
100
AcDbLine
 10
744.4654192004239
 20
205.6133298915169
 30
0.0
 11
733.1846026092337
 21
201.6133298915164
 31
0.0
  0
LINE
  5
438
330
1B
100
AcDbEntity
  8
4
100
AcDbLine
 10
742.7846026092323
 20
205.6133298915166
 30
0.0
 11
733.1846026092346
 21
202.2093209982248
 31
0.0
  0
LINE
  5
439
330
1B
100
AcDbEntity
  8
L-CENTER
 48
2.5
100
AcDbLine
 10
711.1577726067756
 20
94.87675739151712
 30
0.0
 11
741.9173665335072
 21
94.87675739151791
 31
0.0
  0
LINE
  5
43A
330
1B
100
AcDbEntity
  8
4
100
AcDbLine
 10
740.6846026092337
 20
175.613329891517
 30
0.0
 11
734.6846026092337
 21
175.6133298915169
 31
0.0
  0
LINE
  5
43B
330
1B
100
AcDbEntity
  8
4
100
AcDbLine
 10
740.6846026092337
 20
185.6133298915169
 30
0.0
 11
734.6846026092337
 21
185.6133298915169
 31
0.0
  0
LINE
  5
43C
330
1B
100
AcDbEntity
  8
4
100
AcDbLine
 10
740.6846026092337
 20
89.8767573915178
 30
0.0
 11
734.6846026092337
 21
89.87675739151757
 31
0.0
  0
LINE
  5
43D
330
1B
100
AcDbEntity
  8
4
100
AcDbLine
 10
740.6846026092337
 20
99.87675739151769
 30
0.0
 11
734.6846026092337
 21
99.87675739151757
 31
0.0
  0
LINE
  5
43E
330
1B
100
AcDbEntity
  8
L-CENTER
 48
2.5
100
AcDbLine
 10
673.8846026092335
 20
53.87433839151686
 30
0.0
 11
673.8846026092335
 21
337.6684655436746
 31
0.0
  0
LINE
  5
43F
330
1B
100
AcDbEntity
  8
4
 62
     3
100
AcDbLine
 10
721.8846026092335
 20
285.6133298915169
 30
0.0
 11
721.8846026092335
 21
85.61333039151691
 31
0.0
  0
LINE
  5
440
330
1B
100
AcDbEntity
  8
4
 62
     3
100
AcDbLine
 10
622.8846026092335
 20
284.6133293915167
 30
0.0
 11
622.8846026092335
 21
85.6133303915168
 31
0.0
  0
LINE
  5
441
330
1B
100
AcDbEntity
  8
4
100
AcDbLine
 10
630.8846036092339
 20
286.613330391517
 30
0.0
 11
630.8846036092339
 21
85.6133303915168
 31
0.0
  0
LINE
  5
442
330
1B
100
AcDbEntity
  8
4
100
AcDbLine
 10
631.8846026092335
 20
280.613330391517
 30
0.0
 11
631.8846026092335
 21
85.6133303915168
 31
0.0
  0
LINE
  5
443
330
1B
100
AcDbEntity
  8
4
100
AcDbLine
 10
716.8846016092332
 20
286.613330391517
 30
0.0
 11
716.8846016092332
 21
85.6133303915168
 31
0.0
  0
LINE
  5
444
330
1B
100
AcDbEntity
  8
4
100
AcDbLine
 10
715.8846026092335
 20
280.613330391517
 30
0.0
 11
715.8846026092335
 21
85.6133303915168
 31
0.0
  0
LINE
  5
445
330
1B
100
AcDbEntity
  8
4
100
AcDbLine
 10
733.1846026092337
 20
284.6133298915169
 30
0.0
 11
733.1846026092337
 21
85.6133303915168
 31
0.0
  0
LINE
  5
446
330
1B
100
AcDbEntity
  8
4
100
AcDbLine
 10
721.884602609234
 20
85.61333039151691
 30
0.0
 11
721.8846026092335
 21
285.6133298915169
 31
0.0
  0
CIRCLE
  5
447
330
1B
100
AcDbEntity
  8
4
100
AcDbCircle
 10
673.8846026092335
 20
280.613330391517
 30
0.0
 40
42.0
  0
LINE
  5
448
330
1B
100
AcDbEntity
  8
4
100
AcDbLine
 10
607.2654641092333
 20
223.6797398915169
 30
0.0
 11
622.8846026092335
 21
269.2380868645117
 31
0.0
  0
ARC
  5
449
330
1B
100
AcDbEntity
  8
4
 62
     3
100
AcDbCircle
 10
931.8846026092335
 20
280.613330391517
 30
0.0
 40
300.0
100
AcDbArc
 50
172.85057
 51
187.1498659109533
  0
ARC
  5
44A
330
1B
100
AcDbEntity
  8
4
 62
     3
100
AcDbCircle
 10
415.8846026092335
 20
280.613330391517
 30
0.0
 40
300.0
100
AcDbArc
 50
352.8501340890467
 51
7.149430000000029
  0
LINE
  5
44B
330
1B
100
AcDbEntity
  8
4
100
AcDbLine
 10
733.2013240548865
 20
260.5999023915169
 30
0.0
 11
742.4830671908333
 21
226.7141734825044
 31
0.0
  0
LINE
  5
44C
330
1B
100
AcDbEntity
  8
4
100
AcDbLine
 10
744.465419200423
 20
225.1549253666473
 30
0.0
 11
734.6846026092337
 21
260.8626684773368
 31
0.0
  0
ARC
  5
44D
330
1B
100
AcDbEntity
  8
4
 62
     3
100
AcDbCircle
 10
98.25274583613827
 20
180.6133298915169
 30
0.0
 40
330.0
100
AcDbArc
 50
344.4156509999999
 51
16.07294399999999
  0
LINE
  5
44E
330
1B
100
AcDbEntity
  8
L-CENTER
 48
2.5
100
AcDbLine
 10
321.2527463361384
 20
67.686624891517
 30
0.0
 11
321.2527463361384
 21
330.6133298915169
 31
0.0
  0
LINE
  5
44F
330
1B
100
AcDbEntity
  8
4
 62
     3
100
AcDbLine
 10
431.7527468361384
 20
322.6133303915168
 30
0.0
 11
431.7527468361384
 21
238.613330391517
 31
0.0
  0
LINE
  5
450
330
1B
100
AcDbEntity
  8
4
 62
     3
100
AcDbLine
 10
425.2527458361385
 20
225.0092753915168
 30
0.0
 11
425.2527458361385
 21
269.6133293915167
 31
0.0
  0
LINE
  5
451
330
1B
100
AcDbEntity
  8
4
100
AcDbLine
 10
210.7527458361383
 20
311.613330391517
 30
0.0
 11
209.7527458361383
 21
311.613330391517
 31
0.0
  0
LINE
  5
452
330
1B
100
AcDbEntity
  8
4
 62
     3
100
AcDbLine
 10
210.7527458361383
 20
322.6133303915168
 30
0.0
 11
216.5206958361384
 21
322.6133303915168
 31
0.0
  0
ARC
  5
453
330
1B
100
AcDbEntity
  8
4
 62
     3
100
AcDbCircle
 10
216.5206958361384
 20
323.6133293915169
 30
0.0
 40
1.0000005
100
AcDbArc
 50
270.0
 51
330.0000000000016
  0
ARC
  5
454
330
1B
100
AcDbEntity
  8
4
 62
     3
100
AcDbCircle
 10
218.2527458361383
 20
322.6133303915168
 30
0.0
 40
1.0000005
100
AcDbArc
 50
90.0
 51
150.0849845346778
  0
LINE
  5
455
330
1B
100
AcDbEntity
  8
4
100
AcDbLine
 10
248.7532363361383
 20
326.1133298915169
 30
0.0
 11
248.7532363361383
 21
332.1133298915169
 31
0.0
  0
LINE
  5
456
330
1B
100
AcDbEntity
  8
4
100
AcDbLine
 10
249.7532363361383
 20
324.6133298915169
 30
0.0
 11
249.7532363361383
 21
326.1133298915169
 31
0.0
  0
LINE
  5
457
330
1B
100
AcDbEntity
  8
4
 62
     3
100
AcDbLine
 10
242.2527458361383
 20
324.6133298915169
 30
0.0
 11
242.2527458361383
 21
324.6033293915169
 31
0.0
  0
ARC
  5
458
330
1B
100
AcDbEntity
  8
4
 62
     3
100
AcDbCircle
 10
241.2627458361385
 20
324.6033293915169
 30
0.0
 40
0.99
100
AcDbArc
 50
270.0
 51
0.0
  0
ARC
  5
459
330
1B
100
AcDbEntity
  8
4
 62
     3
100
AcDbCircle
 10
216.2527463361384
 20
291.6133298915169
 30
0.0
 40
1.0000005
100
AcDbArc
 50
270.0
 51
0.0
  0
LINE
  5
45A
330
1B
100
AcDbEntity
  8
4
100
AcDbLine
 10
210.7527458361383
 20
249.613330391517
 30
0.0
 11
209.7527458361383
 21
249.613330391517
 31
0.0
  0
ARC
  5
45B
330
1B
100
AcDbEntity
  8
4
 62
     3
100
AcDbCircle
 10
216.2527463361384
 20
269.6133293915167
 30
0.0
 40
1.0000005
100
AcDbArc
 50
0.0
 51
90.0
  0
ARC
  5
45C
330
1B
100
AcDbEntity
  8
4
 62
     3
100
AcDbCircle
 10
230.9960858361385
 20
270.8699903915168
 30
0.0
 40
4.0000005
100
AcDbArc
 50
106.0729439999987
 51
163.9270560000012
  0
LINE
  5
45D
330
1B
100
AcDbEntity
  8
4
 62
     3
100
AcDbLine
 10
217.2527468361384
 20
291.6133298915169
 30
0.0
 11
217.2527468361384
 21
322.6133303915168
 31
0.0
  0
LINE
  5
45E
330
1B
100
AcDbEntity
  8
4
100
AcDbLine
 10
209.7527458361383
 20
311.613330391517
 30
0.0
 11
209.7527458361383
 21
249.613330391517
 31
0.0
  0
LINE
  5
45F
330
1B
100
AcDbEntity
  8
4
 62
     3
100
AcDbLine
 10
215.2527458361385
 20
238.613330391517
 30
0.0
 11
210.7527458361385
 21
238.613330391517
 31
0.0
  0
ARC
  5
460
330
1B
100
AcDbEntity
  8
4
 62
     3
100
AcDbCircle
 10
215.2527458361385
 20
236.6133293915167
 30
0.0
 40
1.9999995
100
AcDbArc
 50
0.0
 51
90.0
  0
ARC
  5
461
330
1B
100
AcDbEntity
  8
4
 62
     3
100
AcDbCircle
 10
235.9664213361384
 20
206.0542988915169
 30
0.0
 40
4.0000005
100
AcDbArc
 50
163.3901219999992
 51
274.6068119999987
  0
ARC
  5
462
330
1B
100
AcDbEntity
  8
4
 62
     3
100
AcDbCircle
 10
212.2527458361383
 20
163.6133303915168
 30
0.0
 40
1.9999995
100
AcDbArc
 50
270.0
 51
0.0
  0
LINE
  5
463
330
1B
100
AcDbEntity
  8
4
100
AcDbLine
 10
210.7527458361383
 20
157.6133293915169
 30
0.0
 11
212.2527458361383
 21
157.6133293915169
 31
0.0
  0
LINE
  5
464
330
1B
100
AcDbEntity
  8
4
100
AcDbLine
 10
203.7527458361383
 20
158.6133293915169
 30
0.0
 11
210.7527458361383
 21
158.6133293915169
 31
0.0
  0
LINE
  5
465
330
1B
100
AcDbEntity
  8
4
 62
     3
100
AcDbLine
 10
214.2527468361386
 20
180.6133298915169
 30
0.0
 11
214.2527468361386
 21
163.6133303915168
 31
0.0
  0
LINE
  5
466
330
1B
100
AcDbEntity
  8
4
100
AcDbLine
 10
208.7527458361383
 20
136.1133293915169
 30
0.0
 11
203.7527458361383
 21
136.1133293915169
 31
0.0
  0
LINE
  5
467
330
1B
100
AcDbEntity
  8
4
100
AcDbLine
 10
210.7527458361383
 20
129.6133293915169
 30
0.0
 11
212.2527458361383
 21
129.6133293915169
 31
0.0
  0
LINE
  5
468
330
1B
100
AcDbEntity
  8
4
100
AcDbLine
 10
210.7527458361383
 20
128.6133293915169
 30
0.0
 11
203.7527458361383
 21
128.6133293915169
 31
0.0
  0
LINE
  5
469
330
1B
100
AcDbEntity
  8
L-CENTER
 48
2.5
100
AcDbLine
 10
224.1984713361385
 20
143.6133293915169
 30
0.0
 11
200.627244586839
 21
143.6133293915169
 31
0.0
  0
LINE
  5
46A
330
1B
100
AcDbEntity
  8
4
100
AcDbLine
 10
208.7527458361383
 20
151.1133293915169
 30
0.0
 11
203.7527458361383
 21
151.1133293915169
 31
0.0
  0
LINE
  5
46B
330
1B
100
AcDbEntity
  8
4
100
AcDbLine
 10
203.7527458361383
 20
128.6133293915169
 30
0.0
 11
203.7527458361383
 21
158.6133293915169
 31
0.0
  0
LINE
  5
46C
330
1B
100
AcDbEntity
  8
4
100
AcDbLine
 10
208.7527458361383
 20
128.6133293915169
 30
0.0
 11
208.7527458361383
 21
158.6133293915169
 31
0.0
  0
LINE
  5
46D
330
1B
100
AcDbEntity
  8
4
100
AcDbLine
 10
210.7527458361383
 20
128.6133293915169
 30
0.0
 11
210.7527458361383
 21
158.6133293915169
 31
0.0
  0
LINE
  5
46E
330
1B
100
AcDbEntity
  8
4
100
AcDbLine
 10
212.2527458361383
 20
129.6133293915169
 30
0.0
 11
212.2527458361383
 21
157.6133293915169
 31
0.0
  0
ARC
  5
46F
330
1B
100
AcDbEntity
  8
4
 62
     3
100
AcDbCircle
 10
235.9664213361384
 20
155.1723608915169
 30
0.0
 40
4.0000005
100
AcDbArc
 50
85.39318800000132
 51
196.6098779999991
  0
LINE
  5
470
330
1B
100
AcDbEntity
  8
L-CENTER
 48
2.5
100
AcDbLine
 10
225.5874173361385
 20
100.6133303915168
 30
0.0
 11
207.0121913361386
 21
100.6133303915168
 31
0.0
  0
LINE
  5
471
330
1B
100
AcDbEntity
  8
4
100
AcDbLine
 10
210.2527468361386
 20
94.6133303915168
 30
0.0
 11
210.2527468361386
 21
106.6133303915168
 31
0.0
  0
LINE
  5
472
330
1B
100
AcDbEntity
  8
4
100
AcDbLine
 10
210.2527468361386
 20
94.6133303915168
 30
0.0
 11
211.2527468361386
 21
94.6133303915168
 31
0.0
  0
ARC
  5
473
330
1B
100
AcDbEntity
  8
4
 62
     3
100
AcDbCircle
 10
211.7527463361384
 20
111.1133303915168
 30
0.0
 40
0.4999995
100
AcDbArc
 50
270.0
 51
0.0
  0
LINE
  5
474
330
1B
100
AcDbEntity
  8
4
 62
     3
100
AcDbLine
 10
211.2527468361386
 20
110.6133293915169
 30
0.0
 11
211.7527463361384
 21
110.6133293915169
 31
0.0
  0
LINE
  5
475
330
1B
100
AcDbEntity
  8
4
100
AcDbLine
 10
210.2527468361386
 20
106.6133303915168
 30
0.0
 11
211.2527468361386
 21
106.6133303915168
 31
0.0
  0
LINE
  5
476
330
1B
100
AcDbEntity
  8
4
 62
     3
100
AcDbLine
 10
241.2527468361384
 20
85.6133303915168
 30
0.0
 11
193.2527468361384
 21
85.6133303915168
 31
0.0
  0
ARC
  5
477
330
1B
100
AcDbEntity
  8
4
 62
     3
100
AcDbCircle
 10
211.7527463361384
 20
90.1133303915168
 30
0.0
 40
0.4999995
100
AcDbArc
 50
0.0
 51
90.0
  0
LINE
  5
478
330
1B
100
AcDbEntity
  8
4
 62
     3
100
AcDbLine
 10
211.7527463361384
 20
90.61332989151686
 30
0.0
 11
211.2527468361386
 21
90.61332989151686
 31
0.0
  0
ARC
  5
479
330
1B
100
AcDbEntity
  8
4
 62
     3
100
AcDbCircle
 10
210.2527463361384
 20
87.61332989151686
 30
0.0
 40
1.9999995
100
AcDbArc
 50
270.0
 51
0.0
  0
ARC
  5
47A
330
1B
100
AcDbEntity
  8
4
 62
     3
100
AcDbCircle
 10
193.2527468361386
 20
83.61332939151691
 30
0.0
 40
1.9999995
100
AcDbArc
 50
90.0
 51
180.0
  0
LINE
  5
47B
330
1B
100
AcDbEntity
  8
4
 62
     3
100
AcDbLine
 10
193.2527468361386
 20
85.6133303915168
 30
0.0
 11
210.2527463361384
 21
85.6133303915168
 31
0.0
  0
ARC
  5
47C
330
1B
100
AcDbEntity
  8
4
 62
     3
100
AcDbCircle
 10
209.2527458361385
 20
90.61332989151686
 30
0.0
 40
4.9999995
100
AcDbArc
 50
270.0
 51
0.0
  0
ARC
  5
47D
330
1B
100
AcDbEntity
  8
4
 62
     3
100
AcDbCircle
 10
248.2527458361385
 20
65.61332939151691
 30
0.0
 40
4.9999995
100
AcDbArc
 50
90.0
 51
180.0
  0
ARC
  5
47E
330
1B
100
AcDbEntity
  8
4
 62
     3
100
AcDbCircle
 10
239.2527458361385
 20
83.61332939151691
 30
0.0
 40
1.9999995
100
AcDbArc
 50
0.0
 51
90.0
  0
ARC
  5
47F
330
1B
100
AcDbEntity
  8
4
 62
     3
100
AcDbCircle
 10
241.2527468361384
 20
83.61332939151691
 30
0.0
 40
1.9999995
100
AcDbArc
 50
0.0
 51
90.0
  0
ARC
  5
480
330
1B
100
AcDbEntity
  8
4
 62
     3
100
AcDbCircle
 10
248.2527458361385
 20
76.66379189151701
 30
0.0
 40
4.9999995
100
AcDbArc
 50
77.41366699999983
 51
180.0
  0
ARC
  5
481
330
1B
100
AcDbEntity
  8
4
 62
     3
100
AcDbCircle
 10
221.5686908361386
 20
90.61332989151686
 30
0.0
 40
4.9999995
100
AcDbArc
 50
270.0
 51
15.58434899999998
  0
LINE
  5
482
330
1B
100
AcDbEntity
  8
4
 62
     3
100
AcDbLine
 10
211.2527468361386
 20
110.6133293915169
 30
0.0
 11
211.2527468361386
 21
90.61332989151686
 31
0.0
  0
LINE
  5
483
330
1B
100
AcDbEntity
  8
4
 62
     3
100
AcDbLine
 10
191.2527458361383
 20
60.61332989151686
 30
0.0
 11
243.2527463361384
 21
60.61332989151686
 31
0.0
  0
LINE
  5
486
330
1B
100
AcDbEntity
  8
4
 62
     3
100
AcDbLine
 10
191.2527458361383
 20
83.61332939151691
 30
0.0
 11
191.2527458361383
 21
60.61332989151686
 31
0.0
  0
LINE
  5
487
330
1B
100
AcDbEntity
  8
L-CENTER
 48
2.5
100
AcDbLine
 10
211.2527468361386
 20
92.6133303915168
 30
0.0
 11
211.2527468361384
 21
53.61332989151686
 31
0.0
  0
LINE
  5
488
330
1B
100
AcDbEntity
  8
4
 62
     3
100
AcDbLine
 10
241.2527468361384
 20
83.61332939151691
 30
0.0
 11
241.2527468361384
 21
60.61332989151686
 31
0.0
  0
LINE
  5
489
330
1B
100
AcDbEntity
  8
4
 62
     3
100
AcDbLine
 10
243.2527463361384
 20
83.61332939151691
 30
0.0
 11
243.2527463361384
 21
60.61332989151686
 31
0.0
  0
LINE
  5
48A
330
1B
100
AcDbEntity
  8
4
 62
     3
100
AcDbLine
 10
214.2527468361384
 20
180.6133298915169
 30
0.0
 11
214.2527468361384
 21
90.61332989151686
 31
0.0
  0
LINE
  5
48B
330
1B
100
AcDbEntity
  8
4
 62
     3
100
AcDbLine
 10
212.2527458361383
 20
87.61332989151686
 30
0.0
 11
212.2527458361383
 21
161.6133293915169
 31
0.0
  0
ARC
  5
48C
330
1B
100
AcDbEntity
  8
4
 62
     3
100
AcDbCircle
 10
544.2527468361386
 20
180.6133298915169
 30
0.0
 40
330.0
100
AcDbArc
 50
163.927056
 51
195.584349
  0
LINE
  5
48D
330
1B
100
AcDbEntity
  8
4
 62
     3
100
AcDbLine
 10
210.7527458361383
 20
322.6133303915168
 30
0.0
 11
210.7527458361383
 21
238.613330391517
 31
0.0
  0
LINE
  5
48E
330
1B
100
AcDbEntity
  8
4
 62
     3
100
AcDbLine
 10
217.2527468361384
 20
225.0092753915168
 30
0.0
 11
217.2527468361384
 21
269.6133293915167
 31
0.0
  0
LINE
  5
490
330
1B
100
AcDbEntity
  8
4
 62
     3
100
AcDbLine
 10
248.2527458361383
 20
70.6133303915168
 30
0.0
 11
394.2527468361384
 21
70.6133303915168
 31
0.0
  0
ARC
  5
491
330
1B
100
AcDbEntity
  8
4
 62
     3
100
AcDbCircle
 10
321.2527463361384
 20
403.613330391517
 30
0.0
 40
330.0
100
AcDbArc
 50
257.413667
 51
270.0
  0
LINE
  5
492
330
1B
100
AcDbEntity
  8
L-CENTER
 48
2.5
100
AcDbLine
 10
440.182370356237
 20
280.613330391517
 30
0.0
 11
136.242344433419
 21
280.613330391517
 31
0.0
  0
LINE
  5
591
330
1B
100
AcDbEntity
  8
4
100
AcDbLine
 10
101.477907217571
 20
296.113330391517
 30
0.0
 11
94.47790721757102
 21
296.113330391517
 31
0.0
  0
LINE
  5
593
330
1B
100
AcDbEntity
  8
4
100
AcDbLine
 10
101.477907217571
 20
289.113330391517
 30
0.0
 11
94.47790721757102
 21
289.113330391517
 31
0.0
  0
LINE
  5
595
330
1B
100
AcDbEntity
  8
L-CENTER
 48
2.5
100
AcDbLine
 10
116.9307872175711
 20
280.613330391517
 30
0.0
 11
79.02502721757097
 21
280.613330391517
 31
0.0
  0
LINE
  5
597
330
1B
100
AcDbEntity
  8
L-CENTER
 48
2.5
100
AcDbLine
 10
97.97790721757102
 20
261.660450391517
 30
0.0
 11
97.97790721757102
 21
299.5662103915171
 31
0.0
  0
LINE
  5
598
330
1B
100
AcDbEntity
  8
4
100
AcDbLine
 10
94.47790721757102
 20
296.113330391517
 30
0.0
 11
94.47790721757102
 21
289.113330391517
 31
0.0
  0
LINE
  5
599
330
1B
100
AcDbEntity
  8
4
100
AcDbLine
 10
101.477907217571
 20
289.113330391517
 30
0.0
 11
101.477907217571
 21
296.113330391517
 31
0.0
  0
ARC
  5
59A
330
1B
100
AcDbEntity
  8
4
100
AcDbCircle
 10
97.97790721757102
 20
280.613330391517
 30
0.0
 40
12.5
100
AcDbArc
 50
106.260204708312
 51
73.73979499999982
  0
ENDSEC
  0
SECTION
  2
OBJECTS
  0
DICTIONARY
  5
9
330
0
100
AcDbDictionary
281
     1
  3
ACAD_COLOR
350
30
  3
ACAD_GROUP
350
2E
  3
ACAD_LAYOUT
350
24
  3
ACAD_MATERIAL
350
B
  3
ACAD_MLEADERSTYLE
350
56E
  3
ACAD_MLINESTYLE
350
19
  3
ACAD_PLOTSETTINGS
350
2F
  3
ACAD_PLOTSTYLENAME
350
8
  3
ACAD_SCALELIST
350
38
  3
ACAD_TABLESTYLE
350
56D
  3
ACAD_VISUALSTYLE
350
31
  3
ACDBHEADERROUNDTRIPXREC
350
59F
  3
AcDbVariableDictionary
350
56B
  3
DWGPROPS
350
5A2
  0
DICTIONARY
  5
5A3
330
2D
100
AcDbDictionary
280
     1
281
     1
  3
ACAD_XREC_ROUNDTRIP
360
5A4
  0
DICTIONARY
  5
3
330
2
100
AcDbDictionary
280
     1
281
     1
  3
ACAD_LAYERSTATES
360
4
  0
DICTIONARY
  5
20
330
1F
100
AcDbDictionary
280
     1
281
     1
  3
ADSK_XREC_LAYER_RECONCILED
360
21
  0
DICTIONARY
  5
1CB
330
1CA
100
AcDbDictionary
280
     1
281
     1
  3
ADSK_XREC_LAYER_RECONCILED
360
1CC
  0
DICTIONARY
  5
5
330
1
100
AcDbDictionary
280
     1
281
     1
  3
ADSK_XREC_LAYER_RECONCILED
360
6
  0
DICTIONARY
  5
5E
330
5D
100
AcDbDictionary
280
     1
281
     1
  3
ADSK_XREC_LAYER_RECONCILED
360
5F
  0
DICTIONARY
  5
11F
330
11E
100
AcDbDictionary
280
     1
281
     1
  3
ADSK_XREC_LAYER_RECONCILED
360
120
  0
DICTIONARY
  5
62
330
61
100
AcDbDictionary
280
     1
281
     1
  3
ADSK_XREC_LAYER_RECONCILED
360
63
  0
DICTIONARY
  5
1C
330
1B
100
AcDbDictionary
280
     1
281
     1
  3
ACAD_SORTENTS
360
1D
  0
DICTIONARY
  5
30
102
{ACAD_REACTORS
330
9
102
}
330
9
100
AcDbDictionary
281
     1
  0
DICTIONARY
  5
2E
102
{ACAD_REACTORS
330
9
102
}
330
9
100
AcDbDictionary
281
     1
  0
DICTIONARY
  5
24
102
{ACAD_REACTORS
330
9
102
}
330
9
100
AcDbDictionary
281
     1
  3
Model
350
23
  3
ﾚｲｱｳﾄ1
350
2A
  0
DICTIONARY
  5
B
102
{ACAD_REACTORS
330
9
102
}
330
9
100
AcDbDictionary
281
     1
  3
ByBlock
350
5B
  3
ByLayer
350
14
  3
Global
350
A
  0
DICTIONARY
  5
56E
102
{ACAD_REACTORS
330
9
102
}
330
9
100
AcDbDictionary
281
     1
  3
Standard
350
587
  0
DICTIONARY
  5
19
102
{ACAD_REACTORS
330
9
102
}
330
9
100
AcDbDictionary
281
     1
  3
STANDARD
350
18
  0
DICTIONARY
  5
2F
102
{ACAD_REACTORS
330
9
102
}
330
9
100
AcDbDictionary
281
     1
  0
ACDBDICTIONARYWDFLT
  5
8
102
{ACAD_REACTORS
330
9
102
}
330
9
100
AcDbDictionary
281
     1
  3
Normal
350
7
100
AcDbDictionaryWithDefault
340
7
  0
DICTIONARY
  5
38
102
{ACAD_REACTORS
330
9
102
}
330
9
100
AcDbDictionary
281
     1
  3
*A1
350
5A
  0
DICTIONARY
  5
56D
102
{ACAD_REACTORS
330
9
102
}
330
9
100
AcDbDictionary
281
     1
  3
Standard
350
59B
  0
DICTIONARY
  5
31
102
{ACAD_REACTORS
330
9
102
}
330
9
100
AcDbDictionary
281
     1
  3
2dWireframe
350
35
  3
Basic
350
577
  3
Brighten
350
57A
  3
ColorChange
350
57E
  3
Conceptual
350
578
  3
Dim
350
579
  3
EdgeColorOff
350
581
  3
Facepattern
350
57D
  3
Flat
350
572
  3
FlatWithEdges
350
573
  3
Gouraud
350
574
  3
GouraudWithEdges
350
575
  3
Hidden
350
576
  3
JitterOff
350
57F
  3
Linepattern
350
57C
  3
OverhangOff
350
580
  3
Realistic
350
32
  3
Shaded
350
586
  3
Shaded with edges
350
585
  3
Shades of Gray
350
582
  3
Sketchy
350
583
  3
Thicken
350
57B
  3
Wireframe
350
33
  3
X-Ray
350
584
  0
DICTIONARY
  5
59F
102
{ACAD_REACTORS
330
9
102
}
330
9
100
AcDbDictionary
281
     1
  3
COLORDICT
350
5A0
  3
MATERIALDICT
350
5A1
  0
DICTIONARY
  5
56B
102
{ACAD_REACTORS
330
9
102
}
330
9
100
AcDbDictionary
281
     1
  3
CANNOSCALE
350
56C
  3
CMLEADERSTYLE
350
58E
  3
CTABLESTYLE
350
59C
  3
DIMASSOC
350
59D
  3
HIDETEXT
350
59E
  3
MSLTSCALE
350
5A5
  3
XCLIPFRAME
350
56F
  0
XRECORD
  5
5A2
102
{ACAD_REACTORS
330
9
102
}
330
9
100
AcDbXrecord
280
     1
  1
DWGPROPS COOKIE
  2

  3

  4

  6

  7

  8
sg-d04
  9

300
=
301
=
302
=
303
=
304
=
305
=
306
=
307
=
308
=
309
=
 40
0.0
 41
2457528.507634572
 42
2457870.227349132
  1

 90
        0
  0
XRECORD
  5
5A4
102
{ACAD_REACTORS
330
5A3
102
}
330
5A3
100
AcDbXrecord
280
     1
102
VTR_0.000_0.000_1.000_1.000_VISUALSTYLE
340
35
102
VTR_0.000_0.000_1.000_1.000_GRIDDISPLAY
 70
     3
102
VTR_0.000_0.000_1.000_1.000_GRIDMAJOR
 70
     5
102
VTR_0.000_0.000_1.000_1.000_DEFAULTLIGHTING
280
     1
102
VTR_0.000_0.000_1.000_1.000_DEFAULTLIGHTINGTYPE
 70
     1
102
VTR_0.000_0.000_1.000_1.000_BRIGHTNESS
141
0.0
102
VTR_0.000_0.000_1.000_1.000_CONTRAST
142
0.0
  0
DICTIONARY
  5
4
102
{ACAD_REACTORS
330
3
102
}
330
3
100
AcDbDictionary
281
     1
  0
XRECORD
  5
21
102
{ACAD_REACTORS
330
20
102
}
330
20
100
AcDbXrecord
280
     1
290
     1
  0
XRECORD
  5
1CC
102
{ACAD_REACTORS
330
1CB
102
}
330
1CB
100
AcDbXrecord
280
     1
290
     1
  0
XRECORD
  5
6
102
{ACAD_REACTORS
330
5
102
}
330
5
100
AcDbXrecord
280
     1
290
     1
  0
XRECORD
  5
5F
102
{ACAD_REACTORS
330
5E
102
}
330
5E
100
AcDbXrecord
280
     1
290
     1
  0
XRECORD
  5
120
102
{ACAD_REACTORS
330
11F
102
}
330
11F
100
AcDbXrecord
280
     1
290
     1
  0
XRECORD
  5
63
102
{ACAD_REACTORS
330
62
102
}
330
62
100
AcDbXrecord
280
     1
290
     1
  0
SORTENTSTABLE
  5
1D
102
{ACAD_REACTORS
330
1C
102
}
330
1C
100
AcDbSortentsTable
330
1B
331
0
  5
58B
331
AA
  5
48A
331
AB
  5
489
331
AC
  5
488
331
AD
  5
487
331
AE
  5
486
331
AF
  5
485
331
B0
  5
484
331
B3
  5
481
331
B4
  5
480
331
B5
  5
47F
331
B6
  5
47E
331
B7
  5
47D
331
B8
  5
47C
331
B9
  5
47B
331
BA
  5
47A
331
BB
  5
479
331
BC
  5
478
331
BD
  5
477
331
BE
  5
476
331
BF
  5
475
331
C0
  5
474
331
C1
  5
473
331
C2
  5
472
331
C3
  5
471
331
C4
  5
470
331
C5
  5
46F
331
C6
  5
46E
331
C7
  5
46D
331
C8
  5
46C
331
C9
  5
46B
331
CA
  5
46A
331
CB
  5
469
331
CC
  5
468
331
CD
  5
467
331
CE
  5
466
331
CF
  5
465
331
D0
  5
464
331
D1
  5
463
331
D2
  5
462
331
D3
  5
461
331
D4
  5
460
331
D5
  5
45F
331
D6
  5
45E
331
D7
  5
45D
331
D8
  5
45C
331
D9
  5
45B
331
DA
  5
45A
331
DB
  5
459
331
DC
  5
458
331
DD
  5
457
331
DE
  5
456
331
DF
  5
455
331
E0
  5
454
331
E1
  5
453
331
E2
  5
452
331
E3
  5
451
331
E4
  5
450
331
E5
  5
44F
331
E6
  5
44E
331
E7
  5
44D
331
E8
  5
44C
331
E9
  5
44B
331
EA
  5
44A
331
EB
  5
449
331
EC
  5
448
331
ED
  5
447
331
EE
  5
446
331
EF
  5
445
331
F0
  5
444
331
F1
  5
443
331
105
  5
42F
331
106
  5
42E
331
107
  5
42D
331
108
  5
42C
331
109
  5
42B
331
10A
  5
42A
331
10B
  5
429
331
10C
  5
428
331
10D
  5
427
331
10E
  5
426
331
10F
  5
425
331
110
  5
424
331
111
  5
423
331
112
  5
422
331
113
  5
421
331
114
  5
420
331
115
  5
41F
331
116
  5
41E
331
117
  5
41D
331
118
  5
41C
331
119
  5
41B
331
11A
  5
41A
331
11B
  5
419
331
11C
  5
418
331
125
  5
413
331
126
  5
412
331
173
  5
3C5
331
174
  5
3C4
331
175
  5
3C3
331
176
  5
3C2
331
177
  5
3C1
331
178
  5
3C0
331
179
  5
3BF
331
17A
  5
3BE
331
17B
  5
3BD
331
1D9
  5
363
331
1DA
  5
362
331
1DB
  5
361
331
1DC
  5
360
331
1DD
  5
35F
331
1DE
  5
35E
331
1DF
  5
35D
331
1E0
  5
35C
331
1E1
  5
35B
331
1E2
  5
35A
331
1E3
  5
359
331
1E4
  5
358
331
1E5
  5
357
331
1E6
  5
356
331
1E7
  5
355
331
1E8
  5
354
331
1E9
  5
353
331
1EA
  5
352
331
1EB
  5
351
331
1EC
  5
350
331
1ED
  5
34F
331
1EE
  5
34E
331
1EF
  5
34D
331
1F0
  5
34C
331
1F1
  5
34B
331
1F2
  5
34A
331
1F3
  5
349
331
1F4
  5
348
331
1F5
  5
347
331
1F6
  5
346
331
1F7
  5
345
331
1F8
  5
344
331
1F9
  5
343
331
1FA
  5
342
331
1FB
  5
341
331
1FC
  5
340
331
1FD
  5
33F
331
1FE
  5
33E
331
1FF
  5
33D
331
200
  5
33C
331
201
  5
33B
331
202
  5
33A
331
203
  5
339
331
204
  5
338
331
205
  5
337
331
206
  5
336
331
207
  5
335
331
208
  5
334
331
209
  5
333
331
20A
  5
332
331
20B
  5
331
331
20C
  5
330
331
20D
  5
32F
331
20E
  5
32E
331
20F
  5
32D
331
210
  5
32C
331
211
  5
32B
331
212
  5
32A
331
213
  5
329
331
214
  5
328
331
215
  5
327
331
216
  5
326
331
217
  5
325
331
218
  5
324
331
219
  5
323
331
21A
  5
322
331
21B
  5
321
331
21C
  5
320
331
21D
  5
31F
331
21E
  5
31E
331
21F
  5
31D
331
220
  5
31C
331
221
  5
31B
331
222
  5
31A
331
223
  5
319
331
224
  5
318
331
225
  5
317
331
226
  5
316
331
227
  5
315
331
228
  5
314
331
229
  5
313
331
22A
  5
312
331
22B
  5
311
331
22C
  5
310
331
22D
  5
30F
331
22E
  5
30E
331
22F
  5
30D
331
230
  5
30C
331
231
  5
30B
331
232
  5
30A
331
233
  5
309
331
234
  5
308
331
235
  5
307
331
236
  5
306
331
237
  5
305
331
238
  5
304
331
239
  5
303
331
23A
  5
302
331
23B
  5
301
331
23C
  5
300
331
23D
  5
2FF
331
23E
  5
2FE
331
23F
  5
2FD
331
240
  5
2FC
331
241
  5
2FB
331
242
  5
2FA
331
243
  5
2F9
331
244
  5
2F8
331
245
  5
2F7
331
246
  5
2F6
331
247
  5
2F5
331
248
  5
2F4
331
249
  5
2F3
331
24A
  5
2F2
331
24B
  5
2F1
331
24C
  5
2F0
331
24D
  5
2EF
331
24E
  5
2EE
331
24F
  5
2ED
331
250
  5
2EC
331
251
  5
2EB
331
252
  5
2EA
331
253
  5
2E9
331
254
  5
2E8
331
255
  5
2E7
331
256
  5
2E6
331
257
  5
2E5
331
258
  5
2E4
331
259
  5
2E3
331
25A
  5
2E2
331
25B
  5
2E1
331
25C
  5
2E0
331
25D
  5
2DF
331
25E
  5
2DE
331
25F
  5
2DD
331
260
  5
2DC
331
261
  5
2DB
331
262
  5
2DA
331
263
  5
2D9
331
264
  5
2D8
331
265
  5
2D7
331
266
  5
2D6
331
267
  5
2D5
331
268
  5
2D4
331
269
  5
2D3
331
26A
  5
2D2
331
26B
  5
2D1
331
26C
  5
2D0
331
26D
  5
2CF
331
26E
  5
2CE
331
26F
  5
2CD
331
270
  5
2CC
331
271
  5
2CB
331
272
  5
2CA
331
273
  5
2C9
331
274
  5
2C8
331
275
  5
2C7
331
276
  5
2C6
331
277
  5
2C5
331
278
  5
2C4
331
279
  5
2C3
331
27A
  5
2C2
331
27B
  5
2C1
331
27C
  5
2C0
331
27D
  5
2BF
331
27E
  5
2BE
331
27F
  5
2BD
331
280
  5
2BC
331
281
  5
2BB
331
282
  5
2BA
331
283
  5
2B9
331
284
  5
2B8
331
285
  5
2B7
331
286
  5
2B6
331
287
  5
2B5
331
288
  5
2B4
331
289
  5
2B3
331
28A
  5
2B2
331
28B
  5
2B1
331
28C
  5
2B0
331
28D
  5
2AF
331
28E
  5
2AE
331
28F
  5
2AD
331
290
  5
2AC
331
291
  5
2AB
331
292
  5
2AA
331
293
  5
2A9
331
294
  5
2A8
331
295
  5
2A7
331
296
  5
2A6
331
297
  5
2A5
331
298
  5
2A4
331
299
  5
2A3
331
29A
  5
2A2
331
29B
  5
2A1
331
29C
  5
2A0
331
29D
  5
29F
331
29F
  5
29D
331
2A0
  5
29C
331
2A1
  5
29B
331
2A2
  5
29A
331
2A3
  5
299
331
2A4
  5
298
331
2A5
  5
297
331
2A6
  5
296
331
2A7
  5
295
331
2A8
  5
294
331
2A9
  5
293
331
2AA
  5
292
331
2AB
  5
291
331
2AC
  5
290
331
2AD
  5
28F
331
2AE
  5
28E
331
2AF
  5
28D
331
2B0
  5
28C
331
2B1
  5
28B
331
2B2
  5
28A
331
2B3
  5
289
331
2B4
  5
288
331
2B5
  5
287
331
2B6
  5
286
331
2B7
  5
285
331
2B8
  5
284
331
2B9
  5
283
331
2BA
  5
282
331
2BB
  5
281
331
2BC
  5
280
331
2BD
  5
27F
331
2BE
  5
27E
331
2BF
  5
27D
331
2C0
  5
27C
331
2C1
  5
27B
331
2C2
  5
27A
331
2C3
  5
279
331
2C4
  5
278
331
2C5
  5
277
331
2C6
  5
276
331
2C7
  5
275
331
2C8
  5
274
331
2C9
  5
273
331
2CA
  5
272
331
2CB
  5
271
331
2CC
  5
270
331
2CD
  5
26F
331
2CE
  5
26E
331
2CF
  5
26D
331
2D0
  5
26C
331
2D1
  5
26B
331
2D2
  5
26A
331
2D3
  5
269
331
2D4
  5
268
331
2D5
  5
267
331
2D6
  5
266
331
2D7
  5
265
331
2D8
  5
264
331
2D9
  5
263
331
2DA
  5
262
331
2DB
  5
261
331
2DC
  5
260
331
2DD
  5
25F
331
2DE
  5
25E
331
2DF
  5
25D
331
2E0
  5
25C
331
2E1
  5
25B
331
2E2
  5
25A
331
2E3
  5
259
331
2E4
  5
258
331
2E5
  5
257
331
2E6
  5
256
331
2E7
  5
255
331
2E8
  5
254
331
2E9
  5
253
331
2EA
  5
252
331
2EB
  5
251
331
2EC
  5
250
331
2ED
  5
24F
331
2EE
  5
24E
331
2EF
  5
24D
331
2F0
  5
24C
331
2F1
  5
24B
331
2F2
  5
24A
331
2F3
  5
249
331
2F4
  5
248
331
2F5
  5
247
331
2F6
  5
246
331
2F7
  5
245
331
2F8
  5
244
331
2F9
  5
243
331
2FA
  5
242
331
2FB
  5
241
331
2FC
  5
240
331
2FD
  5
23F
331
2FE
  5
23E
331
2FF
  5
23D
331
300
  5
23C
331
301
  5
23B
331
302
  5
23A
331
303
  5
239
331
304
  5
238
331
305
  5
237
331
306
  5
236
331
307
  5
235
331
308
  5
234
331
309
  5
233
331
30A
  5
232
331
30B
  5
231
331
30C
  5
230
331
30D
  5
22F
331
30E
  5
22E
331
30F
  5
22D
331
310
  5
22C
331
311
  5
22B
331
312
  5
22A
331
313
  5
229
331
314
  5
228
331
315
  5
227
331
316
  5
226
331
317
  5
225
331
318
  5
224
331
319
  5
223
331
31A
  5
222
331
31B
  5
221
331
31C
  5
220
331
31D
  5
21F
331
31E
  5
21E
331
31F
  5
21D
331
320
  5
21C
331
321
  5
21B
331
322
  5
21A
331
323
  5
219
331
324
  5
218
331
325
  5
217
331
326
  5
216
331
327
  5
215
331
328
  5
214
331
329
  5
213
331
32A
  5
212
331
32B
  5
211
331
32C
  5
210
331
32D
  5
20F
331
32E
  5
20E
331
32F
  5
20D
331
330
  5
20C
331
331
  5
20B
331
332
  5
20A
331
333
  5
209
331
334
  5
208
331
335
  5
207
331
336
  5
206
331
337
  5
205
331
338
  5
204
331
339
  5
203
331
33A
  5
202
331
33B
  5
201
331
33C
  5
200
331
33D
  5
1FF
331
33E
  5
1FE
331
33F
  5
1FD
331
340
  5
1FC
331
341
  5
1FB
331
342
  5
1FA
331
343
  5
1F9
331
344
  5
1F8
331
345
  5
1F7
331
346
  5
1F6
331
347
  5
1F5
331
348
  5
1F4
331
349
  5
1F3
331
34A
  5
1F2
331
34B
  5
1F1
331
34C
  5
1F0
331
34D
  5
1EF
331
34E
  5
1EE
331
34F
  5
1ED
331
350
  5
1EC
331
351
  5
1EB
331
352
  5
1EA
331
353
  5
1E9
331
354
  5
1E8
331
355
  5
1E7
331
356
  5
1E6
331
357
  5
1E5
331
358
  5
1E4
331
359
  5
1E3
331
35A
  5
1E2
331
35B
  5
1E1
331
35C
  5
1E0
331
35D
  5
1DF
331
35E
  5
1DE
331
35F
  5
1DD
331
360
  5
1DC
331
361
  5
1DB
331
362
  5
1DA
331
363
  5
1D9
331
364
  5
1D8
331
365
  5
1D7
331
366
  5
1D6
331
367
  5
1D5
331
368
  5
1D4
331
369
  5
1D3
331
36A
  5
1D2
331
36B
  5
1D1
331
36C
  5
1D0
331
371
  5
1C8
331
372
  5
1C7
331
373
  5
1C6
331
374
  5
1C5
331
375
  5
1C4
331
376
  5
1C3
331
377
  5
1C2
331
378
  5
1C1
331
379
  5
1C0
331
37A
  5
1BF
331
37B
  5
1BE
331
37C
  5
1BD
331
37D
  5
1BB
331
37E
  5
1BA
331
37F
  5
1B9
331
380
  5
1B8
331
381
  5
1B7
331
382
  5
1B6
331
383
  5
1B5
331
384
  5
1B4
331
385
  5
1B3
331
386
  5
1B2
331
387
  5
1B1
331
388
  5
1B0
331
389
  5
1AF
331
38A
  5
1AE
331
38B
  5
1AD
331
38C
  5
1AC
331
38D
  5
1AB
331
38E
  5
1AA
331
38F
  5
1A9
331
390
  5
1A8
331
391
  5
1A7
331
392
  5
1A6
331
393
  5
1A5
331
394
  5
1A4
331
395
  5
1A3
331
396
  5
1A2
331
397
  5
1A1
331
398
  5
1A0
331
399
  5
19F
331
39A
  5
19E
331
39B
  5
19D
331
39C
  5
19C
331
39D
  5
19B
331
39E
  5
19A
331
39F
  5
199
331
3A0
  5
198
331
3A1
  5
197
331
3A2
  5
196
331
3A3
  5
195
331
3A4
  5
194
331
3A5
  5
193
331
3A6
  5
192
331
3A7
  5
191
331
3A8
  5
190
331
3AB
  5
18D
331
3AC
  5
18C
331
3AD
  5
18B
331
3AE
  5
18A
331
3AF
  5
189
331
3B0
  5
188
331
3B1
  5
187
331
3B2
  5
186
331
3B3
  5
185
331
3B4
  5
184
331
3B5
  5
183
331
3B6
  5
182
331
3B7
  5
181
331
3B8
  5
180
331
3B9
  5
17F
331
3BA
  5
17E
331
3BB
  5
17D
331
3BC
  5
17C
331
3BD
  5
17B
331
3BE
  5
17A
331
3BF
  5
179
331
3C0
  5
178
331
3C1
  5
177
331
3C2
  5
176
331
3C3
  5
175
331
3C4
  5
174
331
3C5
  5
173
331
3C6
  5
172
331
3C7
  5
171
331
3C8
  5
170
331
3C9
  5
16F
331
3CA
  5
16E
331
3CB
  5
16D
331
3CC
  5
16C
331
3CD
  5
16B
331
3CE
  5
16A
331
3CF
  5
169
331
3D0
  5
168
331
3D1
  5
167
331
3D2
  5
166
331
3D3
  5
165
331
3D4
  5
164
331
3D5
  5
163
331
3D6
  5
162
331
3D7
  5
161
331
3D8
  5
160
331
3D9
  5
15F
331
3DA
  5
15E
331
3DB
  5
15D
331
3DC
  5
15C
331
3DD
  5
15B
331
3DE
  5
15A
331
3DF
  5
159
331
3E0
  5
158
331
3E1
  5
157
331
3E2
  5
156
331
3E3
  5
155
331
3E4
  5
154
331
3E5
  5
153
331
3E6
  5
152
331
3E7
  5
151
331
3E8
  5
150
331
3E9
  5
14F
331
3EA
  5
14E
331
3EB
  5
14D
331
3EC
  5
14C
331
3ED
  5
14B
331
3EE
  5
14A
331
3EF
  5
149
331
3F0
  5
148
331
3F1
  5
147
331
3F2
  5
146
331
3F3
  5
145
331
3F4
  5
144
331
3F5
  5
143
331
3F6
  5
142
331
3F7
  5
141
331
3F8
  5
140
331
3F9
  5
13F
331
3FA
  5
13E
331
3FB
  5
13D
331
3FC
  5
13C
331
3FD
  5
13B
331
3FE
  5
13A
331
3FF
  5
139
331
406
  5
132
331
407
  5
131
331
408
  5
130
331
40A
  5
12E
331
40B
  5
12D
331
40D
  5
12B
331
40F
  5
129
331
410
  5
128
331
411
  5
127
331
412
  5
126
331
413
  5
125
331
414
  5
124
331
415
  5
123
331
416
  5
122
331
41B
  5
119
331
41F
  5
115
331
420
  5
114
331
421
  5
113
331
422
  5
112
331
423
  5
111
331
424
  5
110
331
425
  5
10F
331
427
  5
10D
331
429
  5
10B
331
42A
  5
10A
331
42B
  5
109
331
42C
  5
108
331
42D
  5
107
331
42E
  5
106
331
42F
  5
105
331
430
  5
104
331
431
  5
103
331
432
  5
102
331
433
  5
101
331
434
  5
100
331
435
  5
FF
331
436
  5
FE
331
437
  5
FD
331
438
  5
FC
331
439
  5
FB
331
43A
  5
FA
331
43B
  5
F9
331
43C
  5
F8
331
43D
  5
F7
331
43E
  5
F6
331
43F
  5
F5
331
440
  5
F4
331
441
  5
F3
331
442
  5
F2
331
443
  5
F1
331
444
  5
F0
331
445
  5
EF
331
446
  5
EE
331
447
  5
ED
331
448
  5
EC
331
449
  5
EB
331
44A
  5
EA
331
44B
  5
E9
331
44C
  5
E8
331
44D
  5
E7
331
44E
  5
E6
331
44F
  5
E5
331
450
  5
E4
331
451
  5
E3
331
452
  5
E2
331
453
  5
E1
331
454
  5
E0
331
455
  5
DF
331
456
  5
DE
331
457
  5
DD
331
458
  5
DC
331
459
  5
DB
331
45A
  5
DA
331
45B
  5
D9
331
45C
  5
D8
331
45D
  5
D7
331
45E
  5
D6
331
45F
  5
D5
331
460
  5
D4
331
461
  5
D3
331
462
  5
D2
331
463
  5
D1
331
464
  5
D0
331
465
  5
CF
331
466
  5
CE
331
467
  5
CD
331
468
  5
CC
331
469
  5
CB
331
46A
  5
CA
331
46B
  5
C9
331
46C
  5
C8
331
46D
  5
C7
331
46E
  5
C6
331
46F
  5
C5
331
470
  5
C4
331
471
  5
C3
331
472
  5
C2
331
473
  5
C1
331
474
  5
C0
331
475
  5
BF
331
476
  5
BD
331
477
  5
BC
331
478
  5
BB
331
479
  5
BA
331
47A
  5
B9
331
47B
  5
B8
331
47C
  5
B7
331
47D
  5
B6
331
47E
  5
B5
331
47F
  5
B4
331
480
  5
B3
331
481
  5
B2
331
482
  5
B1
331
483
  5
AF
331
486
  5
AC
331
487
  5
AB
331
488
  5
AA
331
489
  5
A9
331
48A
  5
A8
331
48B
  5
A7
331
48C
  5
A6
331
48D
  5
A5
331
48E
  5
A4
331
490
  5
A2
331
491
  5
A1
331
492
  5
A0
  0
LAYOUT
  5
23
102
{ACAD_REACTORS
330
24
102
}
102
{ACAD_XDICTIONARY
360
25
102
}
330
24
100
AcDbPlotSettings
  1

  2
Bullzip PDF Printer.pc3
  4
A3
  6

 40
0.2
 41
0.0
 42
0.0
 43
0.0
 44
420.2
 45
297.1
 46
25.0
 47
12.0
 48
57.49999988333343
 49
33.42165154864122
140
1012.499997695834
141
714.6716499590577
142
1.0
143
2.5
 70
 11936
 72
     1
 73
     0
 74
     4
  7
monochrome.ctb
 75
     0
147
0.4
148
-57.49999988333343
149
-33.42165154864122
100
AcDbLayout
  1
Model
 70
     0
 71
     0
 10
0.0
 20
0.0
 11
12.0
 21
9.0
 12
0.0
 22
0.0
 32
0.0
 14
79.02502721757105
 24
53.30648339151674
 34
0.0
 15
1156.05449307864
 25
702.1095776207146
 35
0.0
146
0.0
 13
0.0
 23
0.0
 33
0.0
 16
1.0
 26
0.0
 36
0.0
 17
0.0
 27
1.0
 37
0.0
 76
     0
330
1B
331
34
1001
ACAD_PSEXT
1000
Bullzip PDF Printer.pc3
1000
Bullzip PDF Printer
1000
BULLZIP
1000
Bullzip PDF Printer 10.1.0.1871
1070
     0
  0
LAYOUT
  5
2A
102
{ACAD_REACTORS
330
24
102
}
330
24
100
AcDbPlotSettings
  1

  2
SR-LP8300F
  4

  6

 40
0.0
 41
0.0
 42
0.0
 43
0.0
 44
0.0
 45
0.0
 46
0.0
 47
0.0
 48
0.0
 49
0.0
140
0.0
141
0.0
142
1.0
143
1.0
 70
   688
 72
     0
 73
     0
 74
     5
  7
monochrome.ctb
 75
    16
147
1.0
148
0.0
149
0.0
100
AcDbLayout
  1
ﾚｲｱｳﾄ1
 70
     0
 71
     1
 10
0.0
 20
0.0
 11
12.0
 21
9.0
 12
0.0
 22
0.0
 32
0.0
 14
1.000000000000000E+20
 24
1.000000000000000E+20
 34
1.000000000000000E+20
 15
-1.000000000000000E+20
 25
-1.000000000000000E+20
 35
-1.000000000000000E+20
146
0.0
 13
0.0
 23
0.0
 33
0.0
 16
1.0
 26
0.0
 36
0.0
 17
0.0
 27
1.0
 37
0.0
 76
     0
330
27
  0
MATERIAL
  5
5B
102
{ACAD_REACTORS
330
B
102
}
102
{ACAD_XDICTIONARY
360
5AA
102
}
330
B
100
AcDbMaterial
  1
ByBlock
 72
     0
 73
     2
 43
0.0208333333333333
 43
0.0
 43
0.0
 43
0.0
 43
0.0
 43
0.0208333333333333
 43
0.0
 43
0.0
 43
0.0
 43
0.0
 43
1.0
 43
0.0
 43
0.0
 43
0.0
 43
0.0
 43
1.0
 77
     0
 78
     2
 47
0.0208333333333333
 47
0.0
 47
0.0
 47
0.0
 47
0.0
 47
0.0208333333333333
 47
0.0
 47
0.0
 47
0.0
 47
0.0
 47
1.0
 47
0.0
 47
0.0
 47
0.0
 47
0.0
 47
1.0
171
     0
172
     2
 49
0.0208333333333333
 49
0.0
 49
0.0
 49
0.0
 49
0.0
 49
0.0208333333333333
 49
0.0
 49
0.0
 49
0.0
 49
0.0
 49
1.0
 49
0.0
 49
0.0
 49
0.0
 49
0.0
 49
1.0
175
     0
176
     2
142
0.0208333333333333
142
0.0
142
0.0
142
0.0
142
0.0
142
0.0208333333333333
142
0.0
142
0.0
142
0.0
142
0.0
142
1.0
142
0.0
142
0.0
142
0.0
142
0.0
142
1.0
179
     0
270
     2
144
0.0208333333333333
144
0.0
144
0.0
144
0.0
144
0.0
144
0.0208333333333333
144
0.0
144
0.0
144
0.0
144
0.0
144
1.0
144
0.0
144
0.0
144
0.0
144
0.0
144
1.0
274
     2
147
0.0208333333333333
147
0.0
147
0.0
147
0.0
147
0.0
147
0.0208333333333333
147
0.0
147
0.0
147
0.0
147
0.0
147
1.0
147
0.0
147
0.0
147
0.0
147
0.0
147
1.0
  0
MATERIAL
  5
14
102
{ACAD_REACTORS
330
B
102
}
102
{ACAD_XDICTIONARY
360
5A6
102
}
330
B
100
AcDbMaterial
  1
ByLayer
 72
     0
 73
     2
 43
0.0208333333333333
 43
0.0
 43
0.0
 43
0.0
 43
0.0
 43
0.0208333333333333
 43
0.0
 43
0.0
 43
0.0
 43
0.0
 43
1.0
 43
0.0
 43
0.0
 43
0.0
 43
0.0
 43
1.0
 77
     0
 78
     2
 47
0.0208333333333333
 47
0.0
 47
0.0
 47
0.0
 47
0.0
 47
0.0208333333333333
 47
0.0
 47
0.0
 47
0.0
 47
0.0
 47
1.0
 47
0.0
 47
0.0
 47
0.0
 47
0.0
 47
1.0
171
     0
172
     2
 49
0.0208333333333333
 49
0.0
 49
0.0
 49
0.0
 49
0.0
 49
0.0208333333333333
 49
0.0
 49
0.0
 49
0.0
 49
0.0
 49
1.0
 49
0.0
 49
0.0
 49
0.0
 49
0.0
 49
1.0
175
     0
176
     2
142
0.0208333333333333
142
0.0
142
0.0
142
0.0
142
0.0
142
0.0208333333333333
142
0.0
142
0.0
142
0.0
142
0.0
142
1.0
142
0.0
142
0.0
142
0.0
142
0.0
142
1.0
179
     0
270
     2
144
0.0208333333333333
144
0.0
144
0.0
144
0.0
144
0.0
144
0.0208333333333333
144
0.0
144
0.0
144
0.0
144
0.0
144
1.0
144
0.0
144
0.0
144
0.0
144
0.0
144
1.0
274
     2
147
0.0208333333333333
147
0.0
147
0.0
147
0.0
147
0.0
147
0.0208333333333333
147
0.0
147
0.0
147
0.0
147
0.0
147
1.0
147
0.0
147
0.0
147
0.0
147
0.0
147
1.0
  0
MATERIAL
  5
A
102
{ACAD_REACTORS
330
B
102
}
102
{ACAD_XDICTIONARY
360
5A8
102
}
330
B
100
AcDbMaterial
  1
Global
 72
     0
 73
     2
 43
0.0208333333333333
 43
0.0
 43
0.0
 43
0.0
 43
0.0
 43
0.0208333333333333
 43
0.0
 43
0.0
 43
0.0
 43
0.0
 43
1.0
 43
0.0
 43
0.0
 43
0.0
 43
0.0
 43
1.0
 77
     0
 78
     2
 47
0.0208333333333333
 47
0.0
 47
0.0
 47
0.0
 47
0.0
 47
0.0208333333333333
 47
0.0
 47
0.0
 47
0.0
 47
0.0
 47
1.0
 47
0.0
 47
0.0
 47
0.0
 47
0.0
 47
1.0
171
     0
172
     2
 49
0.0208333333333333
 49
0.0
 49
0.0
 49
0.0
 49
0.0
 49
0.0208333333333333
 49
0.0
 49
0.0
 49
0.0
 49
0.0
 49
1.0
 49
0.0
 49
0.0
 49
0.0
 49
0.0
 49
1.0
175
     0
176
     2
142
0.0208333333333333
142
0.0
142
0.0
142
0.0
142
0.0
142
0.0208333333333333
142
0.0
142
0.0
142
0.0
142
0.0
142
1.0
142
0.0
142
0.0
142
0.0
142
0.0
142
1.0
179
     0
270
     2
144
0.0208333333333333
144
0.0
144
0.0
144
0.0
144
0.0
144
0.0208333333333333
144
0.0
144
0.0
144
0.0
144
0.0
144
1.0
144
0.0
144
0.0
144
0.0
144
0.0
144
1.0
274
     2
147
0.0208333333333333
147
0.0
147
0.0
147
0.0
147
0.0
147
0.0208333333333333
147
0.0
147
0.0
147
0.0
147
0.0
147
1.0
147
0.0
147
0.0
147
0.0
147
0.0
147
1.0
1001
ACAD
1070
    -1
1070
     3
1070
     0
1000

1071
        0
  0
MLEADERSTYLE
  5
587
102
{ACAD_REACTORS
330
56E
102
}
102
{ACAD_XDICTIONARY
360
5DC
102
}
330
56E
100
AcDbMLeaderStyle
170
     2
171
     1
172
     0
 90
        2
 40
0.0
 41
0.0
173
     1
 91
-1056964608
340
11
 92
       -2
290
     1
 42
0.09
291
     1
 43
0.36
  3
Standard
341
0
 44
0.18
300

342
12
174
     1
178
     6
175
     1
176
     0
 93
-1056964608
 45
0.18
292
     0
297
     0
 46
0.18
343
0
 94
-1056964608
 47
1.0
 49
1.0
140
1.0
293
     1
141
0.0
294
     1
177
     0
142
1.0
295
     0
296
     0
143
0.125
1001
ACAD_MLEADERVER
1070
     2
  0
MLINESTYLE
  5
18
102
{ACAD_REACTORS
330
19
102
}
330
19
100
AcDbMlineStyle
  2
STANDARD
 70
     0
  3

 62
     0
 51
90.0
 52
90.0
 71
     2
 49
0.5
 62
   256
  6
BYLAYER
 49
-0.5
 62
   256
  6
BYLAYER
  0
ACDBPLACEHOLDER
  5
7
102
{ACAD_REACTORS
330
8
102
}
330
8
  0
SCALE
  5
5A
102
{ACAD_REACTORS
330
38
102
}
330
38
100
AcDbScale
 70
     0
300
1:1
140
1.0
141
1.0
290
     1
  0
TABLESTYLE
  5
59B
102
{ACAD_REACTORS
330
56D
102
}
330
56D
100
AcDbTableStyle
  3
Standard
 70
     0
 71
     0
 40
0.06
 41
0.06
280
     0
281
     0
  7
STANDARD
140
0.18
170
     2
 62
     0
 63
   257
283
     0
274
    -2
284
     1
 64
     0
275
    -2
285
     1
 65
     0
276
    -2
286
     1
 66
     0
277
    -2
287
     1
 67
     0
278
    -2
288
     1
 68
     0
279
    -2
289
     1
 69
     0
  7
STANDARD
140
0.25
170
     5
 62
     0
 63
   257
283
     0
274
    -2
284
     1
 64
     0
275
    -2
285
     1
 65
     0
276
    -2
286
     1
 66
     0
277
    -2
287
     1
 67
     0
278
    -2
288
     1
 68
     0
279
    -2
289
     1
 69
     0
  7
STANDARD
140
0.18
170
     5
 62
     0
 63
   257
283
     0
274
    -2
284
     1
 64
     0
275
    -2
285
     1
 65
     0
276
    -2
286
     1
 66
     0
277
    -2
287
     1
 67
     0
278
    -2
288
     1
 68
     0
279
    -2
289
     1
 69
     0
  0
VISUALSTYLE
  5
35
102
{ACAD_REACTORS
330
31
102
}
102
{ACAD_XDICTIONARY
360
5B0
102
}
330
31
100
AcDbVisualStyle
  2
2dWireframe
 70
     4
 71
     0
 72
     2
 73
     0
 90
        0
 40
0.6
 41
30.0
 62
     5
 63
     7
 74
     1
 91
        4
 64
     7
 65
   257
 75
     1
175
     1
 42
1.0
 92
        0
 66
   257
 43
1.0
 76
     1
 77
     6
 78
     2
 67
     7
 79
     5
170
     0
171
     0
290
     0
174
     0
 93
        1
 44
0.0
173
     0
291
     0
 45
0.0
1001
ACAD
1000
AcDbSavedByObjectVersion
1070
     0
  0
VISUALSTYLE
  5
577
102
{ACAD_REACTORS
330
31
102
}
102
{ACAD_XDICTIONARY
360
5BC
102
}
330
31
100
AcDbVisualStyle
  2
Basic
 70
     7
 71
     1
 72
     0
 73
     1
 90
        0
 40
0.6
 41
30.0
 62
     5
 63
     7
 74
     0
 91
        4
 64
     7
 65
   257
 75
     1
175
     1
 42
1.0
 92
        8
 66
     7
 43
1.0
 76
     1
 77
     6
 78
     2
 67
     7
 79
     5
170
     0
171
     0
290
     0
174
     0
 93
        1
 44
0.0
173
     0
291
     1
 45
0.0
1001
ACAD
1000
AcDbSavedByObjectVersion
1070
     0
  0
VISUALSTYLE
  5
57A
102
{ACAD_REACTORS
330
31
102
}
102
{ACAD_XDICTIONARY
360
5C2
102
}
330
31
100
AcDbVisualStyle
  2
Brighten
 70
    12
 71
     2
 72
     2
 73
     0
 90
        0
 40
0.6
 41
30.0
 62
     5
 63
     7
 74
     1
 91
        4
 64
     7
 65
   257
 75
     1
175
     1
 42
1.0
 92
        8
 66
     7
 43
1.0
 76
     1
 77
     6
 78
     2
 67
     7
 79
     5
170
     0
171
     0
290
     0
174
     0
 93
        1
 44
50.0
173
     0
291
     1
 45
0.0
1001
ACAD
1000
AcDbSavedByObjectVersion
1070
     0
  0
VISUALSTYLE
  5
57E
102
{ACAD_REACTORS
330
31
102
}
102
{ACAD_XDICTIONARY
360
5CA
102
}
330
31
100
AcDbVisualStyle
  2
ColorChange
 70
    16
 71
     2
 72
     2
 73
     3
 90
        0
 40
0.6
 41
30.0
 62
     5
 63
     8
 74
     1
 91
        4
 64
     7
 65
   257
 75
     1
175
     1
 42
1.0
 92
        8
 66
     8
 43
1.0
 76
     1
 77
     6
 78
     2
 67
     7
 79
     5
170
     0
171
     0
290
     0
174
     0
 93
        1
 44
0.0
173
     0
291
     1
 45
0.0
1001
ACAD
1000
AcDbSavedByObjectVersion
1070
     0
  0
VISUALSTYLE
  5
578
102
{ACAD_REACTORS
330
31
102
}
102
{ACAD_XDICTIONARY
360
5BE
102
}
330
31
100
AcDbVisualStyle
  2
Conceptual
 70
     9
 71
     3
 72
     2
 73
     0
 90
        0
 40
0.6
 41
30.0
 62
     5
 63
     7
 74
     2
 91
        2
 64
     7
 65
   257
 75
     1
175
     1
 42
40.0
 92
        8
 66
     7
 43
1.0
 76
     1
 77
     6
 78
     2
 67
     7
 79
     3
170
     0
171
     0
290
     0
174
     0
 93
        1
 44
0.0
173
     0
291
     0
 45
0.0
1001
ACAD
1000
AcDbSavedByObjectVersion
1070
     0
  0
VISUALSTYLE
  5
579
102
{ACAD_REACTORS
330
31
102
}
102
{ACAD_XDICTIONARY
360
5C0
102
}
330
31
100
AcDbVisualStyle
  2
Dim
 70
    11
 71
     2
 72
     2
 73
     0
 90
        0
 40
0.6
 41
30.0
 62
     5
 63
     7
 74
     1
 91
        4
 64
     7
 65
   257
 75
     1
175
     1
 42
1.0
 92
        8
 66
     7
 43
1.0
 76
     1
 77
     6
 78
     2
 67
     7
 79
     5
170
     0
171
     0
290
     0
174
     0
 93
        1
 44
-50.0
173
     0
291
     1
 45
0.0
1001
ACAD
1000
AcDbSavedByObjectVersion
1070
     0
  0
VISUALSTYLE
  5
581
102
{ACAD_REACTORS
330
31
102
}
102
{ACAD_XDICTIONARY
360
5D0
102
}
330
31
100
AcDbVisualStyle
  2
EdgeColorOff
 70
    22
 71
     2
 72
     2
 73
     0
 90
        0
 40
0.6
 41
30.0
 62
     5
 63
     7
 74
     1
 91
        4
 64
     7
 65
   257
 75
     1
175
     1
 42
1.0
 92
        8
 66
     7
 43
1.0
 76
     1
 77
     6
 78
     2
 67
     7
 79
     5
170
     0
171
     0
290
     0
174
     0
 93
        1
 44
0.0
173
     0
291
     1
 45
0.0
1001
ACAD
1000
AcDbSavedByObjectVersion
1070
     0
  0
VISUALSTYLE
  5
57D
102
{ACAD_REACTORS
330
31
102
}
102
{ACAD_XDICTIONARY
360
5C8
102
}
330
31
100
AcDbVisualStyle
  2
Facepattern
 70
    15
 71
     2
 72
     2
 73
     0
 90
        0
 40
0.6
 41
30.0
 62
     5
 63
     7
 74
     1
 91
        4
 64
     7
 65
   257
 75
     1
175
     1
 42
1.0
 92
        8
 66
     7
 43
1.0
 76
     1
 77
     6
 78
     2
 67
     7
 79
     5
170
     0
171
     0
290
     0
174
     0
 93
        1
 44
0.0
173
     0
291
     1
 45
0.0
1001
ACAD
1000
AcDbSavedByObjectVersion
1070
     0
  0
VISUALSTYLE
  5
572
102
{ACAD_REACTORS
330
31
102
}
102
{ACAD_XDICTIONARY
360
5B2
102
}
330
31
100
AcDbVisualStyle
  2
Flat
 70
     0
 71
     2
 72
     1
 73
     1
 90
        2
 40
0.6
 41
30.0
 62
     5
 63
     7
 74
     0
 91
        4
 64
     7
 65
   257
 75
     1
175
     1
 42
1.0
 92
        8
 66
     7
 43
1.0
 76
     1
 77
     6
 78
     2
 67
     7
 79
     5
170
     0
171
     0
290
     0
174
     0
 93
       13
 44
0.0
173
     0
291
     1
 45
0.0
1001
ACAD
1000
AcDbSavedByObjectVersion
1070
     0
  0
VISUALSTYLE
  5
573
102
{ACAD_REACTORS
330
31
102
}
102
{ACAD_XDICTIONARY
360
5B4
102
}
330
31
100
AcDbVisualStyle
  2
FlatWithEdges
 70
     1
 71
     2
 72
     1
 73
     1
 90
        2
 40
0.6
 41
30.0
 62
     5
 63
     7
 74
     1
 91
        4
 64
     7
 65
   257
 75
     1
175
     1
 42
1.0
 92
        0
 66
   257
 43
1.0
 76
     1
 77
     6
 78
     2
 67
     7
 79
     5
170
     0
171
     0
290
     0
174
     0
 93
       13
 44
0.0
173
     0
291
     1
 45
0.0
1001
ACAD
1000
AcDbSavedByObjectVersion
1070
     0
  0
VISUALSTYLE
  5
574
102
{ACAD_REACTORS
330
31
102
}
102
{ACAD_XDICTIONARY
360
5B6
102
}
330
31
100
AcDbVisualStyle
  2
Gouraud
 70
     2
 71
     2
 72
     2
 73
     1
 90
        2
 40
0.6
 41
30.0
 62
     5
 63
     7
 74
     0
 91
        4
 64
     7
 65
   257
 75
     1
175
     1
 42
1.0
 92
        0
 66
     7
 43
1.0
 76
     1
 77
     6
 78
     2
 67
     7
 79
     5
170
     0
171
     0
290
     0
174
     0
 93
       13
 44
0.0
173
     0
291
     1
 45
0.0
1001
ACAD
1000
AcDbSavedByObjectVersion
1070
     0
  0
VISUALSTYLE
  5
575
102
{ACAD_REACTORS
330
31
102
}
102
{ACAD_XDICTIONARY
360
5B8
102
}
330
31
100
AcDbVisualStyle
  2
GouraudWithEdges
 70
     3
 71
     2
 72
     2
 73
     1
 90
        2
 40
0.6
 41
30.0
 62
     5
 63
     7
 74
     1
 91
        4
 64
     7
 65
   257
 75
     1
175
     1
 42
1.0
 92
        0
 66
   257
 43
1.0
 76
     1
 77
     6
 78
     2
 67
     7
 79
     5
170
     0
171
     0
290
     0
174
     0
 93
       13
 44
0.0
173
     0
291
     1
 45
0.0
1001
ACAD
1000
AcDbSavedByObjectVersion
1070
     0
  0
VISUALSTYLE
  5
576
102
{ACAD_REACTORS
330
31
102
}
102
{ACAD_XDICTIONARY
360
5BA
102
}
330
31
100
AcDbVisualStyle
  2
Hidden
 70
     6
 71
     1
 72
     2
 73
     2
 90
        0
 40
0.6
 41
30.0
 62
     5
 63
     7
 74
     2
 91
        2
 64
     7
 65
   257
 75
     2
175
     1
 42
40.0
 92
        0
 66
   257
 43
1.0
 76
     1
 77
     6
 78
     2
 67
     7
 79
     3
170
     0
171
     0
290
     0
174
     0
 93
        1
 44
0.0
173
     0
291
     0
 45
0.0
1001
ACAD
1000
AcDbSavedByObjectVersion
1070
     0
  0
VISUALSTYLE
  5
57F
102
{ACAD_REACTORS
330
31
102
}
102
{ACAD_XDICTIONARY
360
5CC
102
}
330
31
100
AcDbVisualStyle
  2
JitterOff
 70
    20
 71
     2
 72
     2
 73
     0
 90
        0
 40
0.6
 41
30.0
 62
     5
 63
     7
 74
     1
 91
        4
 64
     7
 65
   257
 75
     1
175
     1
 42
1.0
 92
       10
 66
     7
 43
1.0
 76
     1
 77
     6
 78
     2
 67
     7
 79
     5
170
     0
171
     0
290
     0
174
     0
 93
        1
 44
0.0
173
     0
291
     1
 45
0.0
1001
ACAD
1000
AcDbSavedByObjectVersion
1070
     0
  0
VISUALSTYLE
  5
57C
102
{ACAD_REACTORS
330
31
102
}
102
{ACAD_XDICTIONARY
360
5C6
102
}
330
31
100
AcDbVisualStyle
  2
Linepattern
 70
    14
 71
     2
 72
     2
 73
     0
 90
        0
 40
0.6
 41
30.0
 62
     5
 63
     7
 74
     1
 91
        4
 64
     7
 65
   257
 75
     7
175
     7
 42
1.0
 92
        8
 66
     7
 43
1.0
 76
     1
 77
     6
 78
     2
 67
     7
 79
     5
170
     0
171
     0
290
     0
174
     0
 93
        1
 44
0.0
173
     0
291
     1
 45
0.0
1001
ACAD
1000
AcDbSavedByObjectVersion
1070
     0
  0
VISUALSTYLE
  5
580
102
{ACAD_REACTORS
330
31
102
}
102
{ACAD_XDICTIONARY
360
5CE
102
}
330
31
100
AcDbVisualStyle
  2
OverhangOff
 70
    21
 71
     2
 72
     2
 73
     0
 90
        0
 40
0.6
 41
30.0
 62
     5
 63
     7
 74
     1
 91
        4
 64
     7
 65
   257
 75
     1
175
     1
 42
1.0
 92
        9
 66
     7
 43
1.0
 76
     1
 77
     6
 78
     2
 67
     7
 79
     5
170
     0
171
     0
290
     0
174
     0
 93
        1
 44
0.0
173
     0
291
     1
 45
0.0
1001
ACAD
1000
AcDbSavedByObjectVersion
1070
     0
  0
VISUALSTYLE
  5
32
102
{ACAD_REACTORS
330
31
102
}
102
{ACAD_XDICTIONARY
360
5AC
102
}
330
31
100
AcDbVisualStyle
  2
Realistic
 70
     8
 71
     2
 72
     3
 73
     0
 90
        2
 40
0.6
 41
30.0
 62
     5
 63
     7
 74
     0
 91
        0
 64
     7
 65
   257
 75
     1
175
     1
 42
1.0
 92
        8
 66
   257
 43
1.0
 76
     1
 77
     6
 78
     2
 67
     7
 79
     3
170
     0
171
     0
290
     0
174
     0
 93
       13
 44
0.0
173
     0
291
     0
 45
0.0
1001
ACAD
1000
AcDbSavedByObjectVersion
1070
     0
  0
VISUALSTYLE
  5
586
102
{ACAD_REACTORS
330
31
102
}
102
{ACAD_XDICTIONARY
360
5DA
102
}
330
31
100
AcDbVisualStyle
  2
Shaded
 70
    27
 71
     2
 72
     2
 73
     1
 90
        2
 40
0.6
 41
30.0
 62
     5
 63
     7
 74
     0
 91
        4
 64
     7
 65
   257
 75
     1
175
     1
 42
1.0
 92
        8
 66
   257
 43
1.0
 76
     1
 77
     6
 78
     2
 67
   251
 79
     3
170
     0
171
     0
290
     0
174
     0
 93
        5
 44
0.0
173
     0
291
     0
 45
0.0
1001
ACAD
1000
AcDbSavedByObjectVersion
1070
     0
  0
VISUALSTYLE
  5
585
102
{ACAD_REACTORS
330
31
102
}
102
{ACAD_XDICTIONARY
360
5D8
102
}
330
31
100
AcDbVisualStyle
  2
Shaded with edges
 70
    26
 71
     2
 72
     2
 73
     1
 90
        2
 40
0.6
 41
30.0
 62
     5
 63
     7
 74
     1
 91
       10
 64
     7
 65
   257
 75
     2
175
     1
 42
1.0
 92
        8
 66
   257
 43
1.0
 76
     1
 77
     6
 78
     2
 67
     7
 79
     3
170
     0
171
     0
290
     0
174
     0
 93
        5
 44
0.0
173
     0
291
     0
 45
0.0
1001
ACAD
1000
AcDbSavedByObjectVersion
1070
     0
  0
VISUALSTYLE
  5
582
102
{ACAD_REACTORS
330
31
102
}
102
{ACAD_XDICTIONARY
360
5D2
102
}
330
31
100
AcDbVisualStyle
  2
Shades of Gray
 70
    23
 71
     2
 72
     2
 73
     3
 90
        0
 40
0.6
 41
30.0
 62
     5
 63
     7
 74
     2
 91
        2
 64
     7
 65
     7
 75
     1
175
     1
 42
40.0
 92
        8
 66
     7
 43
1.0
 76
     1
 77
     6
 78
     2
 67
     7
 79
     3
170
     0
171
     0
290
     0
174
     0
 93
        1
 44
0.0
173
     0
291
     0
 45
0.0
1001
ACAD
1000
AcDbSavedByObjectVersion
1070
     0
  0
VISUALSTYLE
  5
583
102
{ACAD_REACTORS
330
31
102
}
102
{ACAD_XDICTIONARY
360
5D4
102
}
330
31
100
AcDbVisualStyle
  2
Sketchy
 70
    24
 71
     1
 72
     2
 73
     2
 90
        0
 40
0.6
 41
30.0
 62
     5
 63
     7
 74
     2
 91
        2
 64
     7
 65
     7
 75
     1
175
     1
 42
40.0
 92
       11
 66
     7
 43
1.0
 76
     1
 77
     6
 78
     2
 67
     7
 79
     6
170
     0
171
     0
290
     0
174
     0
 93
        1
 44
0.0
173
     0
291
     0
 45
0.0
1001
ACAD
1000
AcDbSavedByObjectVersion
1070
     0
  0
VISUALSTYLE
  5
57B
102
{ACAD_REACTORS
330
31
102
}
102
{ACAD_XDICTIONARY
360
5C4
102
}
330
31
100
AcDbVisualStyle
  2
Thicken
 70
    13
 71
     2
 72
     2
 73
     0
 90
        0
 40
0.6
 41
30.0
 62
     5
 63
     7
 74
     1
 91
        4
 64
     7
 65
   257
 75
     1
175
     1
 42
1.0
 92
       12
 66
     7
 43
1.0
 76
     1
 77
     6
 78
     2
 67
     7
 79
     5
170
     0
171
     0
290
     0
174
     0
 93
        1
 44
0.0
173
     0
291
     1
 45
0.0
1001
ACAD
1000
AcDbSavedByObjectVersion
1070
     0
  0
VISUALSTYLE
  5
33
102
{ACAD_REACTORS
330
31
102
}
102
{ACAD_XDICTIONARY
360
5AE
102
}
330
31
100
AcDbVisualStyle
  2
Wireframe
 70
     5
 71
     0
 72
     2
 73
     0
 90
        0
 40
0.6
 41
30.0
 62
     5
 63
     7
 74
     1
 91
        4
 64
     7
 65
   257
 75
     1
175
     1
 42
1.0
 92
        0
 66
   257
 43
1.0
 76
     1
 77
     6
 78
     2
 67
     7
 79
     3
170
     0
171
     0
290
     0
174
     0
 93
        1
 44
0.0
173
     0
291
     0
 45
0.0
1001
ACAD
1000
AcDbSavedByObjectVersion
1070
     0
  0
VISUALSTYLE
  5
584
102
{ACAD_REACTORS
330
31
102
}
102
{ACAD_XDICTIONARY
360
5D6
102
}
330
31
100
AcDbVisualStyle
  2
X-Ray
 70
    25
 71
     2
 72
     2
 73
     1
 90
        1
 40
0.5
 41
30.0
 62
     5
 63
     7
 74
     1
 91
        0
 64
     7
 65
   257
 75
     1
175
     1
 42
1.0
 92
        8
 66
     7
 43
1.0
 76
     1
 77
     6
 78
     2
 67
     7
 79
     3
170
     0
171
     0
290
     0
174
     0
 93
       13
 44
0.0
173
     0
291
     0
 45
0.0
1001
ACAD
1000
AcDbSavedByObjectVersion
1070
     0
  0
XRECORD
  5
5A0
102
{ACAD_REACTORS
330
59F
102
}
330
59F
100
AcDbXrecord
280
     1
340
30
  0
XRECORD
  5
5A1
102
{ACAD_REACTORS
330
59F
102
}
330
59F
100
AcDbXrecord
280
     1
340
B
  0
DICTIONARYVAR
  5
56C
102
{ACAD_REACTORS
330
56B
102
}
330
56B
100
DictionaryVariables
280
     0
  1
1:1
  0
DICTIONARYVAR
  5
58E
102
{ACAD_REACTORS
330
56B
102
}
330
56B
100
DictionaryVariables
280
     0
  1
Standard
  0
DICTIONARYVAR
  5
59C
102
{ACAD_REACTORS
330
56B
102
}
330
56B
100
DictionaryVariables
280
     0
  1
Standard
  0
DICTIONARYVAR
  5
59D
102
{ACAD_REACTORS
330
56B
102
}
330
56B
100
DictionaryVariables
280
     0
  1
0
  0
DICTIONARYVAR
  5
59E
102
{ACAD_REACTORS
330
56B
102
}
330
56B
100
DictionaryVariables
280
     0
  1
1
  0
DICTIONARYVAR
  5
5A5
102
{ACAD_REACTORS
330
56B
102
}
330
56B
100
DictionaryVariables
280
     0
  1
1
  0
DICTIONARYVAR
  5
56F
102
{ACAD_REACTORS
330
56B
102
}
330
56B
100
DictionaryVariables
280
     0
  1
0
  0
DICTIONARY
  5
25
330
23
100
AcDbDictionary
280
     1
281
     1
  0
DICTIONARY
  5
5AA
330
5B
100
AcDbDictionary
280
     1
281
     1
  3
ACAD_XREC_ROUNDTRIP
360
5AB
  0
DICTIONARY
  5
5A6
330
14
100
AcDbDictionary
280
     1
281
     1
  3
ACAD_XREC_ROUNDTRIP
360
5A7
  0
DICTIONARY
  5
5A8
330
A
100
AcDbDictionary
280
     1
281
     1
  3
ACAD_XREC_ROUNDTRIP
360
5A9
  0
DICTIONARY
  5
5DC
330
587
100
AcDbDictionary
280
     1
281
     1
  3
ACAD_XREC_ROUNDTRIP
360
5DD
  0
DICTIONARY
  5
5B0
330
35
100
AcDbDictionary
280
     1
281
     1
  3
ACAD_XREC_ROUNDTRIP
360
5B1
  0
DICTIONARY
  5
5BC
330
577
100
AcDbDictionary
280
     1
281
     1
  3
ACAD_XREC_ROUNDTRIP
360
5BD
  0
DICTIONARY
  5
5C2
330
57A
100
AcDbDictionary
280
     1
281
     1
  3
ACAD_XREC_ROUNDTRIP
360
5C3
  0
DICTIONARY
  5
5CA
330
57E
100
AcDbDictionary
280
     1
281
     1
  3
ACAD_XREC_ROUNDTRIP
360
5CB
  0
DICTIONARY
  5
5BE
330
578
100
AcDbDictionary
280
     1
281
     1
  3
ACAD_XREC_ROUNDTRIP
360
5BF
  0
DICTIONARY
  5
5C0
330
579
100
AcDbDictionary
280
     1
281
     1
  3
ACAD_XREC_ROUNDTRIP
360
5C1
  0
DICTIONARY
  5
5D0
330
581
100
AcDbDictionary
280
     1
281
     1
  3
ACAD_XREC_ROUNDTRIP
360
5D1
  0
DICTIONARY
  5
5C8
330
57D
100
AcDbDictionary
280
     1
281
     1
  3
ACAD_XREC_ROUNDTRIP
360
5C9
  0
DICTIONARY
  5
5B2
330
572
100
AcDbDictionary
280
     1
281
     1
  3
ACAD_XREC_ROUNDTRIP
360
5B3
  0
DICTIONARY
  5
5B4
330
573
100
AcDbDictionary
280
     1
281
     1
  3
ACAD_XREC_ROUNDTRIP
360
5B5
  0
DICTIONARY
  5
5B6
330
574
100
AcDbDictionary
280
     1
281
     1
  3
ACAD_XREC_ROUNDTRIP
360
5B7
  0
DICTIONARY
  5
5B8
330
575
100
AcDbDictionary
280
     1
281
     1
  3
ACAD_XREC_ROUNDTRIP
360
5B9
  0
DICTIONARY
  5
5BA
330
576
100
AcDbDictionary
280
     1
281
     1
  3
ACAD_XREC_ROUNDTRIP
360
5BB
  0
DICTIONARY
  5
5CC
330
57F
100
AcDbDictionary
280
     1
281
     1
  3
ACAD_XREC_ROUNDTRIP
360
5CD
  0
DICTIONARY
  5
5C6
330
57C
100
AcDbDictionary
280
     1
281
     1
  3
ACAD_XREC_ROUNDTRIP
360
5C7
  0
DICTIONARY
  5
5CE
330
580
100
AcDbDictionary
280
     1
281
     1
  3
ACAD_XREC_ROUNDTRIP
360
5CF
  0
DICTIONARY
  5
5AC
330
32
100
AcDbDictionary
280
     1
281
     1
  3
ACAD_XREC_ROUNDTRIP
360
5AD
  0
DICTIONARY
  5
5DA
330
586
100
AcDbDictionary
280
     1
281
     1
  3
ACAD_XREC_ROUNDTRIP
360
5DB
  0
DICTIONARY
  5
5D8
330
585
100
AcDbDictionary
280
     1
281
     1
  3
ACAD_XREC_ROUNDTRIP
360
5D9
  0
DICTIONARY
  5
5D2
330
582
100
AcDbDictionary
280
     1
281
     1
  3
ACAD_XREC_ROUNDTRIP
360
5D3
  0
DICTIONARY
  5
5D4
330
583
100
AcDbDictionary
280
     1
281
     1
  3
ACAD_XREC_ROUNDTRIP
360
5D5
  0
DICTIONARY
  5
5C4
330
57B
100
AcDbDictionary
280
     1
281
     1
  3
ACAD_XREC_ROUNDTRIP
360
5C5
  0
DICTIONARY
  5
5AE
330
33
100
AcDbDictionary
280
     1
281
     1
  3
ACAD_XREC_ROUNDTRIP
360
5AF
  0
DICTIONARY
  5
5D6
330
584
100
AcDbDictionary
280
     1
281
     1
  3
ACAD_XREC_ROUNDTRIP
360
5D7
  0
XRECORD
  5
5AB
102
{ACAD_REACTORS
330
5AA
102
}
330
5AA
100
AcDbXrecord
280
     1
102
MATERIAL
148
0.0
149
0.0
149
0.0
 93
        0
 94
      127
282
     0
 72
     0
 77
     0
171
     0
175
     0
179
     0
273
     0
  0
XRECORD
  5
5A7
102
{ACAD_REACTORS
330
5A6
102
}
330
5A6
100
AcDbXrecord
280
     1
102
MATERIAL
148
0.0
149
0.0
149
0.0
 93
        0
 94
      127
282
     0
 72
     0
 77
     0
171
     0
175
     0
179
     0
273
     0
  0
XRECORD
  5
5A9
102
{ACAD_REACTORS
330
5A8
102
}
330
5A8
100
AcDbXrecord
280
     1
102
MATERIAL
148
0.0
149
0.0
149
0.0
 93
        0
 94
      127
282
     0
 72
     0
 77
     0
171
     0
175
     0
179
     0
273
     0
  0
XRECORD
  5
5DD
102
{ACAD_REACTORS
330
5DC
102
}
330
5DC
100
AcDbXrecord
280
     1
102
ACAD_ROUNDTRIP_2010_MLEADER_STYLE
  0
XRECORD
  5
5B1
102
{ACAD_REACTORS
330
5B0
102
}
330
5B0
100
AcDbXrecord
280
     1
102
RTVSPropertyOp0
 70
     1
102
RTVSPropertyOp1
 70
     1
102
RTVSPropertyOp2
 70
     1
102
RTVSPropertyOp3
 70
     1
102
RTVSPropertyOp4
 70
     1
102
RTVSPropertyOp5
 70
     1
102
RTVSPropertyOp6
 70
     1
102
RTVSPropertyOp7
 70
     1
102
RTVSPropertyOp8
 70
     1
102
RTVSPropertyOp9
 70
     1
102
RTVSPropertyOp10
 70
     1
102
RTVSPropertyOp11
 70
     1
102
RTVSPropertyOp12
 70
     1
102
RTVSPropertyOp13
 70
     1
102
RTVSPropertyOp14
 70
     1
102
RTVSPropertyOp15
 70
     1
102
RTVSPropertyOp16
 70
     1
102
RTVSPropertyOp17
 70
     1
102
RTVSPropertyOp18
 70
     1
102
RTVSPropertyOp19
 70
     1
102
RTVSPropertyOp20
 70
     1
102
RTVSPropertyOp21
 70
     1
102
RTVSPropertyOp22
 70
     1
102
RTVSPropertyOp23
 70
     1
102
RTVSPropertyOp24
 70
     1
102
RTVSPropertyOp25
 70
     1
102
RTVSPropertyOp26
 70
     1
102
RTVSPropertyOp27
 70
     1
102
RTVSPropertyOp28
 70
     1
102
RTVSPropertyOp29
 70
     1
102
RTVSPropertyOp30
 70
     1
102
RTVSPropertyOp31
 70
     1
102
RTVSPropertyOp32
 70
     1
102
RTVSPropertyOp33
 70
     1
102
RTVSPropertyOp34
 70
     1
102
RTVSPropertyOp35
 70
     1
102
RTVSPropertyOp36
 70
     1
102
RTVSPropertyOp37
 70
     1
102
RTVSPropertyOp38
 70
     1
102
RTVSPropertyOp39
 70
     1
102
RTVSPropertyOp40
 70
     1
102
RTVSPropertyOp41
 70
     1
102
RTVSPropertyOp42
 70
     1
102
RTVSPropertyOp43
 70
     1
102
RTVSPropertyOp44
 70
     1
102
RTVSPropertyOp45
 70
     1
102
RTVSPropertyOp46
 70
     1
102
RTVSPropertyOp47
 70
     1
102
RTVSPropertyOp48
 70
     1
102
RTVSPropertyOp49
 70
     1
102
RTVSPropertyOp50
 70
     1
102
RTVSPropertyOp51
 70
     0
102
RTVSPropertyOp52
 70
     0
102
RTVSPropertyOp53
 70
     1
102
RTVSPropertyOp54
 70
     1
102
RTVSPropertyOp55
 70
     1
102
RTVSPropertyOp56
 70
     1
102
RTVSPropertyOp57
 70
     1
102
RTVSPost2010Prop28
280
     1
102
RTVSPost2010PropOp28
 70
     1
102
RTVSPost2010Prop29
280
     1
102
RTVSPost2010PropOp29
 70
     1
102
RTVSPost2010Prop30
280
     0
102
RTVSPost2010PropOp30
 70
     1
102
RTVSPost2010Prop31
280
     0
102
RTVSPost2010PropOp31
 70
     1
102
RTVSPost2010Prop32
280
     0
102
RTVSPost2010PropOp32
 70
     1
102
RTVSPost2010Prop33
280
     0
102
RTVSPost2010PropOp33
 70
     1
102
RTVSPost2010Prop34
280
     0
102
RTVSPost2010PropOp34
 70
     1
102
RTVSPost2010Prop35
280
     0
102
RTVSPost2010PropOp35
 70
     1
102
RTVSPost2010Prop36
280
     0
102
RTVSPost2010PropOp36
 70
     1
102
RTVSPost2010Prop37
 90
       50
102
RTVSPost2010PropOp37
 70
     1
102
RTVSPost2010Prop38
140
0.0
102
RTVSPost2010PropOp38
 70
     1
102
RTVSPost2010Prop39
140
1.0
102
RTVSPost2010PropOp39
 70
     1
102
RTVSPost2010Prop40
 90
        0
102
RTVSPost2010PropOp40
 70
     1
102
RTVSPost2010Prop41ColorIndex
 90
       18
102
RTVSPost2010Prop41ColorRGB
 90
        0
102
RTVSPost2010PropOp41
 70
     1
102
RTVSPost2010Prop42
 90
       50
102
RTVSPost2010PropOp42
 70
     1
102
RTVSPost2010Prop43
 90
        3
102
RTVSPost2010PropOp43
 70
     1
102
RTVSPost2010Prop44ColorIndex
 90
        5
102
RTVSPost2010Prop44ColorRGB
 90
      255
102
RTVSPost2010PropOp44
 70
     1
102
RTVSPost2010Prop45
280
     0
102
RTVSPost2010PropOp45
 70
     1
102
RTVSPost2010Prop46
 90
       50
102
RTVSPost2010PropOp46
 70
     1
102
RTVSPost2010Prop47
 90
       50
102
RTVSPost2010PropOp47
 70
     1
102
RTVSPost2010Prop48
 90
       50
102
RTVSPost2010PropOp48
 70
     1
102
RTVSPost2010Prop49
280
     0
102
RTVSPost2010PropOp49
 70
     1
102
RTVSPost2010Prop50
 90
       50
102
RTVSPost2010PropOp50
 70
     1
102
RTVSPost2010Prop51ColorIndex
 90
      256
102
RTVSPost2010Prop51ColorRGB
 90
-16777216
102
RTVSPost2010PropOp51
 70
     0
102
RTVSPost2010Prop52
140
1.0
102
RTVSPost2010PropOp52
 70
     0
102
RTVSPost2010Prop53
 90
        2
102
RTVSPost2010PropOp53
 70
     1
102
RTVSPost2010Prop54
  1
strokes_ogs.tif
102
RTVSPost2010PropOp54
 70
     1
102
RTVSPost2010Prop55
280
     0
102
RTVSPost2010PropOp55
 70
     1
102
RTVSPost2010Prop56
140
1.0
102
RTVSPost2010PropOp56
 70
     1
102
RTVSPost2010Prop57
140
1.0
102
RTVSPost2010PropOp57
 70
     1
  0
XRECORD
  5
5BD
102
{ACAD_REACTORS
330
5BC
102
}
330
5BC
100
AcDbXrecord
280
     1
102
RTVSPropertyOp0
 70
     1
102
RTVSPropertyOp1
 70
     1
102
RTVSPropertyOp2
 70
     1
102
RTVSPropertyOp3
 70
     1
102
RTVSPropertyOp4
 70
     1
102
RTVSPropertyOp5
 70
     1
102
RTVSPropertyOp6
 70
     1
102
RTVSPropertyOp7
 70
     1
102
RTVSPropertyOp8
 70
     1
102
RTVSPropertyOp9
 70
     1
102
RTVSPropertyOp10
 70
     1
102
RTVSPropertyOp11
 70
     1
102
RTVSPropertyOp12
 70
     1
102
RTVSPropertyOp13
 70
     1
102
RTVSPropertyOp14
 70
     1
102
RTVSPropertyOp15
 70
     1
102
RTVSPropertyOp16
 70
     1
102
RTVSPropertyOp17
 70
     1
102
RTVSPropertyOp18
 70
     1
102
RTVSPropertyOp19
 70
     1
102
RTVSPropertyOp20
 70
     1
102
RTVSPropertyOp21
 70
     1
102
RTVSPropertyOp22
 70
     1
102
RTVSPropertyOp23
 70
     1
102
RTVSPropertyOp24
 70
     1
102
RTVSPropertyOp25
 70
     1
102
RTVSPropertyOp26
 70
     1
102
RTVSPropertyOp27
 70
     1
102
RTVSPropertyOp28
 70
     1
102
RTVSPropertyOp29
 70
     1
102
RTVSPropertyOp30
 70
     1
102
RTVSPropertyOp31
 70
     1
102
RTVSPropertyOp32
 70
     1
102
RTVSPropertyOp33
 70
     1
102
RTVSPropertyOp34
 70
     1
102
RTVSPropertyOp35
 70
     1
102
RTVSPropertyOp36
 70
     1
102
RTVSPropertyOp37
 70
     1
102
RTVSPropertyOp38
 70
     1
102
RTVSPropertyOp39
 70
     1
102
RTVSPropertyOp40
 70
     1
102
RTVSPropertyOp41
 70
     1
102
RTVSPropertyOp42
 70
     1
102
RTVSPropertyOp43
 70
     1
102
RTVSPropertyOp44
 70
     1
102
RTVSPropertyOp45
 70
     1
102
RTVSPropertyOp46
 70
     1
102
RTVSPropertyOp47
 70
     1
102
RTVSPropertyOp48
 70
     1
102
RTVSPropertyOp49
 70
     1
102
RTVSPropertyOp50
 70
     1
102
RTVSPropertyOp51
 70
     0
102
RTVSPropertyOp52
 70
     0
102
RTVSPropertyOp53
 70
     1
102
RTVSPropertyOp54
 70
     1
102
RTVSPropertyOp55
 70
     1
102
RTVSPropertyOp56
 70
     1
102
RTVSPropertyOp57
 70
     1
102
RTVSPost2010Prop28
280
     0
102
RTVSPost2010PropOp28
 70
     1
102
RTVSPost2010Prop29
280
     1
102
RTVSPost2010PropOp29
 70
     1
102
RTVSPost2010Prop30
280
     1
102
RTVSPost2010PropOp30
 70
     1
102
RTVSPost2010Prop31
280
     0
102
RTVSPost2010PropOp31
 70
     1
102
RTVSPost2010Prop32
280
     0
102
RTVSPost2010PropOp32
 70
     1
102
RTVSPost2010Prop33
280
     0
102
RTVSPost2010PropOp33
 70
     1
102
RTVSPost2010Prop34
280
     0
102
RTVSPost2010PropOp34
 70
     1
102
RTVSPost2010Prop35
280
     0
102
RTVSPost2010PropOp35
 70
     1
102
RTVSPost2010Prop36
280
     0
102
RTVSPost2010PropOp36
 70
     1
102
RTVSPost2010Prop37
 90
       50
102
RTVSPost2010PropOp37
 70
     1
102
RTVSPost2010Prop38
140
0.0
102
RTVSPost2010PropOp38
 70
     1
102
RTVSPost2010Prop39
140
1.0
102
RTVSPost2010PropOp39
 70
     1
102
RTVSPost2010Prop40
 90
        0
102
RTVSPost2010PropOp40
 70
     1
102
RTVSPost2010Prop41ColorIndex
 90
       18
102
RTVSPost2010Prop41ColorRGB
 90
        0
102
RTVSPost2010PropOp41
 70
     1
102
RTVSPost2010Prop42
 90
       50
102
RTVSPost2010PropOp42
 70
     1
102
RTVSPost2010Prop43
 90
        3
102
RTVSPost2010PropOp43
 70
     1
102
RTVSPost2010Prop44ColorIndex
 90
        5
102
RTVSPost2010Prop44ColorRGB
 90
      255
102
RTVSPost2010PropOp44
 70
     1
102
RTVSPost2010Prop45
280
     0
102
RTVSPost2010PropOp45
 70
     1
102
RTVSPost2010Prop46
 90
       50
102
RTVSPost2010PropOp46
 70
     1
102
RTVSPost2010Prop47
 90
       50
102
RTVSPost2010PropOp47
 70
     1
102
RTVSPost2010Prop48
 90
       50
102
RTVSPost2010PropOp48
 70
     1
102
RTVSPost2010Prop49
280
     0
102
RTVSPost2010PropOp49
 70
     1
102
RTVSPost2010Prop50
 90
       50
102
RTVSPost2010PropOp50
 70
     1
102
RTVSPost2010Prop51ColorIndex
 90
      256
102
RTVSPost2010Prop51ColorRGB
 90
-16777216
102
RTVSPost2010PropOp51
 70
     0
102
RTVSPost2010Prop52
140
1.0
102
RTVSPost2010PropOp52
 70
     0
102
RTVSPost2010Prop53
 90
        2
102
RTVSPost2010PropOp53
 70
     1
102
RTVSPost2010Prop54
  1
strokes_ogs.tif
102
RTVSPost2010PropOp54
 70
     1
102
RTVSPost2010Prop55
280
     0
102
RTVSPost2010PropOp55
 70
     1
102
RTVSPost2010Prop56
140
1.0
102
RTVSPost2010PropOp56
 70
     1
102
RTVSPost2010Prop57
140
1.0
102
RTVSPost2010PropOp57
 70
     1
  0
XRECORD
  5
5C3
102
{ACAD_REACTORS
330
5C2
102
}
330
5C2
100
AcDbXrecord
280
     1
102
RTVSPropertyOp0
 70
     1
102
RTVSPropertyOp1
 70
     1
102
RTVSPropertyOp2
 70
     1
102
RTVSPropertyOp3
 70
     1
102
RTVSPropertyOp4
 70
     1
102
RTVSPropertyOp5
 70
     1
102
RTVSPropertyOp6
 70
     1
102
RTVSPropertyOp7
 70
     1
102
RTVSPropertyOp8
 70
     1
102
RTVSPropertyOp9
 70
     1
102
RTVSPropertyOp10
 70
     1
102
RTVSPropertyOp11
 70
     1
102
RTVSPropertyOp12
 70
     1
102
RTVSPropertyOp13
 70
     1
102
RTVSPropertyOp14
 70
     1
102
RTVSPropertyOp15
 70
     1
102
RTVSPropertyOp16
 70
     1
102
RTVSPropertyOp17
 70
     1
102
RTVSPropertyOp18
 70
     1
102
RTVSPropertyOp19
 70
     1
102
RTVSPropertyOp20
 70
     1
102
RTVSPropertyOp21
 70
     1
102
RTVSPropertyOp22
 70
     1
102
RTVSPropertyOp23
 70
     1
102
RTVSPropertyOp24
 70
     1
102
RTVSPropertyOp25
 70
     1
102
RTVSPropertyOp26
 70
     1
102
RTVSPropertyOp27
 70
     1
102
RTVSPropertyOp28
 70
     1
102
RTVSPropertyOp29
 70
     1
102
RTVSPropertyOp30
 70
     1
102
RTVSPropertyOp31
 70
     1
102
RTVSPropertyOp32
 70
     1
102
RTVSPropertyOp33
 70
     1
102
RTVSPropertyOp34
 70
     1
102
RTVSPropertyOp35
 70
     1
102
RTVSPropertyOp36
 70
     1
102
RTVSPropertyOp37
 70
     1
102
RTVSPropertyOp38
 70
     1
102
RTVSPropertyOp39
 70
     1
102
RTVSPropertyOp40
 70
     1
102
RTVSPropertyOp41
 70
     1
102
RTVSPropertyOp42
 70
     1
102
RTVSPropertyOp43
 70
     1
102
RTVSPropertyOp44
 70
     1
102
RTVSPropertyOp45
 70
     1
102
RTVSPropertyOp46
 70
     1
102
RTVSPropertyOp47
 70
     1
102
RTVSPropertyOp48
 70
     1
102
RTVSPropertyOp49
 70
     1
102
RTVSPropertyOp50
 70
     1
102
RTVSPropertyOp51
 70
     0
102
RTVSPropertyOp52
 70
     0
102
RTVSPropertyOp53
 70
     1
102
RTVSPropertyOp54
 70
     1
102
RTVSPropertyOp55
 70
     1
102
RTVSPropertyOp56
 70
     1
102
RTVSPropertyOp57
 70
     1
102
RTVSPost2010Prop28
280
     0
102
RTVSPost2010PropOp28
 70
     1
102
RTVSPost2010Prop29
280
     1
102
RTVSPost2010PropOp29
 70
     1
102
RTVSPost2010Prop30
280
     1
102
RTVSPost2010PropOp30
 70
     1
102
RTVSPost2010Prop31
280
     0
102
RTVSPost2010PropOp31
 70
     1
102
RTVSPost2010Prop32
280
     0
102
RTVSPost2010PropOp32
 70
     1
102
RTVSPost2010Prop33
280
     0
102
RTVSPost2010PropOp33
 70
     1
102
RTVSPost2010Prop34
280
     0
102
RTVSPost2010PropOp34
 70
     1
102
RTVSPost2010Prop35
280
     0
102
RTVSPost2010PropOp35
 70
     1
102
RTVSPost2010Prop36
280
     0
102
RTVSPost2010PropOp36
 70
     1
102
RTVSPost2010Prop37
 90
       50
102
RTVSPost2010PropOp37
 70
     1
102
RTVSPost2010Prop38
140
0.0
102
RTVSPost2010PropOp38
 70
     1
102
RTVSPost2010Prop39
140
1.0
102
RTVSPost2010PropOp39
 70
     1
102
RTVSPost2010Prop40
 90
        0
102
RTVSPost2010PropOp40
 70
     1
102
RTVSPost2010Prop41ColorIndex
 90
       18
102
RTVSPost2010Prop41ColorRGB
 90
        0
102
RTVSPost2010PropOp41
 70
     1
102
RTVSPost2010Prop42
 90
       50
102
RTVSPost2010PropOp42
 70
     1
102
RTVSPost2010Prop43
 90
        3
102
RTVSPost2010PropOp43
 70
     1
102
RTVSPost2010Prop44ColorIndex
 90
        5
102
RTVSPost2010Prop44ColorRGB
 90
      255
102
RTVSPost2010PropOp44
 70
     1
102
RTVSPost2010Prop45
280
     0
102
RTVSPost2010PropOp45
 70
     1
102
RTVSPost2010Prop46
 90
       50
102
RTVSPost2010PropOp46
 70
     1
102
RTVSPost2010Prop47
 90
       50
102
RTVSPost2010PropOp47
 70
     1
102
RTVSPost2010Prop48
 90
       50
102
RTVSPost2010PropOp48
 70
     1
102
RTVSPost2010Prop49
280
     0
102
RTVSPost2010PropOp49
 70
     1
102
RTVSPost2010Prop50
 90
       50
102
RTVSPost2010PropOp50
 70
     1
102
RTVSPost2010Prop51ColorIndex
 90
      256
102
RTVSPost2010Prop51ColorRGB
 90
-16777216
102
RTVSPost2010PropOp51
 70
     0
102
RTVSPost2010Prop52
140
1.0
102
RTVSPost2010PropOp52
 70
     0
102
RTVSPost2010Prop53
 90
        2
102
RTVSPost2010PropOp53
 70
     1
102
RTVSPost2010Prop54
  1
strokes_ogs.tif
102
RTVSPost2010PropOp54
 70
     1
102
RTVSPost2010Prop55
280
     0
102
RTVSPost2010PropOp55
 70
     1
102
RTVSPost2010Prop56
140
1.0
102
RTVSPost2010PropOp56
 70
     1
102
RTVSPost2010Prop57
140
1.0
102
RTVSPost2010PropOp57
 70
     1
  0
XRECORD
  5
5CB
102
{ACAD_REACTORS
330
5CA
102
}
330
5CA
100
AcDbXrecord
280
     1
102
RTVSPropertyOp0
 70
     1
102
RTVSPropertyOp1
 70
     1
102
RTVSPropertyOp2
 70
     1
102
RTVSPropertyOp3
 70
     1
102
RTVSPropertyOp4
 70
     1
102
RTVSPropertyOp5
 70
     1
102
RTVSPropertyOp6
 70
     1
102
RTVSPropertyOp7
 70
     1
102
RTVSPropertyOp8
 70
     1
102
RTVSPropertyOp9
 70
     1
102
RTVSPropertyOp10
 70
     1
102
RTVSPropertyOp11
 70
     1
102
RTVSPropertyOp12
 70
     1
102
RTVSPropertyOp13
 70
     1
102
RTVSPropertyOp14
 70
     1
102
RTVSPropertyOp15
 70
     1
102
RTVSPropertyOp16
 70
     1
102
RTVSPropertyOp17
 70
     1
102
RTVSPropertyOp18
 70
     1
102
RTVSPropertyOp19
 70
     1
102
RTVSPropertyOp20
 70
     1
102
RTVSPropertyOp21
 70
     1
102
RTVSPropertyOp22
 70
     1
102
RTVSPropertyOp23
 70
     1
102
RTVSPropertyOp24
 70
     1
102
RTVSPropertyOp25
 70
     1
102
RTVSPropertyOp26
 70
     1
102
RTVSPropertyOp27
 70
     1
102
RTVSPropertyOp28
 70
     1
102
RTVSPropertyOp29
 70
     1
102
RTVSPropertyOp30
 70
     1
102
RTVSPropertyOp31
 70
     1
102
RTVSPropertyOp32
 70
     1
102
RTVSPropertyOp33
 70
     1
102
RTVSPropertyOp34
 70
     1
102
RTVSPropertyOp35
 70
     1
102
RTVSPropertyOp36
 70
     1
102
RTVSPropertyOp37
 70
     1
102
RTVSPropertyOp38
 70
     1
102
RTVSPropertyOp39
 70
     1
102
RTVSPropertyOp40
 70
     1
102
RTVSPropertyOp41
 70
     1
102
RTVSPropertyOp42
 70
     1
102
RTVSPropertyOp43
 70
     1
102
RTVSPropertyOp44
 70
     1
102
RTVSPropertyOp45
 70
     1
102
RTVSPropertyOp46
 70
     1
102
RTVSPropertyOp47
 70
     1
102
RTVSPropertyOp48
 70
     1
102
RTVSPropertyOp49
 70
     1
102
RTVSPropertyOp50
 70
     1
102
RTVSPropertyOp51
 70
     0
102
RTVSPropertyOp52
 70
     0
102
RTVSPropertyOp53
 70
     1
102
RTVSPropertyOp54
 70
     1
102
RTVSPropertyOp55
 70
     1
102
RTVSPropertyOp56
 70
     1
102
RTVSPropertyOp57
 70
     1
102
RTVSPost2010Prop28
280
     0
102
RTVSPost2010PropOp28
 70
     1
102
RTVSPost2010Prop29
280
     1
102
RTVSPost2010PropOp29
 70
     1
102
RTVSPost2010Prop30
280
     1
102
RTVSPost2010PropOp30
 70
     1
102
RTVSPost2010Prop31
280
     0
102
RTVSPost2010PropOp31
 70
     1
102
RTVSPost2010Prop32
280
     0
102
RTVSPost2010PropOp32
 70
     1
102
RTVSPost2010Prop33
280
     0
102
RTVSPost2010PropOp33
 70
     1
102
RTVSPost2010Prop34
280
     0
102
RTVSPost2010PropOp34
 70
     1
102
RTVSPost2010Prop35
280
     0
102
RTVSPost2010PropOp35
 70
     1
102
RTVSPost2010Prop36
280
     0
102
RTVSPost2010PropOp36
 70
     1
102
RTVSPost2010Prop37
 90
       50
102
RTVSPost2010PropOp37
 70
     1
102
RTVSPost2010Prop38
140
0.0
102
RTVSPost2010PropOp38
 70
     1
102
RTVSPost2010Prop39
140
1.0
102
RTVSPost2010PropOp39
 70
     1
102
RTVSPost2010Prop40
 90
        0
102
RTVSPost2010PropOp40
 70
     1
102
RTVSPost2010Prop41ColorIndex
 90
       18
102
RTVSPost2010Prop41ColorRGB
 90
        0
102
RTVSPost2010PropOp41
 70
     1
102
RTVSPost2010Prop42
 90
       50
102
RTVSPost2010PropOp42
 70
     1
102
RTVSPost2010Prop43
 90
        3
102
RTVSPost2010PropOp43
 70
     1
102
RTVSPost2010Prop44ColorIndex
 90
        5
102
RTVSPost2010Prop44ColorRGB
 90
      255
102
RTVSPost2010PropOp44
 70
     1
102
RTVSPost2010Prop45
280
     0
102
RTVSPost2010PropOp45
 70
     1
102
RTVSPost2010Prop46
 90
       50
102
RTVSPost2010PropOp46
 70
     1
102
RTVSPost2010Prop47
 90
       50
102
RTVSPost2010PropOp47
 70
     1
102
RTVSPost2010Prop48
 90
       50
102
RTVSPost2010PropOp48
 70
     1
102
RTVSPost2010Prop49
280
     0
102
RTVSPost2010PropOp49
 70
     1
102
RTVSPost2010Prop50
 90
       50
102
RTVSPost2010PropOp50
 70
     1
102
RTVSPost2010Prop51ColorIndex
 90
      256
102
RTVSPost2010Prop51ColorRGB
 90
-16777216
102
RTVSPost2010PropOp51
 70
     0
102
RTVSPost2010Prop52
140
1.0
102
RTVSPost2010PropOp52
 70
     0
102
RTVSPost2010Prop53
 90
        2
102
RTVSPost2010PropOp53
 70
     1
102
RTVSPost2010Prop54
  1
strokes_ogs.tif
102
RTVSPost2010PropOp54
 70
     1
102
RTVSPost2010Prop55
280
     0
102
RTVSPost2010PropOp55
 70
     1
102
RTVSPost2010Prop56
140
1.0
102
RTVSPost2010PropOp56
 70
     1
102
RTVSPost2010Prop57
140
1.0
102
RTVSPost2010PropOp57
 70
     1
  0
XRECORD
  5
5BF
102
{ACAD_REACTORS
330
5BE
102
}
330
5BE
100
AcDbXrecord
280
     1
102
RTVSPropertyOp0
 70
     1
102
RTVSPropertyOp1
 70
     1
102
RTVSPropertyOp2
 70
     1
102
RTVSPropertyOp3
 70
     1
102
RTVSPropertyOp4
 70
     1
102
RTVSPropertyOp5
 70
     1
102
RTVSPropertyOp6
 70
     1
102
RTVSPropertyOp7
 70
     1
102
RTVSPropertyOp8
 70
     1
102
RTVSPropertyOp9
 70
     1
102
RTVSPropertyOp10
 70
     1
102
RTVSPropertyOp11
 70
     1
102
RTVSPropertyOp12
 70
     1
102
RTVSPropertyOp13
 70
     1
102
RTVSPropertyOp14
 70
     1
102
RTVSPropertyOp15
 70
     1
102
RTVSPropertyOp16
 70
     1
102
RTVSPropertyOp17
 70
     1
102
RTVSPropertyOp18
 70
     1
102
RTVSPropertyOp19
 70
     1
102
RTVSPropertyOp20
 70
     1
102
RTVSPropertyOp21
 70
     1
102
RTVSPropertyOp22
 70
     1
102
RTVSPropertyOp23
 70
     1
102
RTVSPropertyOp24
 70
     1
102
RTVSPropertyOp25
 70
     1
102
RTVSPropertyOp26
 70
     1
102
RTVSPropertyOp27
 70
     1
102
RTVSPropertyOp28
 70
     1
102
RTVSPropertyOp29
 70
     1
102
RTVSPropertyOp30
 70
     1
102
RTVSPropertyOp31
 70
     1
102
RTVSPropertyOp32
 70
     1
102
RTVSPropertyOp33
 70
     1
102
RTVSPropertyOp34
 70
     1
102
RTVSPropertyOp35
 70
     1
102
RTVSPropertyOp36
 70
     1
102
RTVSPropertyOp37
 70
     1
102
RTVSPropertyOp38
 70
     1
102
RTVSPropertyOp39
 70
     1
102
RTVSPropertyOp40
 70
     1
102
RTVSPropertyOp41
 70
     1
102
RTVSPropertyOp42
 70
     1
102
RTVSPropertyOp43
 70
     1
102
RTVSPropertyOp44
 70
     1
102
RTVSPropertyOp45
 70
     1
102
RTVSPropertyOp46
 70
     1
102
RTVSPropertyOp47
 70
     1
102
RTVSPropertyOp48
 70
     1
102
RTVSPropertyOp49
 70
     1
102
RTVSPropertyOp50
 70
     1
102
RTVSPropertyOp51
 70
     0
102
RTVSPropertyOp52
 70
     0
102
RTVSPropertyOp53
 70
     1
102
RTVSPropertyOp54
 70
     1
102
RTVSPropertyOp55
 70
     1
102
RTVSPropertyOp56
 70
     1
102
RTVSPropertyOp57
 70
     1
102
RTVSPost2010Prop28
280
     0
102
RTVSPost2010PropOp28
 70
     1
102
RTVSPost2010Prop29
280
     1
102
RTVSPost2010PropOp29
 70
     1
102
RTVSPost2010Prop30
280
     1
102
RTVSPost2010PropOp30
 70
     1
102
RTVSPost2010Prop31
280
     0
102
RTVSPost2010PropOp31
 70
     1
102
RTVSPost2010Prop32
280
     0
102
RTVSPost2010PropOp32
 70
     1
102
RTVSPost2010Prop33
280
     0
102
RTVSPost2010PropOp33
 70
     1
102
RTVSPost2010Prop34
280
     0
102
RTVSPost2010PropOp34
 70
     1
102
RTVSPost2010Prop35
280
     0
102
RTVSPost2010PropOp35
 70
     1
102
RTVSPost2010Prop36
280
     0
102
RTVSPost2010PropOp36
 70
     1
102
RTVSPost2010Prop37
 90
       50
102
RTVSPost2010PropOp37
 70
     1
102
RTVSPost2010Prop38
140
0.0
102
RTVSPost2010PropOp38
 70
     1
102
RTVSPost2010Prop39
140
1.0
102
RTVSPost2010PropOp39
 70
     1
102
RTVSPost2010Prop40
 90
        0
102
RTVSPost2010PropOp40
 70
     1
102
RTVSPost2010Prop41ColorIndex
 90
       18
102
RTVSPost2010Prop41ColorRGB
 90
        0
102
RTVSPost2010PropOp41
 70
     1
102
RTVSPost2010Prop42
 90
       50
102
RTVSPost2010PropOp42
 70
     1
102
RTVSPost2010Prop43
 90
        3
102
RTVSPost2010PropOp43
 70
     1
102
RTVSPost2010Prop44ColorIndex
 90
        5
102
RTVSPost2010Prop44ColorRGB
 90
      255
102
RTVSPost2010PropOp44
 70
     1
102
RTVSPost2010Prop45
280
     0
102
RTVSPost2010PropOp45
 70
     1
102
RTVSPost2010Prop46
 90
       50
102
RTVSPost2010PropOp46
 70
     1
102
RTVSPost2010Prop47
 90
       50
102
RTVSPost2010PropOp47
 70
     1
102
RTVSPost2010Prop48
 90
       50
102
RTVSPost2010PropOp48
 70
     1
102
RTVSPost2010Prop49
280
     0
102
RTVSPost2010PropOp49
 70
     1
102
RTVSPost2010Prop50
 90
       50
102
RTVSPost2010PropOp50
 70
     1
102
RTVSPost2010Prop51ColorIndex
 90
      256
102
RTVSPost2010Prop51ColorRGB
 90
-16777216
102
RTVSPost2010PropOp51
 70
     0
102
RTVSPost2010Prop52
140
1.0
102
RTVSPost2010PropOp52
 70
     0
102
RTVSPost2010Prop53
 90
        2
102
RTVSPost2010PropOp53
 70
     1
102
RTVSPost2010Prop54
  1
strokes_ogs.tif
102
RTVSPost2010PropOp54
 70
     1
102
RTVSPost2010Prop55
280
     0
102
RTVSPost2010PropOp55
 70
     1
102
RTVSPost2010Prop56
140
1.0
102
RTVSPost2010PropOp56
 70
     1
102
RTVSPost2010Prop57
140
1.0
102
RTVSPost2010PropOp57
 70
     1
  0
XRECORD
  5
5C1
102
{ACAD_REACTORS
330
5C0
102
}
330
5C0
100
AcDbXrecord
280
     1
102
RTVSPropertyOp0
 70
     1
102
RTVSPropertyOp1
 70
     1
102
RTVSPropertyOp2
 70
     1
102
RTVSPropertyOp3
 70
     1
102
RTVSPropertyOp4
 70
     1
102
RTVSPropertyOp5
 70
     1
102
RTVSPropertyOp6
 70
     1
102
RTVSPropertyOp7
 70
     1
102
RTVSPropertyOp8
 70
     1
102
RTVSPropertyOp9
 70
     1
102
RTVSPropertyOp10
 70
     1
102
RTVSPropertyOp11
 70
     1
102
RTVSPropertyOp12
 70
     1
102
RTVSPropertyOp13
 70
     1
102
RTVSPropertyOp14
 70
     1
102
RTVSPropertyOp15
 70
     1
102
RTVSPropertyOp16
 70
     1
102
RTVSPropertyOp17
 70
     1
102
RTVSPropertyOp18
 70
     1
102
RTVSPropertyOp19
 70
     1
102
RTVSPropertyOp20
 70
     1
102
RTVSPropertyOp21
 70
     1
102
RTVSPropertyOp22
 70
     1
102
RTVSPropertyOp23
 70
     1
102
RTVSPropertyOp24
 70
     1
102
RTVSPropertyOp25
 70
     1
102
RTVSPropertyOp26
 70
     1
102
RTVSPropertyOp27
 70
     1
102
RTVSPropertyOp28
 70
     1
102
RTVSPropertyOp29
 70
     1
102
RTVSPropertyOp30
 70
     1
102
RTVSPropertyOp31
 70
     1
102
RTVSPropertyOp32
 70
     1
102
RTVSPropertyOp33
 70
     1
102
RTVSPropertyOp34
 70
     1
102
RTVSPropertyOp35
 70
     1
102
RTVSPropertyOp36
 70
     1
102
RTVSPropertyOp37
 70
     1
102
RTVSPropertyOp38
 70
     1
102
RTVSPropertyOp39
 70
     1
102
RTVSPropertyOp40
 70
     1
102
RTVSPropertyOp41
 70
     1
102
RTVSPropertyOp42
 70
     1
102
RTVSPropertyOp43
 70
     1
102
RTVSPropertyOp44
 70
     1
102
RTVSPropertyOp45
 70
     1
102
RTVSPropertyOp46
 70
     1
102
RTVSPropertyOp47
 70
     1
102
RTVSPropertyOp48
 70
     1
102
RTVSPropertyOp49
 70
     1
102
RTVSPropertyOp50
 70
     1
102
RTVSPropertyOp51
 70
     0
102
RTVSPropertyOp52
 70
     0
102
RTVSPropertyOp53
 70
     1
102
RTVSPropertyOp54
 70
     1
102
RTVSPropertyOp55
 70
     1
102
RTVSPropertyOp56
 70
     1
102
RTVSPropertyOp57
 70
     1
102
RTVSPost2010Prop28
280
     0
102
RTVSPost2010PropOp28
 70
     1
102
RTVSPost2010Prop29
280
     1
102
RTVSPost2010PropOp29
 70
     1
102
RTVSPost2010Prop30
280
     1
102
RTVSPost2010PropOp30
 70
     1
102
RTVSPost2010Prop31
280
     0
102
RTVSPost2010PropOp31
 70
     1
102
RTVSPost2010Prop32
280
     0
102
RTVSPost2010PropOp32
 70
     1
102
RTVSPost2010Prop33
280
     0
102
RTVSPost2010PropOp33
 70
     1
102
RTVSPost2010Prop34
280
     0
102
RTVSPost2010PropOp34
 70
     1
102
RTVSPost2010Prop35
280
     0
102
RTVSPost2010PropOp35
 70
     1
102
RTVSPost2010Prop36
280
     0
102
RTVSPost2010PropOp36
 70
     1
102
RTVSPost2010Prop37
 90
       50
102
RTVSPost2010PropOp37
 70
     1
102
RTVSPost2010Prop38
140
0.0
102
RTVSPost2010PropOp38
 70
     1
102
RTVSPost2010Prop39
140
1.0
102
RTVSPost2010PropOp39
 70
     1
102
RTVSPost2010Prop40
 90
        0
102
RTVSPost2010PropOp40
 70
     1
102
RTVSPost2010Prop41ColorIndex
 90
       18
102
RTVSPost2010Prop41ColorRGB
 90
        0
102
RTVSPost2010PropOp41
 70
     1
102
RTVSPost2010Prop42
 90
       50
102
RTVSPost2010PropOp42
 70
     1
102
RTVSPost2010Prop43
 90
        3
102
RTVSPost2010PropOp43
 70
     1
102
RTVSPost2010Prop44ColorIndex
 90
        5
102
RTVSPost2010Prop44ColorRGB
 90
      255
102
RTVSPost2010PropOp44
 70
     1
102
RTVSPost2010Prop45
280
     0
102
RTVSPost2010PropOp45
 70
     1
102
RTVSPost2010Prop46
 90
       50
102
RTVSPost2010PropOp46
 70
     1
102
RTVSPost2010Prop47
 90
       50
102
RTVSPost2010PropOp47
 70
     1
102
RTVSPost2010Prop48
 90
       50
102
RTVSPost2010PropOp48
 70
     1
102
RTVSPost2010Prop49
280
     0
102
RTVSPost2010PropOp49
 70
     1
102
RTVSPost2010Prop50
 90
       50
102
RTVSPost2010PropOp50
 70
     1
102
RTVSPost2010Prop51ColorIndex
 90
      256
102
RTVSPost2010Prop51ColorRGB
 90
-16777216
102
RTVSPost2010PropOp51
 70
     0
102
RTVSPost2010Prop52
140
1.0
102
RTVSPost2010PropOp52
 70
     0
102
RTVSPost2010Prop53
 90
        2
102
RTVSPost2010PropOp53
 70
     1
102
RTVSPost2010Prop54
  1
strokes_ogs.tif
102
RTVSPost2010PropOp54
 70
     1
102
RTVSPost2010Prop55
280
     0
102
RTVSPost2010PropOp55
 70
     1
102
RTVSPost2010Prop56
140
1.0
102
RTVSPost2010PropOp56
 70
     1
102
RTVSPost2010Prop57
140
1.0
102
RTVSPost2010PropOp57
 70
     1
  0
XRECORD
  5
5D1
102
{ACAD_REACTORS
330
5D0
102
}
330
5D0
100
AcDbXrecord
280
     1
102
RTVSPropertyOp0
 70
     0
102
RTVSPropertyOp1
 70
     0
102
RTVSPropertyOp2
 70
     0
102
RTVSPropertyOp3
 70
     0
102
RTVSPropertyOp4
 70
     0
102
RTVSPropertyOp5
 70
     0
102
RTVSPropertyOp6
 70
     0
102
RTVSPropertyOp7
 70
     0
102
RTVSPropertyOp8
 70
     0
102
RTVSPropertyOp9
 70
     0
102
RTVSPropertyOp10
 70
     0
102
RTVSPropertyOp11
 70
     0
102
RTVSPropertyOp12
 70
     0
102
RTVSPropertyOp13
 70
     0
102
RTVSPropertyOp14
 70
     0
102
RTVSPropertyOp15
 70
     0
102
RTVSPropertyOp16
 70
     0
102
RTVSPropertyOp17
 70
     0
102
RTVSPropertyOp18
 70
     0
102
RTVSPropertyOp19
 70
     0
102
RTVSPropertyOp20
 70
     0
102
RTVSPropertyOp21
 70
     0
102
RTVSPropertyOp22
 70
     0
102
RTVSPropertyOp23
 70
     0
102
RTVSPropertyOp24
 70
     0
102
RTVSPropertyOp25
 70
     0
102
RTVSPropertyOp26
 70
     0
102
RTVSPropertyOp27
 70
     0
102
RTVSPropertyOp28
 70
     1
102
RTVSPropertyOp29
 70
     1
102
RTVSPropertyOp30
 70
     1
102
RTVSPropertyOp31
 70
     1
102
RTVSPropertyOp32
 70
     1
102
RTVSPropertyOp33
 70
     1
102
RTVSPropertyOp34
 70
     1
102
RTVSPropertyOp35
 70
     1
102
RTVSPropertyOp36
 70
     1
102
RTVSPropertyOp37
 70
     1
102
RTVSPropertyOp38
 70
     1
102
RTVSPropertyOp39
 70
     1
102
RTVSPropertyOp40
 70
     1
102
RTVSPropertyOp41
 70
     1
102
RTVSPropertyOp42
 70
     1
102
RTVSPropertyOp43
 70
     1
102
RTVSPropertyOp44
 70
     1
102
RTVSPropertyOp45
 70
     1
102
RTVSPropertyOp46
 70
     1
102
RTVSPropertyOp47
 70
     1
102
RTVSPropertyOp48
 70
     1
102
RTVSPropertyOp49
 70
     1
102
RTVSPropertyOp50
 70
     1
102
RTVSPropertyOp51
 70
     0
102
RTVSPropertyOp52
 70
     0
102
RTVSPropertyOp53
 70
     1
102
RTVSPropertyOp54
 70
     1
102
RTVSPropertyOp55
 70
     1
102
RTVSPropertyOp56
 70
     1
102
RTVSPropertyOp57
 70
     1
102
RTVSPost2010Prop28
280
     0
102
RTVSPost2010PropOp28
 70
     1
102
RTVSPost2010Prop29
280
     1
102
RTVSPost2010PropOp29
 70
     1
102
RTVSPost2010Prop30
280
     1
102
RTVSPost2010PropOp30
 70
     1
102
RTVSPost2010Prop31
280
     0
102
RTVSPost2010PropOp31
 70
     1
102
RTVSPost2010Prop32
280
     0
102
RTVSPost2010PropOp32
 70
     1
102
RTVSPost2010Prop33
280
     0
102
RTVSPost2010PropOp33
 70
     1
102
RTVSPost2010Prop34
280
     0
102
RTVSPost2010PropOp34
 70
     1
102
RTVSPost2010Prop35
280
     0
102
RTVSPost2010PropOp35
 70
     1
102
RTVSPost2010Prop36
280
     0
102
RTVSPost2010PropOp36
 70
     1
102
RTVSPost2010Prop37
 90
       50
102
RTVSPost2010PropOp37
 70
     1
102
RTVSPost2010Prop38
140
0.0
102
RTVSPost2010PropOp38
 70
     1
102
RTVSPost2010Prop39
140
1.0
102
RTVSPost2010PropOp39
 70
     1
102
RTVSPost2010Prop40
 90
        0
102
RTVSPost2010PropOp40
 70
     1
102
RTVSPost2010Prop41ColorIndex
 90
       18
102
RTVSPost2010Prop41ColorRGB
 90
        0
102
RTVSPost2010PropOp41
 70
     1
102
RTVSPost2010Prop42
 90
       50
102
RTVSPost2010PropOp42
 70
     1
102
RTVSPost2010Prop43
 90
        3
102
RTVSPost2010PropOp43
 70
     1
102
RTVSPost2010Prop44ColorIndex
 90
        5
102
RTVSPost2010Prop44ColorRGB
 90
      255
102
RTVSPost2010PropOp44
 70
     1
102
RTVSPost2010Prop45
280
     0
102
RTVSPost2010PropOp45
 70
     1
102
RTVSPost2010Prop46
 90
       50
102
RTVSPost2010PropOp46
 70
     1
102
RTVSPost2010Prop47
 90
       50
102
RTVSPost2010PropOp47
 70
     1
102
RTVSPost2010Prop48
 90
       50
102
RTVSPost2010PropOp48
 70
     1
102
RTVSPost2010Prop49
280
     0
102
RTVSPost2010PropOp49
 70
     1
102
RTVSPost2010Prop50
 90
       50
102
RTVSPost2010PropOp50
 70
     1
102
RTVSPost2010Prop51ColorIndex
 90
      256
102
RTVSPost2010Prop51ColorRGB
 90
-16777216
102
RTVSPost2010PropOp51
 70
     0
102
RTVSPost2010Prop52
140
1.0
102
RTVSPost2010PropOp52
 70
     0
102
RTVSPost2010Prop53
 90
        2
102
RTVSPost2010PropOp53
 70
     1
102
RTVSPost2010Prop54
  1
strokes_ogs.tif
102
RTVSPost2010PropOp54
 70
     1
102
RTVSPost2010Prop55
280
     0
102
RTVSPost2010PropOp55
 70
     1
102
RTVSPost2010Prop56
140
1.0
102
RTVSPost2010PropOp56
 70
     1
102
RTVSPost2010Prop57
140
1.0
102
RTVSPost2010PropOp57
 70
     1
  0
XRECORD
  5
5C9
102
{ACAD_REACTORS
330
5C8
102
}
330
5C8
100
AcDbXrecord
280
     1
102
RTVSPropertyOp0
 70
     1
102
RTVSPropertyOp1
 70
     1
102
RTVSPropertyOp2
 70
     1
102
RTVSPropertyOp3
 70
     1
102
RTVSPropertyOp4
 70
     1
102
RTVSPropertyOp5
 70
     1
102
RTVSPropertyOp6
 70
     1
102
RTVSPropertyOp7
 70
     1
102
RTVSPropertyOp8
 70
     1
102
RTVSPropertyOp9
 70
     1
102
RTVSPropertyOp10
 70
     1
102
RTVSPropertyOp11
 70
     1
102
RTVSPropertyOp12
 70
     1
102
RTVSPropertyOp13
 70
     1
102
RTVSPropertyOp14
 70
     1
102
RTVSPropertyOp15
 70
     1
102
RTVSPropertyOp16
 70
     1
102
RTVSPropertyOp17
 70
     1
102
RTVSPropertyOp18
 70
     1
102
RTVSPropertyOp19
 70
     1
102
RTVSPropertyOp20
 70
     1
102
RTVSPropertyOp21
 70
     1
102
RTVSPropertyOp22
 70
     1
102
RTVSPropertyOp23
 70
     1
102
RTVSPropertyOp24
 70
     1
102
RTVSPropertyOp25
 70
     1
102
RTVSPropertyOp26
 70
     1
102
RTVSPropertyOp27
 70
     1
102
RTVSPropertyOp28
 70
     1
102
RTVSPropertyOp29
 70
     1
102
RTVSPropertyOp30
 70
     1
102
RTVSPropertyOp31
 70
     1
102
RTVSPropertyOp32
 70
     1
102
RTVSPropertyOp33
 70
     1
102
RTVSPropertyOp34
 70
     1
102
RTVSPropertyOp35
 70
     1
102
RTVSPropertyOp36
 70
     1
102
RTVSPropertyOp37
 70
     1
102
RTVSPropertyOp38
 70
     1
102
RTVSPropertyOp39
 70
     1
102
RTVSPropertyOp40
 70
     1
102
RTVSPropertyOp41
 70
     1
102
RTVSPropertyOp42
 70
     1
102
RTVSPropertyOp43
 70
     1
102
RTVSPropertyOp44
 70
     1
102
RTVSPropertyOp45
 70
     1
102
RTVSPropertyOp46
 70
     1
102
RTVSPropertyOp47
 70
     1
102
RTVSPropertyOp48
 70
     1
102
RTVSPropertyOp49
 70
     1
102
RTVSPropertyOp50
 70
     1
102
RTVSPropertyOp51
 70
     0
102
RTVSPropertyOp52
 70
     0
102
RTVSPropertyOp53
 70
     1
102
RTVSPropertyOp54
 70
     1
102
RTVSPropertyOp55
 70
     1
102
RTVSPropertyOp56
 70
     1
102
RTVSPropertyOp57
 70
     1
102
RTVSPost2010Prop28
280
     0
102
RTVSPost2010PropOp28
 70
     1
102
RTVSPost2010Prop29
280
     1
102
RTVSPost2010PropOp29
 70
     1
102
RTVSPost2010Prop30
280
     1
102
RTVSPost2010PropOp30
 70
     1
102
RTVSPost2010Prop31
280
     0
102
RTVSPost2010PropOp31
 70
     1
102
RTVSPost2010Prop32
280
     0
102
RTVSPost2010PropOp32
 70
     1
102
RTVSPost2010Prop33
280
     0
102
RTVSPost2010PropOp33
 70
     1
102
RTVSPost2010Prop34
280
     0
102
RTVSPost2010PropOp34
 70
     1
102
RTVSPost2010Prop35
280
     0
102
RTVSPost2010PropOp35
 70
     1
102
RTVSPost2010Prop36
280
     0
102
RTVSPost2010PropOp36
 70
     1
102
RTVSPost2010Prop37
 90
       50
102
RTVSPost2010PropOp37
 70
     1
102
RTVSPost2010Prop38
140
0.0
102
RTVSPost2010PropOp38
 70
     1
102
RTVSPost2010Prop39
140
1.0
102
RTVSPost2010PropOp39
 70
     1
102
RTVSPost2010Prop40
 90
        0
102
RTVSPost2010PropOp40
 70
     1
102
RTVSPost2010Prop41ColorIndex
 90
       18
102
RTVSPost2010Prop41ColorRGB
 90
        0
102
RTVSPost2010PropOp41
 70
     1
102
RTVSPost2010Prop42
 90
       50
102
RTVSPost2010PropOp42
 70
     1
102
RTVSPost2010Prop43
 90
        3
102
RTVSPost2010PropOp43
 70
     1
102
RTVSPost2010Prop44ColorIndex
 90
        5
102
RTVSPost2010Prop44ColorRGB
 90
      255
102
RTVSPost2010PropOp44
 70
     1
102
RTVSPost2010Prop45
280
     0
102
RTVSPost2010PropOp45
 70
     1
102
RTVSPost2010Prop46
 90
       50
102
RTVSPost2010PropOp46
 70
     1
102
RTVSPost2010Prop47
 90
       50
102
RTVSPost2010PropOp47
 70
     1
102
RTVSPost2010Prop48
 90
       50
102
RTVSPost2010PropOp48
 70
     1
102
RTVSPost2010Prop49
280
     0
102
RTVSPost2010PropOp49
 70
     1
102
RTVSPost2010Prop50
 90
       50
102
RTVSPost2010PropOp50
 70
     1
102
RTVSPost2010Prop51ColorIndex
 90
      256
102
RTVSPost2010Prop51ColorRGB
 90
-16777216
102
RTVSPost2010PropOp51
 70
     0
102
RTVSPost2010Prop52
140
1.0
102
RTVSPost2010PropOp52
 70
     0
102
RTVSPost2010Prop53
 90
        2
102
RTVSPost2010PropOp53
 70
     1
102
RTVSPost2010Prop54
  1
strokes_ogs.tif
102
RTVSPost2010PropOp54
 70
     1
102
RTVSPost2010Prop55
280
     0
102
RTVSPost2010PropOp55
 70
     1
102
RTVSPost2010Prop56
140
1.0
102
RTVSPost2010PropOp56
 70
     1
102
RTVSPost2010Prop57
140
1.0
102
RTVSPost2010PropOp57
 70
     1
  0
XRECORD
  5
5B3
102
{ACAD_REACTORS
330
5B2
102
}
330
5B2
100
AcDbXrecord
280
     1
102
RTVSPropertyOp0
 70
     1
102
RTVSPropertyOp1
 70
     1
102
RTVSPropertyOp2
 70
     1
102
RTVSPropertyOp3
 70
     1
102
RTVSPropertyOp4
 70
     1
102
RTVSPropertyOp5
 70
     1
102
RTVSPropertyOp6
 70
     1
102
RTVSPropertyOp7
 70
     1
102
RTVSPropertyOp8
 70
     1
102
RTVSPropertyOp9
 70
     1
102
RTVSPropertyOp10
 70
     1
102
RTVSPropertyOp11
 70
     1
102
RTVSPropertyOp12
 70
     1
102
RTVSPropertyOp13
 70
     1
102
RTVSPropertyOp14
 70
     1
102
RTVSPropertyOp15
 70
     1
102
RTVSPropertyOp16
 70
     1
102
RTVSPropertyOp17
 70
     1
102
RTVSPropertyOp18
 70
     1
102
RTVSPropertyOp19
 70
     1
102
RTVSPropertyOp20
 70
     1
102
RTVSPropertyOp21
 70
     1
102
RTVSPropertyOp22
 70
     1
102
RTVSPropertyOp23
 70
     1
102
RTVSPropertyOp24
 70
     1
102
RTVSPropertyOp25
 70
     1
102
RTVSPropertyOp26
 70
     1
102
RTVSPropertyOp27
 70
     1
102
RTVSPropertyOp28
 70
     1
102
RTVSPropertyOp29
 70
     1
102
RTVSPropertyOp30
 70
     1
102
RTVSPropertyOp31
 70
     1
102
RTVSPropertyOp32
 70
     1
102
RTVSPropertyOp33
 70
     1
102
RTVSPropertyOp34
 70
     1
102
RTVSPropertyOp35
 70
     1
102
RTVSPropertyOp36
 70
     1
102
RTVSPropertyOp37
 70
     1
102
RTVSPropertyOp38
 70
     1
102
RTVSPropertyOp39
 70
     1
102
RTVSPropertyOp40
 70
     1
102
RTVSPropertyOp41
 70
     1
102
RTVSPropertyOp42
 70
     1
102
RTVSPropertyOp43
 70
     1
102
RTVSPropertyOp44
 70
     1
102
RTVSPropertyOp45
 70
     1
102
RTVSPropertyOp46
 70
     1
102
RTVSPropertyOp47
 70
     1
102
RTVSPropertyOp48
 70
     1
102
RTVSPropertyOp49
 70
     1
102
RTVSPropertyOp50
 70
     1
102
RTVSPropertyOp51
 70
     0
102
RTVSPropertyOp52
 70
     0
102
RTVSPropertyOp53
 70
     1
102
RTVSPropertyOp54
 70
     1
102
RTVSPropertyOp55
 70
     1
102
RTVSPropertyOp56
 70
     1
102
RTVSPropertyOp57
 70
     1
102
RTVSPost2010Prop28
280
     0
102
RTVSPost2010PropOp28
 70
     1
102
RTVSPost2010Prop29
280
     1
102
RTVSPost2010PropOp29
 70
     1
102
RTVSPost2010Prop30
280
     1
102
RTVSPost2010PropOp30
 70
     1
102
RTVSPost2010Prop31
280
     0
102
RTVSPost2010PropOp31
 70
     1
102
RTVSPost2010Prop32
280
     0
102
RTVSPost2010PropOp32
 70
     1
102
RTVSPost2010Prop33
280
     0
102
RTVSPost2010PropOp33
 70
     1
102
RTVSPost2010Prop34
280
     0
102
RTVSPost2010PropOp34
 70
     1
102
RTVSPost2010Prop35
280
     0
102
RTVSPost2010PropOp35
 70
     1
102
RTVSPost2010Prop36
280
     0
102
RTVSPost2010PropOp36
 70
     1
102
RTVSPost2010Prop37
 90
       50
102
RTVSPost2010PropOp37
 70
     1
102
RTVSPost2010Prop38
140
0.0
102
RTVSPost2010PropOp38
 70
     1
102
RTVSPost2010Prop39
140
1.0
102
RTVSPost2010PropOp39
 70
     1
102
RTVSPost2010Prop40
 90
        0
102
RTVSPost2010PropOp40
 70
     1
102
RTVSPost2010Prop41ColorIndex
 90
       18
102
RTVSPost2010Prop41ColorRGB
 90
        0
102
RTVSPost2010PropOp41
 70
     1
102
RTVSPost2010Prop42
 90
       50
102
RTVSPost2010PropOp42
 70
     1
102
RTVSPost2010Prop43
 90
        3
102
RTVSPost2010PropOp43
 70
     1
102
RTVSPost2010Prop44ColorIndex
 90
        5
102
RTVSPost2010Prop44ColorRGB
 90
      255
102
RTVSPost2010PropOp44
 70
     1
102
RTVSPost2010Prop45
280
     0
102
RTVSPost2010PropOp45
 70
     1
102
RTVSPost2010Prop46
 90
       50
102
RTVSPost2010PropOp46
 70
     1
102
RTVSPost2010Prop47
 90
       50
102
RTVSPost2010PropOp47
 70
     1
102
RTVSPost2010Prop48
 90
       50
102
RTVSPost2010PropOp48
 70
     1
102
RTVSPost2010Prop49
280
     0
102
RTVSPost2010PropOp49
 70
     1
102
RTVSPost2010Prop50
 90
       50
102
RTVSPost2010PropOp50
 70
     1
102
RTVSPost2010Prop51ColorIndex
 90
      256
102
RTVSPost2010Prop51ColorRGB
 90
-16777216
102
RTVSPost2010PropOp51
 70
     0
102
RTVSPost2010Prop52
140
1.0
102
RTVSPost2010PropOp52
 70
     0
102
RTVSPost2010Prop53
 90
        2
102
RTVSPost2010PropOp53
 70
     1
102
RTVSPost2010Prop54
  1
strokes_ogs.tif
102
RTVSPost2010PropOp54
 70
     1
102
RTVSPost2010Prop55
280
     0
102
RTVSPost2010PropOp55
 70
     1
102
RTVSPost2010Prop56
140
1.0
102
RTVSPost2010PropOp56
 70
     1
102
RTVSPost2010Prop57
140
1.0
102
RTVSPost2010PropOp57
 70
     1
  0
XRECORD
  5
5B5
102
{ACAD_REACTORS
330
5B4
102
}
330
5B4
100
AcDbXrecord
280
     1
102
RTVSPropertyOp0
 70
     1
102
RTVSPropertyOp1
 70
     1
102
RTVSPropertyOp2
 70
     1
102
RTVSPropertyOp3
 70
     1
102
RTVSPropertyOp4
 70
     1
102
RTVSPropertyOp5
 70
     1
102
RTVSPropertyOp6
 70
     1
102
RTVSPropertyOp7
 70
     1
102
RTVSPropertyOp8
 70
     1
102
RTVSPropertyOp9
 70
     1
102
RTVSPropertyOp10
 70
     1
102
RTVSPropertyOp11
 70
     1
102
RTVSPropertyOp12
 70
     1
102
RTVSPropertyOp13
 70
     1
102
RTVSPropertyOp14
 70
     1
102
RTVSPropertyOp15
 70
     1
102
RTVSPropertyOp16
 70
     1
102
RTVSPropertyOp17
 70
     1
102
RTVSPropertyOp18
 70
     1
102
RTVSPropertyOp19
 70
     1
102
RTVSPropertyOp20
 70
     1
102
RTVSPropertyOp21
 70
     1
102
RTVSPropertyOp22
 70
     1
102
RTVSPropertyOp23
 70
     1
102
RTVSPropertyOp24
 70
     1
102
RTVSPropertyOp25
 70
     1
102
RTVSPropertyOp26
 70
     1
102
RTVSPropertyOp27
 70
     1
102
RTVSPropertyOp28
 70
     1
102
RTVSPropertyOp29
 70
     1
102
RTVSPropertyOp30
 70
     1
102
RTVSPropertyOp31
 70
     1
102
RTVSPropertyOp32
 70
     1
102
RTVSPropertyOp33
 70
     1
102
RTVSPropertyOp34
 70
     1
102
RTVSPropertyOp35
 70
     1
102
RTVSPropertyOp36
 70
     1
102
RTVSPropertyOp37
 70
     1
102
RTVSPropertyOp38
 70
     1
102
RTVSPropertyOp39
 70
     1
102
RTVSPropertyOp40
 70
     1
102
RTVSPropertyOp41
 70
     1
102
RTVSPropertyOp42
 70
     1
102
RTVSPropertyOp43
 70
     1
102
RTVSPropertyOp44
 70
     1
102
RTVSPropertyOp45
 70
     1
102
RTVSPropertyOp46
 70
     1
102
RTVSPropertyOp47
 70
     1
102
RTVSPropertyOp48
 70
     1
102
RTVSPropertyOp49
 70
     1
102
RTVSPropertyOp50
 70
     1
102
RTVSPropertyOp51
 70
     0
102
RTVSPropertyOp52
 70
     0
102
RTVSPropertyOp53
 70
     1
102
RTVSPropertyOp54
 70
     1
102
RTVSPropertyOp55
 70
     1
102
RTVSPropertyOp56
 70
     1
102
RTVSPropertyOp57
 70
     1
102
RTVSPost2010Prop28
280
     0
102
RTVSPost2010PropOp28
 70
     1
102
RTVSPost2010Prop29
280
     1
102
RTVSPost2010PropOp29
 70
     1
102
RTVSPost2010Prop30
280
     1
102
RTVSPost2010PropOp30
 70
     1
102
RTVSPost2010Prop31
280
     0
102
RTVSPost2010PropOp31
 70
     1
102
RTVSPost2010Prop32
280
     0
102
RTVSPost2010PropOp32
 70
     1
102
RTVSPost2010Prop33
280
     0
102
RTVSPost2010PropOp33
 70
     1
102
RTVSPost2010Prop34
280
     0
102
RTVSPost2010PropOp34
 70
     1
102
RTVSPost2010Prop35
280
     0
102
RTVSPost2010PropOp35
 70
     1
102
RTVSPost2010Prop36
280
     0
102
RTVSPost2010PropOp36
 70
     1
102
RTVSPost2010Prop37
 90
       50
102
RTVSPost2010PropOp37
 70
     1
102
RTVSPost2010Prop38
140
0.0
102
RTVSPost2010PropOp38
 70
     1
102
RTVSPost2010Prop39
140
1.0
102
RTVSPost2010PropOp39
 70
     1
102
RTVSPost2010Prop40
 90
        0
102
RTVSPost2010PropOp40
 70
     1
102
RTVSPost2010Prop41ColorIndex
 90
       18
102
RTVSPost2010Prop41ColorRGB
 90
        0
102
RTVSPost2010PropOp41
 70
     1
102
RTVSPost2010Prop42
 90
       50
102
RTVSPost2010PropOp42
 70
     1
102
RTVSPost2010Prop43
 90
        3
102
RTVSPost2010PropOp43
 70
     1
102
RTVSPost2010Prop44ColorIndex
 90
        5
102
RTVSPost2010Prop44ColorRGB
 90
      255
102
RTVSPost2010PropOp44
 70
     1
102
RTVSPost2010Prop45
280
     0
102
RTVSPost2010PropOp45
 70
     1
102
RTVSPost2010Prop46
 90
       50
102
RTVSPost2010PropOp46
 70
     1
102
RTVSPost2010Prop47
 90
       50
102
RTVSPost2010PropOp47
 70
     1
102
RTVSPost2010Prop48
 90
       50
102
RTVSPost2010PropOp48
 70
     1
102
RTVSPost2010Prop49
280
     0
102
RTVSPost2010PropOp49
 70
     1
102
RTVSPost2010Prop50
 90
       50
102
RTVSPost2010PropOp50
 70
     1
102
RTVSPost2010Prop51ColorIndex
 90
      256
102
RTVSPost2010Prop51ColorRGB
 90
-16777216
102
RTVSPost2010PropOp51
 70
     0
102
RTVSPost2010Prop52
140
1.0
102
RTVSPost2010PropOp52
 70
     0
102
RTVSPost2010Prop53
 90
        2
102
RTVSPost2010PropOp53
 70
     1
102
RTVSPost2010Prop54
  1
strokes_ogs.tif
102
RTVSPost2010PropOp54
 70
     1
102
RTVSPost2010Prop55
280
     0
102
RTVSPost2010PropOp55
 70
     1
102
RTVSPost2010Prop56
140
1.0
102
RTVSPost2010PropOp56
 70
     1
102
RTVSPost2010Prop57
140
1.0
102
RTVSPost2010PropOp57
 70
     1
  0
XRECORD
  5
5B7
102
{ACAD_REACTORS
330
5B6
102
}
330
5B6
100
AcDbXrecord
280
     1
102
RTVSPropertyOp0
 70
     1
102
RTVSPropertyOp1
 70
     1
102
RTVSPropertyOp2
 70
     1
102
RTVSPropertyOp3
 70
     1
102
RTVSPropertyOp4
 70
     1
102
RTVSPropertyOp5
 70
     1
102
RTVSPropertyOp6
 70
     1
102
RTVSPropertyOp7
 70
     1
102
RTVSPropertyOp8
 70
     1
102
RTVSPropertyOp9
 70
     1
102
RTVSPropertyOp10
 70
     1
102
RTVSPropertyOp11
 70
     1
102
RTVSPropertyOp12
 70
     1
102
RTVSPropertyOp13
 70
     1
102
RTVSPropertyOp14
 70
     1
102
RTVSPropertyOp15
 70
     1
102
RTVSPropertyOp16
 70
     1
102
RTVSPropertyOp17
 70
     1
102
RTVSPropertyOp18
 70
     1
102
RTVSPropertyOp19
 70
     1
102
RTVSPropertyOp20
 70
     1
102
RTVSPropertyOp21
 70
     1
102
RTVSPropertyOp22
 70
     1
102
RTVSPropertyOp23
 70
     1
102
RTVSPropertyOp24
 70
     1
102
RTVSPropertyOp25
 70
     1
102
RTVSPropertyOp26
 70
     1
102
RTVSPropertyOp27
 70
     1
102
RTVSPropertyOp28
 70
     1
102
RTVSPropertyOp29
 70
     1
102
RTVSPropertyOp30
 70
     1
102
RTVSPropertyOp31
 70
     1
102
RTVSPropertyOp32
 70
     1
102
RTVSPropertyOp33
 70
     1
102
RTVSPropertyOp34
 70
     1
102
RTVSPropertyOp35
 70
     1
102
RTVSPropertyOp36
 70
     1
102
RTVSPropertyOp37
 70
     1
102
RTVSPropertyOp38
 70
     1
102
RTVSPropertyOp39
 70
     1
102
RTVSPropertyOp40
 70
     1
102
RTVSPropertyOp41
 70
     1
102
RTVSPropertyOp42
 70
     1
102
RTVSPropertyOp43
 70
     1
102
RTVSPropertyOp44
 70
     1
102
RTVSPropertyOp45
 70
     1
102
RTVSPropertyOp46
 70
     1
102
RTVSPropertyOp47
 70
     1
102
RTVSPropertyOp48
 70
     1
102
RTVSPropertyOp49
 70
     1
102
RTVSPropertyOp50
 70
     1
102
RTVSPropertyOp51
 70
     0
102
RTVSPropertyOp52
 70
     0
102
RTVSPropertyOp53
 70
     1
102
RTVSPropertyOp54
 70
     1
102
RTVSPropertyOp55
 70
     1
102
RTVSPropertyOp56
 70
     1
102
RTVSPropertyOp57
 70
     1
102
RTVSPost2010Prop28
280
     0
102
RTVSPost2010PropOp28
 70
     1
102
RTVSPost2010Prop29
280
     1
102
RTVSPost2010PropOp29
 70
     1
102
RTVSPost2010Prop30
280
     1
102
RTVSPost2010PropOp30
 70
     1
102
RTVSPost2010Prop31
280
     0
102
RTVSPost2010PropOp31
 70
     1
102
RTVSPost2010Prop32
280
     0
102
RTVSPost2010PropOp32
 70
     1
102
RTVSPost2010Prop33
280
     0
102
RTVSPost2010PropOp33
 70
     1
102
RTVSPost2010Prop34
280
     0
102
RTVSPost2010PropOp34
 70
     1
102
RTVSPost2010Prop35
280
     0
102
RTVSPost2010PropOp35
 70
     1
102
RTVSPost2010Prop36
280
     0
102
RTVSPost2010PropOp36
 70
     1
102
RTVSPost2010Prop37
 90
       50
102
RTVSPost2010PropOp37
 70
     1
102
RTVSPost2010Prop38
140
0.0
102
RTVSPost2010PropOp38
 70
     1
102
RTVSPost2010Prop39
140
1.0
102
RTVSPost2010PropOp39
 70
     1
102
RTVSPost2010Prop40
 90
        0
102
RTVSPost2010PropOp40
 70
     1
102
RTVSPost2010Prop41ColorIndex
 90
       18
102
RTVSPost2010Prop41ColorRGB
 90
        0
102
RTVSPost2010PropOp41
 70
     1
102
RTVSPost2010Prop42
 90
       50
102
RTVSPost2010PropOp42
 70
     1
102
RTVSPost2010Prop43
 90
        3
102
RTVSPost2010PropOp43
 70
     1
102
RTVSPost2010Prop44ColorIndex
 90
        5
102
RTVSPost2010Prop44ColorRGB
 90
      255
102
RTVSPost2010PropOp44
 70
     1
102
RTVSPost2010Prop45
280
     0
102
RTVSPost2010PropOp45
 70
     1
102
RTVSPost2010Prop46
 90
       50
102
RTVSPost2010PropOp46
 70
     1
102
RTVSPost2010Prop47
 90
       50
102
RTVSPost2010PropOp47
 70
     1
102
RTVSPost2010Prop48
 90
       50
102
RTVSPost2010PropOp48
 70
     1
102
RTVSPost2010Prop49
280
     0
102
RTVSPost2010PropOp49
 70
     1
102
RTVSPost2010Prop50
 90
       50
102
RTVSPost2010PropOp50
 70
     1
102
RTVSPost2010Prop51ColorIndex
 90
      256
102
RTVSPost2010Prop51ColorRGB
 90
-16777216
102
RTVSPost2010PropOp51
 70
     0
102
RTVSPost2010Prop52
140
1.0
102
RTVSPost2010PropOp52
 70
     0
102
RTVSPost2010Prop53
 90
        2
102
RTVSPost2010PropOp53
 70
     1
102
RTVSPost2010Prop54
  1
strokes_ogs.tif
102
RTVSPost2010PropOp54
 70
     1
102
RTVSPost2010Prop55
280
     0
102
RTVSPost2010PropOp55
 70
     1
102
RTVSPost2010Prop56
140
1.0
102
RTVSPost2010PropOp56
 70
     1
102
RTVSPost2010Prop57
140
1.0
102
RTVSPost2010PropOp57
 70
     1
  0
XRECORD
  5
5B9
102
{ACAD_REACTORS
330
5B8
102
}
330
5B8
100
AcDbXrecord
280
     1
102
RTVSPropertyOp0
 70
     1
102
RTVSPropertyOp1
 70
     1
102
RTVSPropertyOp2
 70
     1
102
RTVSPropertyOp3
 70
     1
102
RTVSPropertyOp4
 70
     1
102
RTVSPropertyOp5
 70
     1
102
RTVSPropertyOp6
 70
     1
102
RTVSPropertyOp7
 70
     1
102
RTVSPropertyOp8
 70
     1
102
RTVSPropertyOp9
 70
     1
102
RTVSPropertyOp10
 70
     1
102
RTVSPropertyOp11
 70
     1
102
RTVSPropertyOp12
 70
     1
102
RTVSPropertyOp13
 70
     1
102
RTVSPropertyOp14
 70
     1
102
RTVSPropertyOp15
 70
     1
102
RTVSPropertyOp16
 70
     1
102
RTVSPropertyOp17
 70
     1
102
RTVSPropertyOp18
 70
     1
102
RTVSPropertyOp19
 70
     1
102
RTVSPropertyOp20
 70
     1
102
RTVSPropertyOp21
 70
     1
102
RTVSPropertyOp22
 70
     1
102
RTVSPropertyOp23
 70
     1
102
RTVSPropertyOp24
 70
     1
102
RTVSPropertyOp25
 70
     1
102
RTVSPropertyOp26
 70
     1
102
RTVSPropertyOp27
 70
     1
102
RTVSPropertyOp28
 70
     1
102
RTVSPropertyOp29
 70
     1
102
RTVSPropertyOp30
 70
     1
102
RTVSPropertyOp31
 70
     1
102
RTVSPropertyOp32
 70
     1
102
RTVSPropertyOp33
 70
     1
102
RTVSPropertyOp34
 70
     1
102
RTVSPropertyOp35
 70
     1
102
RTVSPropertyOp36
 70
     1
102
RTVSPropertyOp37
 70
     1
102
RTVSPropertyOp38
 70
     1
102
RTVSPropertyOp39
 70
     1
102
RTVSPropertyOp40
 70
     1
102
RTVSPropertyOp41
 70
     1
102
RTVSPropertyOp42
 70
     1
102
RTVSPropertyOp43
 70
     1
102
RTVSPropertyOp44
 70
     1
102
RTVSPropertyOp45
 70
     1
102
RTVSPropertyOp46
 70
     1
102
RTVSPropertyOp47
 70
     1
102
RTVSPropertyOp48
 70
     1
102
RTVSPropertyOp49
 70
     1
102
RTVSPropertyOp50
 70
     1
102
RTVSPropertyOp51
 70
     0
102
RTVSPropertyOp52
 70
     0
102
RTVSPropertyOp53
 70
     1
102
RTVSPropertyOp54
 70
     1
102
RTVSPropertyOp55
 70
     1
102
RTVSPropertyOp56
 70
     1
102
RTVSPropertyOp57
 70
     1
102
RTVSPost2010Prop28
280
     0
102
RTVSPost2010PropOp28
 70
     1
102
RTVSPost2010Prop29
280
     1
102
RTVSPost2010PropOp29
 70
     1
102
RTVSPost2010Prop30
280
     1
102
RTVSPost2010PropOp30
 70
     1
102
RTVSPost2010Prop31
280
     0
102
RTVSPost2010PropOp31
 70
     1
102
RTVSPost2010Prop32
280
     0
102
RTVSPost2010PropOp32
 70
     1
102
RTVSPost2010Prop33
280
     0
102
RTVSPost2010PropOp33
 70
     1
102
RTVSPost2010Prop34
280
     0
102
RTVSPost2010PropOp34
 70
     1
102
RTVSPost2010Prop35
280
     0
102
RTVSPost2010PropOp35
 70
     1
102
RTVSPost2010Prop36
280
     0
102
RTVSPost2010PropOp36
 70
     1
102
RTVSPost2010Prop37
 90
       50
102
RTVSPost2010PropOp37
 70
     1
102
RTVSPost2010Prop38
140
0.0
102
RTVSPost2010PropOp38
 70
     1
102
RTVSPost2010Prop39
140
1.0
102
RTVSPost2010PropOp39
 70
     1
102
RTVSPost2010Prop40
 90
        0
102
RTVSPost2010PropOp40
 70
     1
102
RTVSPost2010Prop41ColorIndex
 90
       18
102
RTVSPost2010Prop41ColorRGB
 90
        0
102
RTVSPost2010PropOp41
 70
     1
102
RTVSPost2010Prop42
 90
       50
102
RTVSPost2010PropOp42
 70
     1
102
RTVSPost2010Prop43
 90
        3
102
RTVSPost2010PropOp43
 70
     1
102
RTVSPost2010Prop44ColorIndex
 90
        5
102
RTVSPost2010Prop44ColorRGB
 90
      255
102
RTVSPost2010PropOp44
 70
     1
102
RTVSPost2010Prop45
280
     0
102
RTVSPost2010PropOp45
 70
     1
102
RTVSPost2010Prop46
 90
       50
102
RTVSPost2010PropOp46
 70
     1
102
RTVSPost2010Prop47
 90
       50
102
RTVSPost2010PropOp47
 70
     1
102
RTVSPost2010Prop48
 90
       50
102
RTVSPost2010PropOp48
 70
     1
102
RTVSPost2010Prop49
280
     0
102
RTVSPost2010PropOp49
 70
     1
102
RTVSPost2010Prop50
 90
       50
102
RTVSPost2010PropOp50
 70
     1
102
RTVSPost2010Prop51ColorIndex
 90
      256
102
RTVSPost2010Prop51ColorRGB
 90
-16777216
102
RTVSPost2010PropOp51
 70
     0
102
RTVSPost2010Prop52
140
1.0
102
RTVSPost2010PropOp52
 70
     0
102
RTVSPost2010Prop53
 90
        2
102
RTVSPost2010PropOp53
 70
     1
102
RTVSPost2010Prop54
  1
strokes_ogs.tif
102
RTVSPost2010PropOp54
 70
     1
102
RTVSPost2010Prop55
280
     0
102
RTVSPost2010PropOp55
 70
     1
102
RTVSPost2010Prop56
140
1.0
102
RTVSPost2010PropOp56
 70
     1
102
RTVSPost2010Prop57
140
1.0
102
RTVSPost2010PropOp57
 70
     1
  0
XRECORD
  5
5BB
102
{ACAD_REACTORS
330
5BA
102
}
330
5BA
100
AcDbXrecord
280
     1
102
RTVSPropertyOp0
 70
     1
102
RTVSPropertyOp1
 70
     1
102
RTVSPropertyOp2
 70
     1
102
RTVSPropertyOp3
 70
     1
102
RTVSPropertyOp4
 70
     1
102
RTVSPropertyOp5
 70
     1
102
RTVSPropertyOp6
 70
     1
102
RTVSPropertyOp7
 70
     1
102
RTVSPropertyOp8
 70
     1
102
RTVSPropertyOp9
 70
     1
102
RTVSPropertyOp10
 70
     1
102
RTVSPropertyOp11
 70
     1
102
RTVSPropertyOp12
 70
     1
102
RTVSPropertyOp13
 70
     1
102
RTVSPropertyOp14
 70
     1
102
RTVSPropertyOp15
 70
     1
102
RTVSPropertyOp16
 70
     1
102
RTVSPropertyOp17
 70
     1
102
RTVSPropertyOp18
 70
     1
102
RTVSPropertyOp19
 70
     1
102
RTVSPropertyOp20
 70
     1
102
RTVSPropertyOp21
 70
     1
102
RTVSPropertyOp22
 70
     1
102
RTVSPropertyOp23
 70
     1
102
RTVSPropertyOp24
 70
     1
102
RTVSPropertyOp25
 70
     1
102
RTVSPropertyOp26
 70
     1
102
RTVSPropertyOp27
 70
     1
102
RTVSPropertyOp28
 70
     1
102
RTVSPropertyOp29
 70
     1
102
RTVSPropertyOp30
 70
     1
102
RTVSPropertyOp31
 70
     1
102
RTVSPropertyOp32
 70
     1
102
RTVSPropertyOp33
 70
     1
102
RTVSPropertyOp34
 70
     1
102
RTVSPropertyOp35
 70
     1
102
RTVSPropertyOp36
 70
     1
102
RTVSPropertyOp37
 70
     1
102
RTVSPropertyOp38
 70
     1
102
RTVSPropertyOp39
 70
     1
102
RTVSPropertyOp40
 70
     1
102
RTVSPropertyOp41
 70
     1
102
RTVSPropertyOp42
 70
     1
102
RTVSPropertyOp43
 70
     1
102
RTVSPropertyOp44
 70
     1
102
RTVSPropertyOp45
 70
     1
102
RTVSPropertyOp46
 70
     1
102
RTVSPropertyOp47
 70
     1
102
RTVSPropertyOp48
 70
     1
102
RTVSPropertyOp49
 70
     1
102
RTVSPropertyOp50
 70
     1
102
RTVSPropertyOp51
 70
     0
102
RTVSPropertyOp52
 70
     0
102
RTVSPropertyOp53
 70
     1
102
RTVSPropertyOp54
 70
     1
102
RTVSPropertyOp55
 70
     1
102
RTVSPropertyOp56
 70
     1
102
RTVSPropertyOp57
 70
     1
102
RTVSPost2010Prop28
280
     0
102
RTVSPost2010PropOp28
 70
     1
102
RTVSPost2010Prop29
280
     1
102
RTVSPost2010PropOp29
 70
     1
102
RTVSPost2010Prop30
280
     1
102
RTVSPost2010PropOp30
 70
     1
102
RTVSPost2010Prop31
280
     0
102
RTVSPost2010PropOp31
 70
     1
102
RTVSPost2010Prop32
280
     0
102
RTVSPost2010PropOp32
 70
     1
102
RTVSPost2010Prop33
280
     0
102
RTVSPost2010PropOp33
 70
     1
102
RTVSPost2010Prop34
280
     0
102
RTVSPost2010PropOp34
 70
     1
102
RTVSPost2010Prop35
280
     0
102
RTVSPost2010PropOp35
 70
     1
102
RTVSPost2010Prop36
280
     0
102
RTVSPost2010PropOp36
 70
     1
102
RTVSPost2010Prop37
 90
       50
102
RTVSPost2010PropOp37
 70
     1
102
RTVSPost2010Prop38
140
0.0
102
RTVSPost2010PropOp38
 70
     1
102
RTVSPost2010Prop39
140
1.0
102
RTVSPost2010PropOp39
 70
     1
102
RTVSPost2010Prop40
 90
        0
102
RTVSPost2010PropOp40
 70
     1
102
RTVSPost2010Prop41ColorIndex
 90
       18
102
RTVSPost2010Prop41ColorRGB
 90
        0
102
RTVSPost2010PropOp41
 70
     1
102
RTVSPost2010Prop42
 90
       50
102
RTVSPost2010PropOp42
 70
     1
102
RTVSPost2010Prop43
 90
        3
102
RTVSPost2010PropOp43
 70
     1
102
RTVSPost2010Prop44ColorIndex
 90
        5
102
RTVSPost2010Prop44ColorRGB
 90
      255
102
RTVSPost2010PropOp44
 70
     1
102
RTVSPost2010Prop45
280
     0
102
RTVSPost2010PropOp45
 70
     1
102
RTVSPost2010Prop46
 90
       50
102
RTVSPost2010PropOp46
 70
     1
102
RTVSPost2010Prop47
 90
       50
102
RTVSPost2010PropOp47
 70
     1
102
RTVSPost2010Prop48
 90
       50
102
RTVSPost2010PropOp48
 70
     1
102
RTVSPost2010Prop49
280
     0
102
RTVSPost2010PropOp49
 70
     1
102
RTVSPost2010Prop50
 90
       50
102
RTVSPost2010PropOp50
 70
     1
102
RTVSPost2010Prop51ColorIndex
 90
      256
102
RTVSPost2010Prop51ColorRGB
 90
-16777216
102
RTVSPost2010PropOp51
 70
     0
102
RTVSPost2010Prop52
140
1.0
102
RTVSPost2010PropOp52
 70
     0
102
RTVSPost2010Prop53
 90
        2
102
RTVSPost2010PropOp53
 70
     1
102
RTVSPost2010Prop54
  1
strokes_ogs.tif
102
RTVSPost2010PropOp54
 70
     1
102
RTVSPost2010Prop55
280
     0
102
RTVSPost2010PropOp55
 70
     1
102
RTVSPost2010Prop56
140
1.0
102
RTVSPost2010PropOp56
 70
     1
102
RTVSPost2010Prop57
140
1.0
102
RTVSPost2010PropOp57
 70
     1
  0
XRECORD
  5
5CD
102
{ACAD_REACTORS
330
5CC
102
}
330
5CC
100
AcDbXrecord
280
     1
102
RTVSPropertyOp0
 70
     0
102
RTVSPropertyOp1
 70
     0
102
RTVSPropertyOp2
 70
     0
102
RTVSPropertyOp3
 70
     0
102
RTVSPropertyOp4
 70
     0
102
RTVSPropertyOp5
 70
     0
102
RTVSPropertyOp6
 70
     0
102
RTVSPropertyOp7
 70
     0
102
RTVSPropertyOp8
 70
     0
102
RTVSPropertyOp9
 70
     0
102
RTVSPropertyOp10
 70
     0
102
RTVSPropertyOp11
 70
     0
102
RTVSPropertyOp12
 70
     0
102
RTVSPropertyOp13
 70
     0
102
RTVSPropertyOp14
 70
     0
102
RTVSPropertyOp15
 70
     0
102
RTVSPropertyOp16
 70
     0
102
RTVSPropertyOp17
 70
     0
102
RTVSPropertyOp18
 70
     0
102
RTVSPropertyOp19
 70
     0
102
RTVSPropertyOp20
 70
     0
102
RTVSPropertyOp21
 70
     0
102
RTVSPropertyOp22
 70
     0
102
RTVSPropertyOp23
 70
     0
102
RTVSPropertyOp24
 70
     0
102
RTVSPropertyOp25
 70
     0
102
RTVSPropertyOp26
 70
     0
102
RTVSPropertyOp27
 70
     0
102
RTVSPropertyOp28
 70
     1
102
RTVSPropertyOp29
 70
     1
102
RTVSPropertyOp30
 70
     1
102
RTVSPropertyOp31
 70
     1
102
RTVSPropertyOp32
 70
     1
102
RTVSPropertyOp33
 70
     1
102
RTVSPropertyOp34
 70
     1
102
RTVSPropertyOp35
 70
     1
102
RTVSPropertyOp36
 70
     1
102
RTVSPropertyOp37
 70
     1
102
RTVSPropertyOp38
 70
     1
102
RTVSPropertyOp39
 70
     1
102
RTVSPropertyOp40
 70
     1
102
RTVSPropertyOp41
 70
     1
102
RTVSPropertyOp42
 70
     1
102
RTVSPropertyOp43
 70
     1
102
RTVSPropertyOp44
 70
     1
102
RTVSPropertyOp45
 70
     1
102
RTVSPropertyOp46
 70
     1
102
RTVSPropertyOp47
 70
     1
102
RTVSPropertyOp48
 70
     1
102
RTVSPropertyOp49
 70
     1
102
RTVSPropertyOp50
 70
     1
102
RTVSPropertyOp51
 70
     0
102
RTVSPropertyOp52
 70
     0
102
RTVSPropertyOp53
 70
     1
102
RTVSPropertyOp54
 70
     1
102
RTVSPropertyOp55
 70
     1
102
RTVSPropertyOp56
 70
     1
102
RTVSPropertyOp57
 70
     1
102
RTVSPost2010Prop28
280
     0
102
RTVSPost2010PropOp28
 70
     1
102
RTVSPost2010Prop29
280
     1
102
RTVSPost2010PropOp29
 70
     1
102
RTVSPost2010Prop30
280
     1
102
RTVSPost2010PropOp30
 70
     1
102
RTVSPost2010Prop31
280
     0
102
RTVSPost2010PropOp31
 70
     1
102
RTVSPost2010Prop32
280
     0
102
RTVSPost2010PropOp32
 70
     1
102
RTVSPost2010Prop33
280
     0
102
RTVSPost2010PropOp33
 70
     1
102
RTVSPost2010Prop34
280
     0
102
RTVSPost2010PropOp34
 70
     1
102
RTVSPost2010Prop35
280
     0
102
RTVSPost2010PropOp35
 70
     1
102
RTVSPost2010Prop36
280
     0
102
RTVSPost2010PropOp36
 70
     1
102
RTVSPost2010Prop37
 90
       50
102
RTVSPost2010PropOp37
 70
     1
102
RTVSPost2010Prop38
140
0.0
102
RTVSPost2010PropOp38
 70
     1
102
RTVSPost2010Prop39
140
1.0
102
RTVSPost2010PropOp39
 70
     1
102
RTVSPost2010Prop40
 90
        0
102
RTVSPost2010PropOp40
 70
     1
102
RTVSPost2010Prop41ColorIndex
 90
       18
102
RTVSPost2010Prop41ColorRGB
 90
        0
102
RTVSPost2010PropOp41
 70
     1
102
RTVSPost2010Prop42
 90
       50
102
RTVSPost2010PropOp42
 70
     1
102
RTVSPost2010Prop43
 90
        3
102
RTVSPost2010PropOp43
 70
     1
102
RTVSPost2010Prop44ColorIndex
 90
        5
102
RTVSPost2010Prop44ColorRGB
 90
      255
102
RTVSPost2010PropOp44
 70
     1
102
RTVSPost2010Prop45
280
     0
102
RTVSPost2010PropOp45
 70
     1
102
RTVSPost2010Prop46
 90
       50
102
RTVSPost2010PropOp46
 70
     1
102
RTVSPost2010Prop47
 90
       50
102
RTVSPost2010PropOp47
 70
     1
102
RTVSPost2010Prop48
 90
       50
102
RTVSPost2010PropOp48
 70
     1
102
RTVSPost2010Prop49
280
     0
102
RTVSPost2010PropOp49
 70
     1
102
RTVSPost2010Prop50
 90
       50
102
RTVSPost2010PropOp50
 70
     1
102
RTVSPost2010Prop51ColorIndex
 90
      256
102
RTVSPost2010Prop51ColorRGB
 90
-16777216
102
RTVSPost2010PropOp51
 70
     0
102
RTVSPost2010Prop52
140
1.0
102
RTVSPost2010PropOp52
 70
     0
102
RTVSPost2010Prop53
 90
        2
102
RTVSPost2010PropOp53
 70
     1
102
RTVSPost2010Prop54
  1
strokes_ogs.tif
102
RTVSPost2010PropOp54
 70
     1
102
RTVSPost2010Prop55
280
     0
102
RTVSPost2010PropOp55
 70
     1
102
RTVSPost2010Prop56
140
1.0
102
RTVSPost2010PropOp56
 70
     1
102
RTVSPost2010Prop57
140
1.0
102
RTVSPost2010PropOp57
 70
     1
  0
XRECORD
  5
5C7
102
{ACAD_REACTORS
330
5C6
102
}
330
5C6
100
AcDbXrecord
280
     1
102
RTVSPropertyOp0
 70
     1
102
RTVSPropertyOp1
 70
     1
102
RTVSPropertyOp2
 70
     1
102
RTVSPropertyOp3
 70
     1
102
RTVSPropertyOp4
 70
     1
102
RTVSPropertyOp5
 70
     1
102
RTVSPropertyOp6
 70
     1
102
RTVSPropertyOp7
 70
     1
102
RTVSPropertyOp8
 70
     1
102
RTVSPropertyOp9
 70
     1
102
RTVSPropertyOp10
 70
     1
102
RTVSPropertyOp11
 70
     1
102
RTVSPropertyOp12
 70
     1
102
RTVSPropertyOp13
 70
     1
102
RTVSPropertyOp14
 70
     1
102
RTVSPropertyOp15
 70
     1
102
RTVSPropertyOp16
 70
     1
102
RTVSPropertyOp17
 70
     1
102
RTVSPropertyOp18
 70
     1
102
RTVSPropertyOp19
 70
     1
102
RTVSPropertyOp20
 70
     1
102
RTVSPropertyOp21
 70
     1
102
RTVSPropertyOp22
 70
     1
102
RTVSPropertyOp23
 70
     1
102
RTVSPropertyOp24
 70
     1
102
RTVSPropertyOp25
 70
     1
102
RTVSPropertyOp26
 70
     1
102
RTVSPropertyOp27
 70
     1
102
RTVSPropertyOp28
 70
     1
102
RTVSPropertyOp29
 70
     1
102
RTVSPropertyOp30
 70
     1
102
RTVSPropertyOp31
 70
     1
102
RTVSPropertyOp32
 70
     1
102
RTVSPropertyOp33
 70
     1
102
RTVSPropertyOp34
 70
     1
102
RTVSPropertyOp35
 70
     1
102
RTVSPropertyOp36
 70
     1
102
RTVSPropertyOp37
 70
     1
102
RTVSPropertyOp38
 70
     1
102
RTVSPropertyOp39
 70
     1
102
RTVSPropertyOp40
 70
     1
102
RTVSPropertyOp41
 70
     1
102
RTVSPropertyOp42
 70
     1
102
RTVSPropertyOp43
 70
     1
102
RTVSPropertyOp44
 70
     1
102
RTVSPropertyOp45
 70
     1
102
RTVSPropertyOp46
 70
     1
102
RTVSPropertyOp47
 70
     1
102
RTVSPropertyOp48
 70
     1
102
RTVSPropertyOp49
 70
     1
102
RTVSPropertyOp50
 70
     1
102
RTVSPropertyOp51
 70
     0
102
RTVSPropertyOp52
 70
     0
102
RTVSPropertyOp53
 70
     1
102
RTVSPropertyOp54
 70
     1
102
RTVSPropertyOp55
 70
     1
102
RTVSPropertyOp56
 70
     1
102
RTVSPropertyOp57
 70
     1
102
RTVSPost2010Prop28
280
     0
102
RTVSPost2010PropOp28
 70
     1
102
RTVSPost2010Prop29
280
     1
102
RTVSPost2010PropOp29
 70
     1
102
RTVSPost2010Prop30
280
     1
102
RTVSPost2010PropOp30
 70
     1
102
RTVSPost2010Prop31
280
     0
102
RTVSPost2010PropOp31
 70
     1
102
RTVSPost2010Prop32
280
     0
102
RTVSPost2010PropOp32
 70
     1
102
RTVSPost2010Prop33
280
     0
102
RTVSPost2010PropOp33
 70
     1
102
RTVSPost2010Prop34
280
     0
102
RTVSPost2010PropOp34
 70
     1
102
RTVSPost2010Prop35
280
     0
102
RTVSPost2010PropOp35
 70
     1
102
RTVSPost2010Prop36
280
     0
102
RTVSPost2010PropOp36
 70
     1
102
RTVSPost2010Prop37
 90
       50
102
RTVSPost2010PropOp37
 70
     1
102
RTVSPost2010Prop38
140
0.0
102
RTVSPost2010PropOp38
 70
     1
102
RTVSPost2010Prop39
140
1.0
102
RTVSPost2010PropOp39
 70
     1
102
RTVSPost2010Prop40
 90
        0
102
RTVSPost2010PropOp40
 70
     1
102
RTVSPost2010Prop41ColorIndex
 90
       18
102
RTVSPost2010Prop41ColorRGB
 90
        0
102
RTVSPost2010PropOp41
 70
     1
102
RTVSPost2010Prop42
 90
       50
102
RTVSPost2010PropOp42
 70
     1
102
RTVSPost2010Prop43
 90
        3
102
RTVSPost2010PropOp43
 70
     1
102
RTVSPost2010Prop44ColorIndex
 90
        5
102
RTVSPost2010Prop44ColorRGB
 90
      255
102
RTVSPost2010PropOp44
 70
     1
102
RTVSPost2010Prop45
280
     0
102
RTVSPost2010PropOp45
 70
     1
102
RTVSPost2010Prop46
 90
       50
102
RTVSPost2010PropOp46
 70
     1
102
RTVSPost2010Prop47
 90
       50
102
RTVSPost2010PropOp47
 70
     1
102
RTVSPost2010Prop48
 90
       50
102
RTVSPost2010PropOp48
 70
     1
102
RTVSPost2010Prop49
280
     0
102
RTVSPost2010PropOp49
 70
     1
102
RTVSPost2010Prop50
 90
       50
102
RTVSPost2010PropOp50
 70
     1
102
RTVSPost2010Prop51ColorIndex
 90
      256
102
RTVSPost2010Prop51ColorRGB
 90
-16777216
102
RTVSPost2010PropOp51
 70
     0
102
RTVSPost2010Prop52
140
1.0
102
RTVSPost2010PropOp52
 70
     0
102
RTVSPost2010Prop53
 90
        2
102
RTVSPost2010PropOp53
 70
     1
102
RTVSPost2010Prop54
  1
strokes_ogs.tif
102
RTVSPost2010PropOp54
 70
     1
102
RTVSPost2010Prop55
280
     0
102
RTVSPost2010PropOp55
 70
     1
102
RTVSPost2010Prop56
140
1.0
102
RTVSPost2010PropOp56
 70
     1
102
RTVSPost2010Prop57
140
1.0
102
RTVSPost2010PropOp57
 70
     1
  0
XRECORD
  5
5CF
102
{ACAD_REACTORS
330
5CE
102
}
330
5CE
100
AcDbXrecord
280
     1
102
RTVSPropertyOp0
 70
     0
102
RTVSPropertyOp1
 70
     0
102
RTVSPropertyOp2
 70
     0
102
RTVSPropertyOp3
 70
     0
102
RTVSPropertyOp4
 70
     0
102
RTVSPropertyOp5
 70
     0
102
RTVSPropertyOp6
 70
     0
102
RTVSPropertyOp7
 70
     0
102
RTVSPropertyOp8
 70
     0
102
RTVSPropertyOp9
 70
     0
102
RTVSPropertyOp10
 70
     0
102
RTVSPropertyOp11
 70
     0
102
RTVSPropertyOp12
 70
     0
102
RTVSPropertyOp13
 70
     0
102
RTVSPropertyOp14
 70
     0
102
RTVSPropertyOp15
 70
     0
102
RTVSPropertyOp16
 70
     0
102
RTVSPropertyOp17
 70
     0
102
RTVSPropertyOp18
 70
     0
102
RTVSPropertyOp19
 70
     0
102
RTVSPropertyOp20
 70
     0
102
RTVSPropertyOp21
 70
     0
102
RTVSPropertyOp22
 70
     0
102
RTVSPropertyOp23
 70
     0
102
RTVSPropertyOp24
 70
     0
102
RTVSPropertyOp25
 70
     0
102
RTVSPropertyOp26
 70
     0
102
RTVSPropertyOp27
 70
     0
102
RTVSPropertyOp28
 70
     1
102
RTVSPropertyOp29
 70
     1
102
RTVSPropertyOp30
 70
     1
102
RTVSPropertyOp31
 70
     1
102
RTVSPropertyOp32
 70
     1
102
RTVSPropertyOp33
 70
     1
102
RTVSPropertyOp34
 70
     1
102
RTVSPropertyOp35
 70
     1
102
RTVSPropertyOp36
 70
     1
102
RTVSPropertyOp37
 70
     1
102
RTVSPropertyOp38
 70
     1
102
RTVSPropertyOp39
 70
     1
102
RTVSPropertyOp40
 70
     1
102
RTVSPropertyOp41
 70
     1
102
RTVSPropertyOp42
 70
     1
102
RTVSPropertyOp43
 70
     1
102
RTVSPropertyOp44
 70
     1
102
RTVSPropertyOp45
 70
     1
102
RTVSPropertyOp46
 70
     1
102
RTVSPropertyOp47
 70
     1
102
RTVSPropertyOp48
 70
     1
102
RTVSPropertyOp49
 70
     1
102
RTVSPropertyOp50
 70
     1
102
RTVSPropertyOp51
 70
     0
102
RTVSPropertyOp52
 70
     0
102
RTVSPropertyOp53
 70
     1
102
RTVSPropertyOp54
 70
     1
102
RTVSPropertyOp55
 70
     1
102
RTVSPropertyOp56
 70
     1
102
RTVSPropertyOp57
 70
     1
102
RTVSPost2010Prop28
280
     0
102
RTVSPost2010PropOp28
 70
     1
102
RTVSPost2010Prop29
280
     1
102
RTVSPost2010PropOp29
 70
     1
102
RTVSPost2010Prop30
280
     1
102
RTVSPost2010PropOp30
 70
     1
102
RTVSPost2010Prop31
280
     0
102
RTVSPost2010PropOp31
 70
     1
102
RTVSPost2010Prop32
280
     0
102
RTVSPost2010PropOp32
 70
     1
102
RTVSPost2010Prop33
280
     0
102
RTVSPost2010PropOp33
 70
     1
102
RTVSPost2010Prop34
280
     0
102
RTVSPost2010PropOp34
 70
     1
102
RTVSPost2010Prop35
280
     0
102
RTVSPost2010PropOp35
 70
     1
102
RTVSPost2010Prop36
280
     0
102
RTVSPost2010PropOp36
 70
     1
102
RTVSPost2010Prop37
 90
       50
102
RTVSPost2010PropOp37
 70
     1
102
RTVSPost2010Prop38
140
0.0
102
RTVSPost2010PropOp38
 70
     1
102
RTVSPost2010Prop39
140
1.0
102
RTVSPost2010PropOp39
 70
     1
102
RTVSPost2010Prop40
 90
        0
102
RTVSPost2010PropOp40
 70
     1
102
RTVSPost2010Prop41ColorIndex
 90
       18
102
RTVSPost2010Prop41ColorRGB
 90
        0
102
RTVSPost2010PropOp41
 70
     1
102
RTVSPost2010Prop42
 90
       50
102
RTVSPost2010PropOp42
 70
     1
102
RTVSPost2010Prop43
 90
        3
102
RTVSPost2010PropOp43
 70
     1
102
RTVSPost2010Prop44ColorIndex
 90
        5
102
RTVSPost2010Prop44ColorRGB
 90
      255
102
RTVSPost2010PropOp44
 70
     1
102
RTVSPost2010Prop45
280
     0
102
RTVSPost2010PropOp45
 70
     1
102
RTVSPost2010Prop46
 90
       50
102
RTVSPost2010PropOp46
 70
     1
102
RTVSPost2010Prop47
 90
       50
102
RTVSPost2010PropOp47
 70
     1
102
RTVSPost2010Prop48
 90
       50
102
RTVSPost2010PropOp48
 70
     1
102
RTVSPost2010Prop49
280
     0
102
RTVSPost2010PropOp49
 70
     1
102
RTVSPost2010Prop50
 90
       50
102
RTVSPost2010PropOp50
 70
     1
102
RTVSPost2010Prop51ColorIndex
 90
      256
102
RTVSPost2010Prop51ColorRGB
 90
-16777216
102
RTVSPost2010PropOp51
 70
     0
102
RTVSPost2010Prop52
140
1.0
102
RTVSPost2010PropOp52
 70
     0
102
RTVSPost2010Prop53
 90
        2
102
RTVSPost2010PropOp53
 70
     1
102
RTVSPost2010Prop54
  1
strokes_ogs.tif
102
RTVSPost2010PropOp54
 70
     1
102
RTVSPost2010Prop55
280
     0
102
RTVSPost2010PropOp55
 70
     1
102
RTVSPost2010Prop56
140
1.0
102
RTVSPost2010PropOp56
 70
     1
102
RTVSPost2010Prop57
140
1.0
102
RTVSPost2010PropOp57
 70
     1
  0
XRECORD
  5
5AD
102
{ACAD_REACTORS
330
5AC
102
}
330
5AC
100
AcDbXrecord
280
     1
102
RTVSPropertyOp0
 70
     1
102
RTVSPropertyOp1
 70
     1
102
RTVSPropertyOp2
 70
     1
102
RTVSPropertyOp3
 70
     1
102
RTVSPropertyOp4
 70
     1
102
RTVSPropertyOp5
 70
     1
102
RTVSPropertyOp6
 70
     1
102
RTVSPropertyOp7
 70
     1
102
RTVSPropertyOp8
 70
     1
102
RTVSPropertyOp9
 70
     1
102
RTVSPropertyOp10
 70
     1
102
RTVSPropertyOp11
 70
     1
102
RTVSPropertyOp12
 70
     1
102
RTVSPropertyOp13
 70
     1
102
RTVSPropertyOp14
 70
     1
102
RTVSPropertyOp15
 70
     1
102
RTVSPropertyOp16
 70
     1
102
RTVSPropertyOp17
 70
     1
102
RTVSPropertyOp18
 70
     1
102
RTVSPropertyOp19
 70
     1
102
RTVSPropertyOp20
 70
     1
102
RTVSPropertyOp21
 70
     1
102
RTVSPropertyOp22
 70
     1
102
RTVSPropertyOp23
 70
     1
102
RTVSPropertyOp24
 70
     1
102
RTVSPropertyOp25
 70
     1
102
RTVSPropertyOp26
 70
     1
102
RTVSPropertyOp27
 70
     1
102
RTVSPropertyOp28
 70
     1
102
RTVSPropertyOp29
 70
     1
102
RTVSPropertyOp30
 70
     1
102
RTVSPropertyOp31
 70
     1
102
RTVSPropertyOp32
 70
     1
102
RTVSPropertyOp33
 70
     1
102
RTVSPropertyOp34
 70
     1
102
RTVSPropertyOp35
 70
     1
102
RTVSPropertyOp36
 70
     1
102
RTVSPropertyOp37
 70
     1
102
RTVSPropertyOp38
 70
     1
102
RTVSPropertyOp39
 70
     1
102
RTVSPropertyOp40
 70
     1
102
RTVSPropertyOp41
 70
     1
102
RTVSPropertyOp42
 70
     1
102
RTVSPropertyOp43
 70
     1
102
RTVSPropertyOp44
 70
     1
102
RTVSPropertyOp45
 70
     1
102
RTVSPropertyOp46
 70
     1
102
RTVSPropertyOp47
 70
     1
102
RTVSPropertyOp48
 70
     1
102
RTVSPropertyOp49
 70
     1
102
RTVSPropertyOp50
 70
     1
102
RTVSPropertyOp51
 70
     0
102
RTVSPropertyOp52
 70
     0
102
RTVSPropertyOp53
 70
     1
102
RTVSPropertyOp54
 70
     1
102
RTVSPropertyOp55
 70
     1
102
RTVSPropertyOp56
 70
     1
102
RTVSPropertyOp57
 70
     1
102
RTVSPost2010Prop28
280
     0
102
RTVSPost2010PropOp28
 70
     1
102
RTVSPost2010Prop29
280
     1
102
RTVSPost2010PropOp29
 70
     1
102
RTVSPost2010Prop30
280
     1
102
RTVSPost2010PropOp30
 70
     1
102
RTVSPost2010Prop31
280
     0
102
RTVSPost2010PropOp31
 70
     1
102
RTVSPost2010Prop32
280
     0
102
RTVSPost2010PropOp32
 70
     1
102
RTVSPost2010Prop33
280
     0
102
RTVSPost2010PropOp33
 70
     1
102
RTVSPost2010Prop34
280
     0
102
RTVSPost2010PropOp34
 70
     1
102
RTVSPost2010Prop35
280
     0
102
RTVSPost2010PropOp35
 70
     1
102
RTVSPost2010Prop36
280
     0
102
RTVSPost2010PropOp36
 70
     1
102
RTVSPost2010Prop37
 90
       50
102
RTVSPost2010PropOp37
 70
     1
102
RTVSPost2010Prop38
140
0.0
102
RTVSPost2010PropOp38
 70
     1
102
RTVSPost2010Prop39
140
1.0
102
RTVSPost2010PropOp39
 70
     1
102
RTVSPost2010Prop40
 90
        0
102
RTVSPost2010PropOp40
 70
     1
102
RTVSPost2010Prop41ColorIndex
 90
       18
102
RTVSPost2010Prop41ColorRGB
 90
        0
102
RTVSPost2010PropOp41
 70
     1
102
RTVSPost2010Prop42
 90
       50
102
RTVSPost2010PropOp42
 70
     1
102
RTVSPost2010Prop43
 90
        3
102
RTVSPost2010PropOp43
 70
     1
102
RTVSPost2010Prop44ColorIndex
 90
        5
102
RTVSPost2010Prop44ColorRGB
 90
      255
102
RTVSPost2010PropOp44
 70
     1
102
RTVSPost2010Prop45
280
     0
102
RTVSPost2010PropOp45
 70
     1
102
RTVSPost2010Prop46
 90
       50
102
RTVSPost2010PropOp46
 70
     1
102
RTVSPost2010Prop47
 90
       50
102
RTVSPost2010PropOp47
 70
     1
102
RTVSPost2010Prop48
 90
       50
102
RTVSPost2010PropOp48
 70
     1
102
RTVSPost2010Prop49
280
     0
102
RTVSPost2010PropOp49
 70
     1
102
RTVSPost2010Prop50
 90
       50
102
RTVSPost2010PropOp50
 70
     1
102
RTVSPost2010Prop51ColorIndex
 90
      256
102
RTVSPost2010Prop51ColorRGB
 90
-16777216
102
RTVSPost2010PropOp51
 70
     0
102
RTVSPost2010Prop52
140
1.0
102
RTVSPost2010PropOp52
 70
     0
102
RTVSPost2010Prop53
 90
        2
102
RTVSPost2010PropOp53
 70
     1
102
RTVSPost2010Prop54
  1
strokes_ogs.tif
102
RTVSPost2010PropOp54
 70
     1
102
RTVSPost2010Prop55
280
     0
102
RTVSPost2010PropOp55
 70
     1
102
RTVSPost2010Prop56
140
1.0
102
RTVSPost2010PropOp56
 70
     1
102
RTVSPost2010Prop57
140
1.0
102
RTVSPost2010PropOp57
 70
     1
  0
XRECORD
  5
5DB
102
{ACAD_REACTORS
330
5DA
102
}
330
5DA
100
AcDbXrecord
280
     1
102
RTVSPropertyOp0
 70
     1
102
RTVSPropertyOp1
 70
     1
102
RTVSPropertyOp2
 70
     1
102
RTVSPropertyOp3
 70
     1
102
RTVSPropertyOp4
 70
     1
102
RTVSPropertyOp5
 70
     1
102
RTVSPropertyOp6
 70
     1
102
RTVSPropertyOp7
 70
     1
102
RTVSPropertyOp8
 70
     1
102
RTVSPropertyOp9
 70
     1
102
RTVSPropertyOp10
 70
     1
102
RTVSPropertyOp11
 70
     1
102
RTVSPropertyOp12
 70
     1
102
RTVSPropertyOp13
 70
     1
102
RTVSPropertyOp14
 70
     1
102
RTVSPropertyOp15
 70
     1
102
RTVSPropertyOp16
 70
     1
102
RTVSPropertyOp17
 70
     1
102
RTVSPropertyOp18
 70
     1
102
RTVSPropertyOp19
 70
     1
102
RTVSPropertyOp20
 70
     1
102
RTVSPropertyOp21
 70
     1
102
RTVSPropertyOp22
 70
     1
102
RTVSPropertyOp23
 70
     1
102
RTVSPropertyOp24
 70
     1
102
RTVSPropertyOp25
 70
     1
102
RTVSPropertyOp26
 70
     1
102
RTVSPropertyOp27
 70
     1
102
RTVSPropertyOp28
 70
     1
102
RTVSPropertyOp29
 70
     1
102
RTVSPropertyOp30
 70
     1
102
RTVSPropertyOp31
 70
     1
102
RTVSPropertyOp32
 70
     1
102
RTVSPropertyOp33
 70
     1
102
RTVSPropertyOp34
 70
     1
102
RTVSPropertyOp35
 70
     1
102
RTVSPropertyOp36
 70
     1
102
RTVSPropertyOp37
 70
     1
102
RTVSPropertyOp38
 70
     1
102
RTVSPropertyOp39
 70
     1
102
RTVSPropertyOp40
 70
     1
102
RTVSPropertyOp41
 70
     1
102
RTVSPropertyOp42
 70
     1
102
RTVSPropertyOp43
 70
     1
102
RTVSPropertyOp44
 70
     1
102
RTVSPropertyOp45
 70
     1
102
RTVSPropertyOp46
 70
     1
102
RTVSPropertyOp47
 70
     1
102
RTVSPropertyOp48
 70
     1
102
RTVSPropertyOp49
 70
     1
102
RTVSPropertyOp50
 70
     1
102
RTVSPropertyOp51
 70
     0
102
RTVSPropertyOp52
 70
     0
102
RTVSPropertyOp53
 70
     1
102
RTVSPropertyOp54
 70
     1
102
RTVSPropertyOp55
 70
     1
102
RTVSPropertyOp56
 70
     1
102
RTVSPropertyOp57
 70
     1
102
RTVSPost2010Prop28
280
     0
102
RTVSPost2010PropOp28
 70
     1
102
RTVSPost2010Prop29
280
     1
102
RTVSPost2010PropOp29
 70
     1
102
RTVSPost2010Prop30
280
     1
102
RTVSPost2010PropOp30
 70
     1
102
RTVSPost2010Prop31
280
     0
102
RTVSPost2010PropOp31
 70
     1
102
RTVSPost2010Prop32
280
     0
102
RTVSPost2010PropOp32
 70
     1
102
RTVSPost2010Prop33
280
     0
102
RTVSPost2010PropOp33
 70
     1
102
RTVSPost2010Prop34
280
     0
102
RTVSPost2010PropOp34
 70
     1
102
RTVSPost2010Prop35
280
     0
102
RTVSPost2010PropOp35
 70
     1
102
RTVSPost2010Prop36
280
     0
102
RTVSPost2010PropOp36
 70
     1
102
RTVSPost2010Prop37
 90
       50
102
RTVSPost2010PropOp37
 70
     1
102
RTVSPost2010Prop38
140
0.0
102
RTVSPost2010PropOp38
 70
     1
102
RTVSPost2010Prop39
140
1.0
102
RTVSPost2010PropOp39
 70
     1
102
RTVSPost2010Prop40
 90
        0
102
RTVSPost2010PropOp40
 70
     1
102
RTVSPost2010Prop41ColorIndex
 90
       18
102
RTVSPost2010Prop41ColorRGB
 90
        0
102
RTVSPost2010PropOp41
 70
     1
102
RTVSPost2010Prop42
 90
       50
102
RTVSPost2010PropOp42
 70
     1
102
RTVSPost2010Prop43
 90
        3
102
RTVSPost2010PropOp43
 70
     1
102
RTVSPost2010Prop44ColorIndex
 90
        5
102
RTVSPost2010Prop44ColorRGB
 90
      255
102
RTVSPost2010PropOp44
 70
     1
102
RTVSPost2010Prop45
280
     0
102
RTVSPost2010PropOp45
 70
     1
102
RTVSPost2010Prop46
 90
       50
102
RTVSPost2010PropOp46
 70
     1
102
RTVSPost2010Prop47
 90
       50
102
RTVSPost2010PropOp47
 70
     1
102
RTVSPost2010Prop48
 90
       50
102
RTVSPost2010PropOp48
 70
     1
102
RTVSPost2010Prop49
280
     0
102
RTVSPost2010PropOp49
 70
     1
102
RTVSPost2010Prop50
 90
       50
102
RTVSPost2010PropOp50
 70
     1
102
RTVSPost2010Prop51ColorIndex
 90
      256
102
RTVSPost2010Prop51ColorRGB
 90
-16777216
102
RTVSPost2010PropOp51
 70
     0
102
RTVSPost2010Prop52
140
1.0
102
RTVSPost2010PropOp52
 70
     0
102
RTVSPost2010Prop53
 90
        2
102
RTVSPost2010PropOp53
 70
     1
102
RTVSPost2010Prop54
  1
strokes_ogs.tif
102
RTVSPost2010PropOp54
 70
     1
102
RTVSPost2010Prop55
280
     0
102
RTVSPost2010PropOp55
 70
     1
102
RTVSPost2010Prop56
140
1.0
102
RTVSPost2010PropOp56
 70
     1
102
RTVSPost2010Prop57
140
1.0
102
RTVSPost2010PropOp57
 70
     1
  0
XRECORD
  5
5D9
102
{ACAD_REACTORS
330
5D8
102
}
330
5D8
100
AcDbXrecord
280
     1
102
RTVSPropertyOp0
 70
     1
102
RTVSPropertyOp1
 70
     1
102
RTVSPropertyOp2
 70
     1
102
RTVSPropertyOp3
 70
     1
102
RTVSPropertyOp4
 70
     1
102
RTVSPropertyOp5
 70
     1
102
RTVSPropertyOp6
 70
     1
102
RTVSPropertyOp7
 70
     1
102
RTVSPropertyOp8
 70
     1
102
RTVSPropertyOp9
 70
     1
102
RTVSPropertyOp10
 70
     1
102
RTVSPropertyOp11
 70
     1
102
RTVSPropertyOp12
 70
     1
102
RTVSPropertyOp13
 70
     1
102
RTVSPropertyOp14
 70
     1
102
RTVSPropertyOp15
 70
     1
102
RTVSPropertyOp16
 70
     1
102
RTVSPropertyOp17
 70
     1
102
RTVSPropertyOp18
 70
     1
102
RTVSPropertyOp19
 70
     1
102
RTVSPropertyOp20
 70
     1
102
RTVSPropertyOp21
 70
     1
102
RTVSPropertyOp22
 70
     1
102
RTVSPropertyOp23
 70
     1
102
RTVSPropertyOp24
 70
     1
102
RTVSPropertyOp25
 70
     1
102
RTVSPropertyOp26
 70
     1
102
RTVSPropertyOp27
 70
     1
102
RTVSPropertyOp28
 70
     1
102
RTVSPropertyOp29
 70
     1
102
RTVSPropertyOp30
 70
     1
102
RTVSPropertyOp31
 70
     1
102
RTVSPropertyOp32
 70
     1
102
RTVSPropertyOp33
 70
     1
102
RTVSPropertyOp34
 70
     1
102
RTVSPropertyOp35
 70
     1
102
RTVSPropertyOp36
 70
     1
102
RTVSPropertyOp37
 70
     1
102
RTVSPropertyOp38
 70
     1
102
RTVSPropertyOp39
 70
     1
102
RTVSPropertyOp40
 70
     1
102
RTVSPropertyOp41
 70
     1
102
RTVSPropertyOp42
 70
     1
102
RTVSPropertyOp43
 70
     1
102
RTVSPropertyOp44
 70
     1
102
RTVSPropertyOp45
 70
     1
102
RTVSPropertyOp46
 70
     1
102
RTVSPropertyOp47
 70
     1
102
RTVSPropertyOp48
 70
     1
102
RTVSPropertyOp49
 70
     1
102
RTVSPropertyOp50
 70
     1
102
RTVSPropertyOp51
 70
     0
102
RTVSPropertyOp52
 70
     0
102
RTVSPropertyOp53
 70
     1
102
RTVSPropertyOp54
 70
     1
102
RTVSPropertyOp55
 70
     1
102
RTVSPropertyOp56
 70
     1
102
RTVSPropertyOp57
 70
     1
102
RTVSPost2010Prop28
280
     0
102
RTVSPost2010PropOp28
 70
     1
102
RTVSPost2010Prop29
280
     1
102
RTVSPost2010PropOp29
 70
     1
102
RTVSPost2010Prop30
280
     1
102
RTVSPost2010PropOp30
 70
     1
102
RTVSPost2010Prop31
280
     0
102
RTVSPost2010PropOp31
 70
     1
102
RTVSPost2010Prop32
280
     0
102
RTVSPost2010PropOp32
 70
     1
102
RTVSPost2010Prop33
280
     0
102
RTVSPost2010PropOp33
 70
     1
102
RTVSPost2010Prop34
280
     0
102
RTVSPost2010PropOp34
 70
     1
102
RTVSPost2010Prop35
280
     0
102
RTVSPost2010PropOp35
 70
     1
102
RTVSPost2010Prop36
280
     0
102
RTVSPost2010PropOp36
 70
     1
102
RTVSPost2010Prop37
 90
       50
102
RTVSPost2010PropOp37
 70
     1
102
RTVSPost2010Prop38
140
0.0
102
RTVSPost2010PropOp38
 70
     1
102
RTVSPost2010Prop39
140
1.0
102
RTVSPost2010PropOp39
 70
     1
102
RTVSPost2010Prop40
 90
        0
102
RTVSPost2010PropOp40
 70
     1
102
RTVSPost2010Prop41ColorIndex
 90
       18
102
RTVSPost2010Prop41ColorRGB
 90
        0
102
RTVSPost2010PropOp41
 70
     1
102
RTVSPost2010Prop42
 90
       50
102
RTVSPost2010PropOp42
 70
     1
102
RTVSPost2010Prop43
 90
        3
102
RTVSPost2010PropOp43
 70
     1
102
RTVSPost2010Prop44ColorIndex
 90
        5
102
RTVSPost2010Prop44ColorRGB
 90
      255
102
RTVSPost2010PropOp44
 70
     1
102
RTVSPost2010Prop45
280
     0
102
RTVSPost2010PropOp45
 70
     1
102
RTVSPost2010Prop46
 90
       50
102
RTVSPost2010PropOp46
 70
     1
102
RTVSPost2010Prop47
 90
       50
102
RTVSPost2010PropOp47
 70
     1
102
RTVSPost2010Prop48
 90
       50
102
RTVSPost2010PropOp48
 70
     1
102
RTVSPost2010Prop49
280
     0
102
RTVSPost2010PropOp49
 70
     1
102
RTVSPost2010Prop50
 90
       50
102
RTVSPost2010PropOp50
 70
     1
102
RTVSPost2010Prop51ColorIndex
 90
      256
102
RTVSPost2010Prop51ColorRGB
 90
-16777216
102
RTVSPost2010PropOp51
 70
     0
102
RTVSPost2010Prop52
140
1.0
102
RTVSPost2010PropOp52
 70
     0
102
RTVSPost2010Prop53
 90
        2
102
RTVSPost2010PropOp53
 70
     1
102
RTVSPost2010Prop54
  1
strokes_ogs.tif
102
RTVSPost2010PropOp54
 70
     1
102
RTVSPost2010Prop55
280
     0
102
RTVSPost2010PropOp55
 70
     1
102
RTVSPost2010Prop56
140
1.0
102
RTVSPost2010PropOp56
 70
     1
102
RTVSPost2010Prop57
140
1.0
102
RTVSPost2010PropOp57
 70
     1
  0
XRECORD
  5
5D3
102
{ACAD_REACTORS
330
5D2
102
}
330
5D2
100
AcDbXrecord
280
     1
102
RTVSPropertyOp0
 70
     1
102
RTVSPropertyOp1
 70
     1
102
RTVSPropertyOp2
 70
     1
102
RTVSPropertyOp3
 70
     1
102
RTVSPropertyOp4
 70
     1
102
RTVSPropertyOp5
 70
     1
102
RTVSPropertyOp6
 70
     1
102
RTVSPropertyOp7
 70
     1
102
RTVSPropertyOp8
 70
     1
102
RTVSPropertyOp9
 70
     1
102
RTVSPropertyOp10
 70
     1
102
RTVSPropertyOp11
 70
     1
102
RTVSPropertyOp12
 70
     1
102
RTVSPropertyOp13
 70
     1
102
RTVSPropertyOp14
 70
     1
102
RTVSPropertyOp15
 70
     1
102
RTVSPropertyOp16
 70
     1
102
RTVSPropertyOp17
 70
     1
102
RTVSPropertyOp18
 70
     1
102
RTVSPropertyOp19
 70
     1
102
RTVSPropertyOp20
 70
     1
102
RTVSPropertyOp21
 70
     1
102
RTVSPropertyOp22
 70
     1
102
RTVSPropertyOp23
 70
     1
102
RTVSPropertyOp24
 70
     1
102
RTVSPropertyOp25
 70
     1
102
RTVSPropertyOp26
 70
     1
102
RTVSPropertyOp27
 70
     1
102
RTVSPropertyOp28
 70
     1
102
RTVSPropertyOp29
 70
     1
102
RTVSPropertyOp30
 70
     1
102
RTVSPropertyOp31
 70
     1
102
RTVSPropertyOp32
 70
     1
102
RTVSPropertyOp33
 70
     1
102
RTVSPropertyOp34
 70
     1
102
RTVSPropertyOp35
 70
     1
102
RTVSPropertyOp36
 70
     1
102
RTVSPropertyOp37
 70
     1
102
RTVSPropertyOp38
 70
     1
102
RTVSPropertyOp39
 70
     1
102
RTVSPropertyOp40
 70
     1
102
RTVSPropertyOp41
 70
     1
102
RTVSPropertyOp42
 70
     1
102
RTVSPropertyOp43
 70
     1
102
RTVSPropertyOp44
 70
     1
102
RTVSPropertyOp45
 70
     1
102
RTVSPropertyOp46
 70
     1
102
RTVSPropertyOp47
 70
     1
102
RTVSPropertyOp48
 70
     1
102
RTVSPropertyOp49
 70
     1
102
RTVSPropertyOp50
 70
     1
102
RTVSPropertyOp51
 70
     0
102
RTVSPropertyOp52
 70
     0
102
RTVSPropertyOp53
 70
     1
102
RTVSPropertyOp54
 70
     1
102
RTVSPropertyOp55
 70
     1
102
RTVSPropertyOp56
 70
     1
102
RTVSPropertyOp57
 70
     1
102
RTVSPost2010Prop28
280
     0
102
RTVSPost2010PropOp28
 70
     1
102
RTVSPost2010Prop29
280
     1
102
RTVSPost2010PropOp29
 70
     1
102
RTVSPost2010Prop30
280
     1
102
RTVSPost2010PropOp30
 70
     1
102
RTVSPost2010Prop31
280
     0
102
RTVSPost2010PropOp31
 70
     1
102
RTVSPost2010Prop32
280
     0
102
RTVSPost2010PropOp32
 70
     1
102
RTVSPost2010Prop33
280
     0
102
RTVSPost2010PropOp33
 70
     1
102
RTVSPost2010Prop34
280
     0
102
RTVSPost2010PropOp34
 70
     1
102
RTVSPost2010Prop35
280
     0
102
RTVSPost2010PropOp35
 70
     1
102
RTVSPost2010Prop36
280
     0
102
RTVSPost2010PropOp36
 70
     1
102
RTVSPost2010Prop37
 90
       50
102
RTVSPost2010PropOp37
 70
     1
102
RTVSPost2010Prop38
140
0.0
102
RTVSPost2010PropOp38
 70
     1
102
RTVSPost2010Prop39
140
1.0
102
RTVSPost2010PropOp39
 70
     1
102
RTVSPost2010Prop40
 90
        0
102
RTVSPost2010PropOp40
 70
     1
102
RTVSPost2010Prop41ColorIndex
 90
       18
102
RTVSPost2010Prop41ColorRGB
 90
        0
102
RTVSPost2010PropOp41
 70
     1
102
RTVSPost2010Prop42
 90
       50
102
RTVSPost2010PropOp42
 70
     1
102
RTVSPost2010Prop43
 90
        3
102
RTVSPost2010PropOp43
 70
     1
102
RTVSPost2010Prop44ColorIndex
 90
        5
102
RTVSPost2010Prop44ColorRGB
 90
      255
102
RTVSPost2010PropOp44
 70
     1
102
RTVSPost2010Prop45
280
     0
102
RTVSPost2010PropOp45
 70
     1
102
RTVSPost2010Prop46
 90
       50
102
RTVSPost2010PropOp46
 70
     1
102
RTVSPost2010Prop47
 90
       50
102
RTVSPost2010PropOp47
 70
     1
102
RTVSPost2010Prop48
 90
       50
102
RTVSPost2010PropOp48
 70
     1
102
RTVSPost2010Prop49
280
     0
102
RTVSPost2010PropOp49
 70
     1
102
RTVSPost2010Prop50
 90
       50
102
RTVSPost2010PropOp50
 70
     1
102
RTVSPost2010Prop51ColorIndex
 90
      256
102
RTVSPost2010Prop51ColorRGB
 90
-16777216
102
RTVSPost2010PropOp51
 70
     0
102
RTVSPost2010Prop52
140
1.0
102
RTVSPost2010PropOp52
 70
     0
102
RTVSPost2010Prop53
 90
        2
102
RTVSPost2010PropOp53
 70
     1
102
RTVSPost2010Prop54
  1
strokes_ogs.tif
102
RTVSPost2010PropOp54
 70
     1
102
RTVSPost2010Prop55
280
     0
102
RTVSPost2010PropOp55
 70
     1
102
RTVSPost2010Prop56
140
1.0
102
RTVSPost2010PropOp56
 70
     1
102
RTVSPost2010Prop57
140
1.0
102
RTVSPost2010PropOp57
 70
     1
  0
XRECORD
  5
5D5
102
{ACAD_REACTORS
330
5D4
102
}
330
5D4
100
AcDbXrecord
280
     1
102
RTVSPropertyOp0
 70
     1
102
RTVSPropertyOp1
 70
     1
102
RTVSPropertyOp2
 70
     1
102
RTVSPropertyOp3
 70
     1
102
RTVSPropertyOp4
 70
     1
102
RTVSPropertyOp5
 70
     1
102
RTVSPropertyOp6
 70
     1
102
RTVSPropertyOp7
 70
     1
102
RTVSPropertyOp8
 70
     1
102
RTVSPropertyOp9
 70
     1
102
RTVSPropertyOp10
 70
     1
102
RTVSPropertyOp11
 70
     1
102
RTVSPropertyOp12
 70
     1
102
RTVSPropertyOp13
 70
     1
102
RTVSPropertyOp14
 70
     1
102
RTVSPropertyOp15
 70
     1
102
RTVSPropertyOp16
 70
     1
102
RTVSPropertyOp17
 70
     1
102
RTVSPropertyOp18
 70
     1
102
RTVSPropertyOp19
 70
     1
102
RTVSPropertyOp20
 70
     1
102
RTVSPropertyOp21
 70
     1
102
RTVSPropertyOp22
 70
     1
102
RTVSPropertyOp23
 70
     1
102
RTVSPropertyOp24
 70
     1
102
RTVSPropertyOp25
 70
     1
102
RTVSPropertyOp26
 70
     1
102
RTVSPropertyOp27
 70
     1
102
RTVSPropertyOp28
 70
     1
102
RTVSPropertyOp29
 70
     1
102
RTVSPropertyOp30
 70
     1
102
RTVSPropertyOp31
 70
     1
102
RTVSPropertyOp32
 70
     1
102
RTVSPropertyOp33
 70
     1
102
RTVSPropertyOp34
 70
     1
102
RTVSPropertyOp35
 70
     1
102
RTVSPropertyOp36
 70
     1
102
RTVSPropertyOp37
 70
     1
102
RTVSPropertyOp38
 70
     1
102
RTVSPropertyOp39
 70
     1
102
RTVSPropertyOp40
 70
     1
102
RTVSPropertyOp41
 70
     1
102
RTVSPropertyOp42
 70
     1
102
RTVSPropertyOp43
 70
     1
102
RTVSPropertyOp44
 70
     1
102
RTVSPropertyOp45
 70
     1
102
RTVSPropertyOp46
 70
     1
102
RTVSPropertyOp47
 70
     1
102
RTVSPropertyOp48
 70
     1
102
RTVSPropertyOp49
 70
     1
102
RTVSPropertyOp50
 70
     1
102
RTVSPropertyOp51
 70
     0
102
RTVSPropertyOp52
 70
     0
102
RTVSPropertyOp53
 70
     1
102
RTVSPropertyOp54
 70
     1
102
RTVSPropertyOp55
 70
     1
102
RTVSPropertyOp56
 70
     1
102
RTVSPropertyOp57
 70
     1
102
RTVSPost2010Prop28
280
     0
102
RTVSPost2010PropOp28
 70
     1
102
RTVSPost2010Prop29
280
     1
102
RTVSPost2010PropOp29
 70
     1
102
RTVSPost2010Prop30
280
     1
102
RTVSPost2010PropOp30
 70
     1
102
RTVSPost2010Prop31
280
     0
102
RTVSPost2010PropOp31
 70
     1
102
RTVSPost2010Prop32
280
     0
102
RTVSPost2010PropOp32
 70
     1
102
RTVSPost2010Prop33
280
     0
102
RTVSPost2010PropOp33
 70
     1
102
RTVSPost2010Prop34
280
     0
102
RTVSPost2010PropOp34
 70
     1
102
RTVSPost2010Prop35
280
     0
102
RTVSPost2010PropOp35
 70
     1
102
RTVSPost2010Prop36
280
     0
102
RTVSPost2010PropOp36
 70
     1
102
RTVSPost2010Prop37
 90
       50
102
RTVSPost2010PropOp37
 70
     1
102
RTVSPost2010Prop38
140
0.0
102
RTVSPost2010PropOp38
 70
     1
102
RTVSPost2010Prop39
140
1.0
102
RTVSPost2010PropOp39
 70
     1
102
RTVSPost2010Prop40
 90
        0
102
RTVSPost2010PropOp40
 70
     1
102
RTVSPost2010Prop41ColorIndex
 90
       18
102
RTVSPost2010Prop41ColorRGB
 90
        0
102
RTVSPost2010PropOp41
 70
     1
102
RTVSPost2010Prop42
 90
       50
102
RTVSPost2010PropOp42
 70
     1
102
RTVSPost2010Prop43
 90
        3
102
RTVSPost2010PropOp43
 70
     1
102
RTVSPost2010Prop44ColorIndex
 90
        5
102
RTVSPost2010Prop44ColorRGB
 90
      255
102
RTVSPost2010PropOp44
 70
     1
102
RTVSPost2010Prop45
280
     0
102
RTVSPost2010PropOp45
 70
     1
102
RTVSPost2010Prop46
 90
       50
102
RTVSPost2010PropOp46
 70
     1
102
RTVSPost2010Prop47
 90
       50
102
RTVSPost2010PropOp47
 70
     1
102
RTVSPost2010Prop48
 90
       50
102
RTVSPost2010PropOp48
 70
     1
102
RTVSPost2010Prop49
280
     0
102
RTVSPost2010PropOp49
 70
     1
102
RTVSPost2010Prop50
 90
       50
102
RTVSPost2010PropOp50
 70
     1
102
RTVSPost2010Prop51ColorIndex
 90
      256
102
RTVSPost2010Prop51ColorRGB
 90
-16777216
102
RTVSPost2010PropOp51
 70
     0
102
RTVSPost2010Prop52
140
1.0
102
RTVSPost2010PropOp52
 70
     0
102
RTVSPost2010Prop53
 90
        2
102
RTVSPost2010PropOp53
 70
     1
102
RTVSPost2010Prop54
  1
strokes_ogs.tif
102
RTVSPost2010PropOp54
 70
     1
102
RTVSPost2010Prop55
280
     0
102
RTVSPost2010PropOp55
 70
     1
102
RTVSPost2010Prop56
140
1.0
102
RTVSPost2010PropOp56
 70
     1
102
RTVSPost2010Prop57
140
1.0
102
RTVSPost2010PropOp57
 70
     1
  0
XRECORD
  5
5C5
102
{ACAD_REACTORS
330
5C4
102
}
330
5C4
100
AcDbXrecord
280
     1
102
RTVSPropertyOp0
 70
     1
102
RTVSPropertyOp1
 70
     1
102
RTVSPropertyOp2
 70
     1
102
RTVSPropertyOp3
 70
     1
102
RTVSPropertyOp4
 70
     1
102
RTVSPropertyOp5
 70
     1
102
RTVSPropertyOp6
 70
     1
102
RTVSPropertyOp7
 70
     1
102
RTVSPropertyOp8
 70
     1
102
RTVSPropertyOp9
 70
     1
102
RTVSPropertyOp10
 70
     1
102
RTVSPropertyOp11
 70
     1
102
RTVSPropertyOp12
 70
     1
102
RTVSPropertyOp13
 70
     1
102
RTVSPropertyOp14
 70
     1
102
RTVSPropertyOp15
 70
     1
102
RTVSPropertyOp16
 70
     1
102
RTVSPropertyOp17
 70
     1
102
RTVSPropertyOp18
 70
     1
102
RTVSPropertyOp19
 70
     1
102
RTVSPropertyOp20
 70
     1
102
RTVSPropertyOp21
 70
     1
102
RTVSPropertyOp22
 70
     1
102
RTVSPropertyOp23
 70
     1
102
RTVSPropertyOp24
 70
     1
102
RTVSPropertyOp25
 70
     1
102
RTVSPropertyOp26
 70
     1
102
RTVSPropertyOp27
 70
     1
102
RTVSPropertyOp28
 70
     1
102
RTVSPropertyOp29
 70
     1
102
RTVSPropertyOp30
 70
     1
102
RTVSPropertyOp31
 70
     1
102
RTVSPropertyOp32
 70
     1
102
RTVSPropertyOp33
 70
     1
102
RTVSPropertyOp34
 70
     1
102
RTVSPropertyOp35
 70
     1
102
RTVSPropertyOp36
 70
     1
102
RTVSPropertyOp37
 70
     1
102
RTVSPropertyOp38
 70
     1
102
RTVSPropertyOp39
 70
     1
102
RTVSPropertyOp40
 70
     1
102
RTVSPropertyOp41
 70
     1
102
RTVSPropertyOp42
 70
     1
102
RTVSPropertyOp43
 70
     1
102
RTVSPropertyOp44
 70
     1
102
RTVSPropertyOp45
 70
     1
102
RTVSPropertyOp46
 70
     1
102
RTVSPropertyOp47
 70
     1
102
RTVSPropertyOp48
 70
     1
102
RTVSPropertyOp49
 70
     1
102
RTVSPropertyOp50
 70
     1
102
RTVSPropertyOp51
 70
     0
102
RTVSPropertyOp52
 70
     0
102
RTVSPropertyOp53
 70
     1
102
RTVSPropertyOp54
 70
     1
102
RTVSPropertyOp55
 70
     1
102
RTVSPropertyOp56
 70
     1
102
RTVSPropertyOp57
 70
     1
102
RTVSPost2010Prop28
280
     0
102
RTVSPost2010PropOp28
 70
     1
102
RTVSPost2010Prop29
280
     1
102
RTVSPost2010PropOp29
 70
     1
102
RTVSPost2010Prop30
280
     1
102
RTVSPost2010PropOp30
 70
     1
102
RTVSPost2010Prop31
280
     0
102
RTVSPost2010PropOp31
 70
     1
102
RTVSPost2010Prop32
280
     0
102
RTVSPost2010PropOp32
 70
     1
102
RTVSPost2010Prop33
280
     0
102
RTVSPost2010PropOp33
 70
     1
102
RTVSPost2010Prop34
280
     0
102
RTVSPost2010PropOp34
 70
     1
102
RTVSPost2010Prop35
280
     0
102
RTVSPost2010PropOp35
 70
     1
102
RTVSPost2010Prop36
280
     0
102
RTVSPost2010PropOp36
 70
     1
102
RTVSPost2010Prop37
 90
       50
102
RTVSPost2010PropOp37
 70
     1
102
RTVSPost2010Prop38
140
0.0
102
RTVSPost2010PropOp38
 70
     1
102
RTVSPost2010Prop39
140
1.0
102
RTVSPost2010PropOp39
 70
     1
102
RTVSPost2010Prop40
 90
        0
102
RTVSPost2010PropOp40
 70
     1
102
RTVSPost2010Prop41ColorIndex
 90
       18
102
RTVSPost2010Prop41ColorRGB
 90
        0
102
RTVSPost2010PropOp41
 70
     1
102
RTVSPost2010Prop42
 90
       50
102
RTVSPost2010PropOp42
 70
     1
102
RTVSPost2010Prop43
 90
        3
102
RTVSPost2010PropOp43
 70
     1
102
RTVSPost2010Prop44ColorIndex
 90
        5
102
RTVSPost2010Prop44ColorRGB
 90
      255
102
RTVSPost2010PropOp44
 70
     1
102
RTVSPost2010Prop45
280
     0
102
RTVSPost2010PropOp45
 70
     1
102
RTVSPost2010Prop46
 90
       50
102
RTVSPost2010PropOp46
 70
     1
102
RTVSPost2010Prop47
 90
       50
102
RTVSPost2010PropOp47
 70
     1
102
RTVSPost2010Prop48
 90
       50
102
RTVSPost2010PropOp48
 70
     1
102
RTVSPost2010Prop49
280
     0
102
RTVSPost2010PropOp49
 70
     1
102
RTVSPost2010Prop50
 90
       50
102
RTVSPost2010PropOp50
 70
     1
102
RTVSPost2010Prop51ColorIndex
 90
      256
102
RTVSPost2010Prop51ColorRGB
 90
-16777216
102
RTVSPost2010PropOp51
 70
     0
102
RTVSPost2010Prop52
140
1.0
102
RTVSPost2010PropOp52
 70
     0
102
RTVSPost2010Prop53
 90
        2
102
RTVSPost2010PropOp53
 70
     1
102
RTVSPost2010Prop54
  1
strokes_ogs.tif
102
RTVSPost2010PropOp54
 70
     1
102
RTVSPost2010Prop55
280
     0
102
RTVSPost2010PropOp55
 70
     1
102
RTVSPost2010Prop56
140
1.0
102
RTVSPost2010PropOp56
 70
     1
102
RTVSPost2010Prop57
140
1.0
102
RTVSPost2010PropOp57
 70
     1
  0
XRECORD
  5
5AF
102
{ACAD_REACTORS
330
5AE
102
}
330
5AE
100
AcDbXrecord
280
     1
102
RTVSPropertyOp0
 70
     1
102
RTVSPropertyOp1
 70
     1
102
RTVSPropertyOp2
 70
     1
102
RTVSPropertyOp3
 70
     1
102
RTVSPropertyOp4
 70
     1
102
RTVSPropertyOp5
 70
     1
102
RTVSPropertyOp6
 70
     1
102
RTVSPropertyOp7
 70
     1
102
RTVSPropertyOp8
 70
     1
102
RTVSPropertyOp9
 70
     1
102
RTVSPropertyOp10
 70
     1
102
RTVSPropertyOp11
 70
     1
102
RTVSPropertyOp12
 70
     1
102
RTVSPropertyOp13
 70
     1
102
RTVSPropertyOp14
 70
     1
102
RTVSPropertyOp15
 70
     1
102
RTVSPropertyOp16
 70
     1
102
RTVSPropertyOp17
 70
     1
102
RTVSPropertyOp18
 70
     1
102
RTVSPropertyOp19
 70
     1
102
RTVSPropertyOp20
 70
     1
102
RTVSPropertyOp21
 70
     1
102
RTVSPropertyOp22
 70
     1
102
RTVSPropertyOp23
 70
     1
102
RTVSPropertyOp24
 70
     1
102
RTVSPropertyOp25
 70
     1
102
RTVSPropertyOp26
 70
     1
102
RTVSPropertyOp27
 70
     1
102
RTVSPropertyOp28
 70
     1
102
RTVSPropertyOp29
 70
     1
102
RTVSPropertyOp30
 70
     1
102
RTVSPropertyOp31
 70
     1
102
RTVSPropertyOp32
 70
     1
102
RTVSPropertyOp33
 70
     1
102
RTVSPropertyOp34
 70
     1
102
RTVSPropertyOp35
 70
     1
102
RTVSPropertyOp36
 70
     1
102
RTVSPropertyOp37
 70
     1
102
RTVSPropertyOp38
 70
     1
102
RTVSPropertyOp39
 70
     1
102
RTVSPropertyOp40
 70
     1
102
RTVSPropertyOp41
 70
     1
102
RTVSPropertyOp42
 70
     1
102
RTVSPropertyOp43
 70
     1
102
RTVSPropertyOp44
 70
     1
102
RTVSPropertyOp45
 70
     1
102
RTVSPropertyOp46
 70
     1
102
RTVSPropertyOp47
 70
     1
102
RTVSPropertyOp48
 70
     1
102
RTVSPropertyOp49
 70
     1
102
RTVSPropertyOp50
 70
     1
102
RTVSPropertyOp51
 70
     0
102
RTVSPropertyOp52
 70
     0
102
RTVSPropertyOp53
 70
     1
102
RTVSPropertyOp54
 70
     1
102
RTVSPropertyOp55
 70
     1
102
RTVSPropertyOp56
 70
     1
102
RTVSPropertyOp57
 70
     1
102
RTVSPost2010Prop28
280
     0
102
RTVSPost2010PropOp28
 70
     1
102
RTVSPost2010Prop29
280
     1
102
RTVSPost2010PropOp29
 70
     1
102
RTVSPost2010Prop30
280
     1
102
RTVSPost2010PropOp30
 70
     1
102
RTVSPost2010Prop31
280
     0
102
RTVSPost2010PropOp31
 70
     1
102
RTVSPost2010Prop32
280
     0
102
RTVSPost2010PropOp32
 70
     1
102
RTVSPost2010Prop33
280
     0
102
RTVSPost2010PropOp33
 70
     1
102
RTVSPost2010Prop34
280
     0
102
RTVSPost2010PropOp34
 70
     1
102
RTVSPost2010Prop35
280
     0
102
RTVSPost2010PropOp35
 70
     1
102
RTVSPost2010Prop36
280
     0
102
RTVSPost2010PropOp36
 70
     1
102
RTVSPost2010Prop37
 90
       50
102
RTVSPost2010PropOp37
 70
     1
102
RTVSPost2010Prop38
140
0.0
102
RTVSPost2010PropOp38
 70
     1
102
RTVSPost2010Prop39
140
1.0
102
RTVSPost2010PropOp39
 70
     1
102
RTVSPost2010Prop40
 90
        0
102
RTVSPost2010PropOp40
 70
     1
102
RTVSPost2010Prop41ColorIndex
 90
       18
102
RTVSPost2010Prop41ColorRGB
 90
        0
102
RTVSPost2010PropOp41
 70
     1
102
RTVSPost2010Prop42
 90
       50
102
RTVSPost2010PropOp42
 70
     1
102
RTVSPost2010Prop43
 90
        3
102
RTVSPost2010PropOp43
 70
     1
102
RTVSPost2010Prop44ColorIndex
 90
        5
102
RTVSPost2010Prop44ColorRGB
 90
      255
102
RTVSPost2010PropOp44
 70
     1
102
RTVSPost2010Prop45
280
     0
102
RTVSPost2010PropOp45
 70
     1
102
RTVSPost2010Prop46
 90
       50
102
RTVSPost2010PropOp46
 70
     1
102
RTVSPost2010Prop47
 90
       50
102
RTVSPost2010PropOp47
 70
     1
102
RTVSPost2010Prop48
 90
       50
102
RTVSPost2010PropOp48
 70
     1
102
RTVSPost2010Prop49
280
     0
102
RTVSPost2010PropOp49
 70
     1
102
RTVSPost2010Prop50
 90
       50
102
RTVSPost2010PropOp50
 70
     1
102
RTVSPost2010Prop51ColorIndex
 90
      256
102
RTVSPost2010Prop51ColorRGB
 90
-16777216
102
RTVSPost2010PropOp51
 70
     0
102
RTVSPost2010Prop52
140
1.0
102
RTVSPost2010PropOp52
 70
     0
102
RTVSPost2010Prop53
 90
        2
102
RTVSPost2010PropOp53
 70
     1
102
RTVSPost2010Prop54
  1
strokes_ogs.tif
102
RTVSPost2010PropOp54
 70
     1
102
RTVSPost2010Prop55
280
     0
102
RTVSPost2010PropOp55
 70
     1
102
RTVSPost2010Prop56
140
1.0
102
RTVSPost2010PropOp56
 70
     1
102
RTVSPost2010Prop57
140
1.0
102
RTVSPost2010PropOp57
 70
     1
  0
XRECORD
  5
5D7
102
{ACAD_REACTORS
330
5D6
102
}
330
5D6
100
AcDbXrecord
280
     1
102
RTVSPropertyOp0
 70
     1
102
RTVSPropertyOp1
 70
     1
102
RTVSPropertyOp2
 70
     1
102
RTVSPropertyOp3
 70
     1
102
RTVSPropertyOp4
 70
     1
102
RTVSPropertyOp5
 70
     1
102
RTVSPropertyOp6
 70
     1
102
RTVSPropertyOp7
 70
     1
102
RTVSPropertyOp8
 70
     1
102
RTVSPropertyOp9
 70
     1
102
RTVSPropertyOp10
 70
     1
102
RTVSPropertyOp11
 70
     1
102
RTVSPropertyOp12
 70
     1
102
RTVSPropertyOp13
 70
     1
102
RTVSPropertyOp14
 70
     1
102
RTVSPropertyOp15
 70
     1
102
RTVSPropertyOp16
 70
     1
102
RTVSPropertyOp17
 70
     1
102
RTVSPropertyOp18
 70
     1
102
RTVSPropertyOp19
 70
     1
102
RTVSPropertyOp20
 70
     1
102
RTVSPropertyOp21
 70
     1
102
RTVSPropertyOp22
 70
     1
102
RTVSPropertyOp23
 70
     1
102
RTVSPropertyOp24
 70
     1
102
RTVSPropertyOp25
 70
     1
102
RTVSPropertyOp26
 70
     1
102
RTVSPropertyOp27
 70
     1
102
RTVSPropertyOp28
 70
     1
102
RTVSPropertyOp29
 70
     1
102
RTVSPropertyOp30
 70
     1
102
RTVSPropertyOp31
 70
     1
102
RTVSPropertyOp32
 70
     1
102
RTVSPropertyOp33
 70
     1
102
RTVSPropertyOp34
 70
     1
102
RTVSPropertyOp35
 70
     1
102
RTVSPropertyOp36
 70
     1
102
RTVSPropertyOp37
 70
     1
102
RTVSPropertyOp38
 70
     1
102
RTVSPropertyOp39
 70
     1
102
RTVSPropertyOp40
 70
     1
102
RTVSPropertyOp41
 70
     1
102
RTVSPropertyOp42
 70
     1
102
RTVSPropertyOp43
 70
     1
102
RTVSPropertyOp44
 70
     1
102
RTVSPropertyOp45
 70
     1
102
RTVSPropertyOp46
 70
     1
102
RTVSPropertyOp47
 70
     1
102
RTVSPropertyOp48
 70
     1
102
RTVSPropertyOp49
 70
     1
102
RTVSPropertyOp50
 70
     1
102
RTVSPropertyOp51
 70
     0
102
RTVSPropertyOp52
 70
     0
102
RTVSPropertyOp53
 70
     1
102
RTVSPropertyOp54
 70
     1
102
RTVSPropertyOp55
 70
     1
102
RTVSPropertyOp56
 70
     1
102
RTVSPropertyOp57
 70
     1
102
RTVSPost2010Prop28
280
     0
102
RTVSPost2010PropOp28
 70
     1
102
RTVSPost2010Prop29
280
     1
102
RTVSPost2010PropOp29
 70
     1
102
RTVSPost2010Prop30
280
     1
102
RTVSPost2010PropOp30
 70
     1
102
RTVSPost2010Prop31
280
     0
102
RTVSPost2010PropOp31
 70
     1
102
RTVSPost2010Prop32
280
     0
102
RTVSPost2010PropOp32
 70
     1
102
RTVSPost2010Prop33
280
     0
102
RTVSPost2010PropOp33
 70
     1
102
RTVSPost2010Prop34
280
     0
102
RTVSPost2010PropOp34
 70
     1
102
RTVSPost2010Prop35
280
     0
102
RTVSPost2010PropOp35
 70
     1
102
RTVSPost2010Prop36
280
     0
102
RTVSPost2010PropOp36
 70
     1
102
RTVSPost2010Prop37
 90
       50
102
RTVSPost2010PropOp37
 70
     1
102
RTVSPost2010Prop38
140
0.0
102
RTVSPost2010PropOp38
 70
     1
102
RTVSPost2010Prop39
140
1.0
102
RTVSPost2010PropOp39
 70
     1
102
RTVSPost2010Prop40
 90
        0
102
RTVSPost2010PropOp40
 70
     1
102
RTVSPost2010Prop41ColorIndex
 90
       18
102
RTVSPost2010Prop41ColorRGB
 90
        0
102
RTVSPost2010PropOp41
 70
     1
102
RTVSPost2010Prop42
 90
       50
102
RTVSPost2010PropOp42
 70
     1
102
RTVSPost2010Prop43
 90
        3
102
RTVSPost2010PropOp43
 70
     1
102
RTVSPost2010Prop44ColorIndex
 90
        5
102
RTVSPost2010Prop44ColorRGB
 90
      255
102
RTVSPost2010PropOp44
 70
     1
102
RTVSPost2010Prop45
280
     0
102
RTVSPost2010PropOp45
 70
     1
102
RTVSPost2010Prop46
 90
       50
102
RTVSPost2010PropOp46
 70
     1
102
RTVSPost2010Prop47
 90
       50
102
RTVSPost2010PropOp47
 70
     1
102
RTVSPost2010Prop48
 90
       50
102
RTVSPost2010PropOp48
 70
     1
102
RTVSPost2010Prop49
280
     0
102
RTVSPost2010PropOp49
 70
     1
102
RTVSPost2010Prop50
 90
       50
102
RTVSPost2010PropOp50
 70
     1
102
RTVSPost2010Prop51ColorIndex
 90
      256
102
RTVSPost2010Prop51ColorRGB
 90
-16777216
102
RTVSPost2010PropOp51
 70
     0
102
RTVSPost2010Prop52
140
1.0
102
RTVSPost2010PropOp52
 70
     0
102
RTVSPost2010Prop53
 90
        2
102
RTVSPost2010PropOp53
 70
     1
102
RTVSPost2010Prop54
  1
strokes_ogs.tif
102
RTVSPost2010PropOp54
 70
     1
102
RTVSPost2010Prop55
280
     0
102
RTVSPost2010PropOp55
 70
     1
102
RTVSPost2010Prop56
140
1.0
102
RTVSPost2010PropOp56
 70
     1
102
RTVSPost2010Prop57
140
1.0
102
RTVSPost2010PropOp57
 70
     1
  0
ENDSEC
  0
EOF
