  0
SECTION
  2
HEADER
  9
$ACADVER
  1
AC1015
  9
$ACADMAINTVER
 70
     6
  9
$DWGCODEPAGE
  3
ANSI_932
  9
$INSBASE
 10
1443.133899698782
 20
1045.730716278979
 30
0.0
  9
$EXTMIN
 10
188.1328173104345
 20
15.16451421003707
 30
0.0
  9
$EXTMAX
 10
1113.888556732122
 20
795.7647841512342
 30
0.0
  9
$LIMMIN
 10
0.0
 20
0.0
  9
$LIMMAX
 10
816.5000000000001
 20
565.0
  9
$ORTHOMODE
 70
     1
  9
$REGENMODE
 70
     1
  9
$FILLMODE
 70
     1
  9
$QTEXTMODE
 70
     0
  9
$MIRRTEXT
 70
     1
  9
$LTSCALE
 40
5.0
  9
$ATTMODE
 70
     1
  9
$TEXTSIZE
 40
9.0
  9
$TRACEWID
 40
0.05
  9
$TEXTSTYLE
  7
KANJI
  9
$CLAYER
  8
2
  9
$CELTYPE
  6
BYLAYER
  9
$CECOLOR
 62
   256
  9
$CELTSCALE
 40
1.0
  9
$DISPSILH
 70
     0
  9
$DIMSCALE
 40
3.0
  9
$DIMASZ
 40
2.0
  9
$DIMEXO
 40
0.5
  9
$DIMDLI
 40
0.0
  9
$DIMRND
 40
0.0
  9
$DIMDLE
 40
0.0
  9
$DIMEXE
 40
1.0
  9
$DIMTP
 40
0.0
  9
$DIMTM
 40
0.0
  9
$DIMTXT
 40
3.0
  9
$DIMCEN
 40
0.09
  9
$DIMTSZ
 40
0.0
  9
$DIMTOL
 70
     0
  9
$DIMLIM
 70
     0
  9
$DIMTIH
 70
     0
  9
$DIMTOH
 70
     0
  9
$DIMSE1
 70
     0
  9
$DIMSE2
 70
     0
  9
$DIMTAD
 70
     0
  9
$DIMZIN
 70
     8
  9
$DIMBLK
  1

  9
$DIMASO
 70
     0
  9
$DIMSHO
 70
     0
  9
$DIMPOST
  1

  9
$DIMAPOST
  1

  9
$DIMALT
 70
     0
  9
$DIMALTD
 70
     2
  9
$DIMALTF
 40
25.4
  9
$DIMLFAC
 40
1.0
  9
$DIMTOFL
 70
     1
  9
$DIMTVP
 40
1.0
  9
$DIMTIX
 70
     1
  9
$DIMSOXD
 70
     1
  9
$DIMSAH
 70
     0
  9
$DIMBLK1
  1

  9
$DIMBLK2
  1

  9
$DIMSTYLE
  2
STANDARD
  9
$DIMCLRD
 70
   256
  9
$DIMCLRE
 70
   256
  9
$DIMCLRT
 70
     2
  9
$DIMTFAC
 40
1.0
  9
$DIMGAP
 40
0.09
  9
$DIMJUST
 70
     0
  9
$DIMSD1
 70
     0
  9
$DIMSD2
 70
     0
  9
$DIMTOLJ
 70
     1
  9
$DIMTZIN
 70
     0
  9
$DIMALTZ
 70
     0
  9
$DIMALTTZ
 70
     0
  9
$DIMUPT
 70
     0
  9
$DIMDEC
 70
     4
  9
$DIMTDEC
 70
     4
  9
$DIMALTU
 70
     2
  9
$DIMALTTD
 70
     2
  9
$DIMTXSTY
  7
STANDARD
  9
$DIMAUNIT
 70
     0
  9
$DIMADEC
 70
     0
  9
$DIMALTRND
 40
0.0
  9
$DIMAZIN
 70
     0
  9
$DIMDSEP
 70
    46
  9
$DIMATFIT
 70
     3
  9
$DIMFRAC
 70
     0
  9
$DIMLDRBLK
  1

  9
$DIMLUNIT
 70
     2
  9
$DIMLWD
 70
    -2
  9
$DIMLWE
 70
    -2
  9
$DIMTMOVE
 70
     0
  9
$LUNITS
 70
     2
  9
$LUPREC
 70
     3
  9
$SKETCHINC
 40
0.1
  9
$FILLETRAD
 40
4.0
  9
$AUNITS
 70
     0
  9
$AUPREC
 70
     3
  9
$MENU
  1
C:\R13\WIN\SUPPORT\ACADFULL
  9
$ELEVATION
 40
0.0
  9
$PELEVATION
 40
0.0
  9
$THICKNESS
 40
0.0
  9
$LIMCHECK
 70
     0
  9
$CHAMFERA
 40
0.0
  9
$CHAMFERB
 40
0.0
  9
$CHAMFERC
 40
0.0
  9
$CHAMFERD
 40
0.0
  9
$SKPOLY
 70
     0
  9
$TDCREATE
 40
2457417.573629398
  9
$TDUCREATE
 40
2457417.198629398
  9
$TDUPDATE
 40
2457871.829605428
  9
$TDUUPDATE
 40
2457871.454605428
  9
$TDINDWG
 40
0.0172250694
  9
$TDUSRTIMER
 40
0.0172246412
  9
$USRTIMER
 70
     1
  9
$ANGBASE
 50
0.0
  9
$ANGDIR
 70
     0
  9
$PDMODE
 70
     0
  9
$PDSIZE
 40
0.0
  9
$PLINEWID
 40
0.0
  9
$SPLFRAME
 70
     0
  9
$SPLINETYPE
 70
     6
  9
$SPLINESEGS
 70
     8
  9
$HANDSEED
  5
5BD
  9
$SURFTAB1
 70
     6
  9
$SURFTAB2
 70
     6
  9
$SURFTYPE
 70
     6
  9
$SURFU
 70
     6
  9
$SURFV
 70
     6
  9
$UCSBASE
  2

  9
$UCSNAME
  2

  9
$UCSORG
 10
0.0
 20
0.0
 30
0.0
  9
$UCSXDIR
 10
1.0
 20
0.0
 30
0.0
  9
$UCSYDIR
 10
0.0
 20
1.0
 30
0.0
  9
$UCSORTHOREF
  2

  9
$UCSORTHOVIEW
 70
     0
  9
$UCSORGTOP
 10
0.0
 20
0.0
 30
0.0
  9
$UCSORGBOTTOM
 10
0.0
 20
0.0
 30
0.0
  9
$UCSORGLEFT
 10
0.0
 20
0.0
 30
0.0
  9
$UCSORGRIGHT
 10
0.0
 20
0.0
 30
0.0
  9
$UCSORGFRONT
 10
0.0
 20
0.0
 30
0.0
  9
$UCSORGBACK
 10
0.0
 20
0.0
 30
0.0
  9
$PUCSBASE
  2

  9
$PUCSNAME
  2

  9
$PUCSORG
 10
0.0
 20
0.0
 30
0.0
  9
$PUCSXDIR
 10
1.0
 20
0.0
 30
0.0
  9
$PUCSYDIR
 10
0.0
 20
1.0
 30
0.0
  9
$PUCSORTHOREF
  2

  9
$PUCSORTHOVIEW
 70
     0
  9
$PUCSORGTOP
 10
0.0
 20
0.0
 30
0.0
  9
$PUCSORGBOTTOM
 10
0.0
 20
0.0
 30
0.0
  9
$PUCSORGLEFT
 10
0.0
 20
0.0
 30
0.0
  9
$PUCSORGRIGHT
 10
0.0
 20
0.0
 30
0.0
  9
$PUCSORGFRONT
 10
0.0
 20
0.0
 30
0.0
  9
$PUCSORGBACK
 10
0.0
 20
0.0
 30
0.0
  9
$USERI1
 70
     0
  9
$USERI2
 70
     0
  9
$USERI3
 70
     0
  9
$USERI4
 70
     0
  9
$USERI5
 70
     0
  9
$USERR1
 40
0.0
  9
$USERR2
 40
0.0
  9
$USERR3
 40
0.0
  9
$USERR4
 40
2448925.372986111
  9
$USERR5
 40
0.04166667
  9
$WORLDVIEW
 70
     1
  9
$SHADEDGE
 70
     3
  9
$SHADEDIF
 70
    70
  9
$TILEMODE
 70
     1
  9
$MAXACTVP
 70
    16
  9
$PINSBASE
 10
0.0
 20
0.0
 30
0.0
  9
$PLIMCHECK
 70
     0
  9
$PEXTMIN
 10
1.000000000000000E+20
 20
1.000000000000000E+20
 30
1.000000000000000E+20
  9
$PEXTMAX
 10
-1.000000000000000E+20
 20
-1.000000000000000E+20
 30
-1.000000000000000E+20
  9
$PLIMMIN
 10
0.0
 20
0.0
  9
$PLIMMAX
 10
12.0
 20
9.0
  9
$UNITMODE
 70
     0
  9
$VISRETAIN
 70
     0
  9
$PLINEGEN
 70
     0
  9
$PSLTSCALE
 70
     0
  9
$TREEDEPTH
 70
  3020
  9
$CMLSTYLE
  2
STANDARD
  9
$CMLJUST
 70
     0
  9
$CMLSCALE
 40
1.0
  9
$PROXYGRAPHICS
 70
     1
  9
$MEASUREMENT
 70
     0
  9
$CELWEIGHT
370
    -1
  9
$ENDCAPS
280
     0
  9
$JOINSTYLE
280
     0
  9
$LWDISPLAY
290
     0
  9
$INSUNITS
 70
     0
  9
$HYPERLINKBASE
  1

  9
$STYLESHEET
  1
monochrome.ctb
  9
$XEDIT
290
     1
  9
$CEPSNTYPE
380
     0
  9
$PSTYLEMODE
290
     1
  9
$FINGERPRINTGUID
  2
{73FEF31F-50C9-44C4-A0D7-0FAE582BD2F4}
  9
$VERSIONGUID
  2
{15909635-FD46-4E86-BF1A-8C640C014BF3}
  9
$EXTNAMES
290
     1
  9
$PSVPSCALE
 40
0.0
  9
$OLESTARTUP
290
     0
  0
ENDSEC
  0
SECTION
  2
CLASSES
  0
CLASS
  1
LWPOLYLINE
  2
AcDbPolyline
  3
AutoCAD 2000
 90
        0
280
     0
281
     1
  0
CLASS
  1
XRECORD
  2
AcDbXrecord
  3
AutoCAD 2000
 90
        0
280
     0
281
     0
  0
CLASS
  1
ACDBDICTIONARYWDFLT
  2
AcDbDictionaryWithDefault
  3
ObjectDBX Classes
 90
        0
280
     0
281
     0
  0
CLASS
  1
MATERIAL
  2
AcDbMaterial
  3
ObjectDBX Classes
 90
     1153
280
     0
281
     0
  0
CLASS
  1
VISUALSTYLE
  2
AcDbVisualStyle
  3
ObjectDBX Classes
 90
     4095
280
     0
281
     0
  0
CLASS
  1
TABLESTYLE
  2
AcDbTableStyle
  3
ObjectDBX Classes
 90
     4095
280
     0
281
     0
  0
CLASS
  1
SCALE
  2
AcDbScale
  3
ObjectDBX Classes
 90
     1153
280
     0
281
     0
  0
CLASS
  1
MLEADERSTYLE
  2
AcDbMLeaderStyle
  3
ACDB_MLEADERSTYLE_CLASS
 90
     4095
280
     0
281
     0
  0
CLASS
  1
CELLSTYLEMAP
  2
AcDbCellStyleMap
  3
ObjectDBX Classes
 90
     1152
280
     0
281
     0
  0
CLASS
  1
DICTIONARYVAR
  2
AcDbDictionaryVar
  3
ObjectDBX Classes
 90
        0
280
     0
281
     0
  0
CLASS
  1
ACDBPLACEHOLDER
  2
AcDbPlaceHolder
  3
ObjectDBX Classes
 90
        0
280
     0
281
     0
  0
CLASS
  1
LAYOUT
  2
AcDbLayout
  3
ObjectDBX Classes
 90
        0
280
     0
281
     0
  0
CLASS
  1
DUMMY
  2
AcDbLongTransaction
  3
DUMMY
 90
        0
280
     0
281
     0
  0
CLASS
  1
LWPOLYLINE
  2
AcDbPolyline
  3
AutoCAD 2000
 90
        0
280
     0
281
     1
  0
CLASS
  1
HATCH
  2
AcDbHatch
  3
AutoCAD 2000
 90
        0
280
     0
281
     1
  0
CLASS
  1
XRECORD
  2
AcDbXrecord
  3
AutoCAD 2000
 90
        0
280
     0
281
     0
  0
CLASS
  1
DUMMY
  2
AcDbLongTransaction
  3
DUMMY
 90
        0
280
     0
281
     0
  0
CLASS
  1
LWPOLYLINE
  2
AcDbPolyline
  3
AutoCAD 2000
 90
        0
280
     0
281
     1
  0
CLASS
  1
HATCH
  2
AcDbHatch
  3
AutoCAD 2000
 90
        0
280
     0
281
     1
  0
CLASS
  1
XRECORD
  2
AcDbXrecord
  3
AutoCAD 2000
 90
        0
280
     0
281
     0
  0
CLASS
  1
DUMMY
  2
AcDbLongTransaction
  3
DUMMY
 90
        0
280
     0
281
     0
  0
CLASS
  1
LWPOLYLINE
  2
AcDbPolyline
  3
AutoCAD 2000
 90
        0
280
     0
281
     1
  0
CLASS
  1
HATCH
  2
AcDbHatch
  3
AutoCAD 2000
 90
        0
280
     0
281
     1
  0
CLASS
  1
XRECORD
  2
AcDbXrecord
  3
AutoCAD 2000
 90
        0
280
     0
281
     0
  0
CLASS
  1
DUMMY
  2
AcDbLongTransaction
  3
DUMMY
 90
        0
280
     0
281
     0
  0
CLASS
  1
LWPOLYLINE
  2
AcDbPolyline
  3
AutoCAD 2000
 90
        0
280
     0
281
     1
  0
CLASS
  1
HATCH
  2
AcDbHatch
  3
AutoCAD 2000
 90
        0
280
     0
281
     1
  0
CLASS
  1
XRECORD
  2
AcDbXrecord
  3
AutoCAD 2000
 90
        0
280
     0
281
     0
  0
CLASS
  1
ACDBSECTIONVIEWSTYLE
  2
AcDbSectionViewStyle
  3
ObjectDBX Classes
 90
     1025
280
     0
281
     0
  0
CLASS
  1
ACDBDETAILVIEWSTYLE
  2
AcDbDetailViewStyle
  3
ObjectDBX Classes
 90
     1025
280
     0
281
     0
  0
CLASS
  1
SORTENTSTABLE
  2
AcDbSortentsTable
  3
ObjectDBX Classes
 90
        0
280
     0
281
     0
  0
ENDSEC
  0
SECTION
  2
TABLES
  0
TABLE
  2
VPORT
  5
2C
102
{ACAD_XDICTIONARY
360
31
102
}
330
0
100
AcDbSymbolTable
 70
     1
  0
VPORT
  5
2D
330
2C
100
AcDbSymbolTableRecord
100
AcDbViewportTableRecord
  2
*ACTIVE
 70
     0
 10
0.0
 20
0.0
 11
1.0
 21
1.0
 12
1126.621421477325
 22
334.1780312340868
 13
0.0
 23
0.0
 14
1.0
 24
1.0
 15
50.0
 25
50.0
 16
0.0
 26
0.0
 36
1.0
 17
0.0
 27
0.0
 37
0.0
 40
1147.827441367937
 41
2.177611940298507
 42
50.0
 43
0.0
 44
0.0
 50
0.0
 51
0.0
 71
     0
 72
  5000
 73
     1
 74
     0
 75
     0
 76
     0
 77
     0
 78
     0
281
     0
 65
     1
110
0.0
120
0.0
130
0.0
111
1.0
121
0.0
131
0.0
112
0.0
122
1.0
132
0.0
 79
     0
146
0.0
1001
ACAD_NAV_VCDISPLAY
1070
     3
  0
ENDTAB
  0
TABLE
  2
LTYPE
  5
27
330
0
100
AcDbSymbolTable
 70
     2
  0
LTYPE
  5
28
330
27
100
AcDbSymbolTableRecord
100
AcDbLinetypeTableRecord
  2
BYBLOCK
 70
     0
  3

 72
    65
 73
     0
 40
0.0
  0
LTYPE
  5
29
330
27
100
AcDbSymbolTableRecord
100
AcDbLinetypeTableRecord
  2
BYLAYER
 70
     0
  3

 72
    65
 73
     0
 40
0.0
  0
LTYPE
  5
16
330
27
100
AcDbSymbolTableRecord
100
AcDbLinetypeTableRecord
  2
CONTINUOUS
 70
     0
  3
Solid line
 72
    65
 73
     0
 40
0.0
  0
LTYPE
  5
A0
330
27
100
AcDbSymbolTableRecord
100
AcDbLinetypeTableRecord
  2
CENTER
 70
     0
  3
____ _ ____ _ ____ _ ____ _ ____ _ ____ _ ____
 72
    65
 73
     4
 40
2.0
 49
1.25
 74
     0
 49
-0.25
 74
     0
 49
0.25
 74
     0
 49
-0.25
 74
     0
  0
ENDTAB
  0
TABLE
  2
LAYER
  5
21
102
{ACAD_XDICTIONARY
360
22
102
}
330
0
100
AcDbSymbolTable
 70
     7
  0
LAYER
  5
7
102
{ACAD_XDICTIONARY
360
8
102
}
330
21
100
AcDbSymbolTableRecord
100
AcDbLayerTableRecord
  2
0
 70
     0
 62
     7
  6
CONTINUOUS
370
    -3
390
A
  0
LAYER
  5
351
102
{ACAD_XDICTIONARY
360
352
102
}
330
21
100
AcDbSymbolTableRecord
100
AcDbLayerTableRecord
  2
1
 70
     0
 62
     9
  6
CONTINUOUS
370
    -3
390
A
  0
LAYER
  5
4E
102
{ACAD_XDICTIONARY
360
4F
102
}
330
21
100
AcDbSymbolTableRecord
100
AcDbLayerTableRecord
  2
2
 70
     0
 62
     4
  6
CONTINUOUS
370
    -3
390
A
  0
LAYER
  5
68
102
{ACAD_XDICTIONARY
360
69
102
}
330
21
100
AcDbSymbolTableRecord
100
AcDbLayerTableRecord
  2
4
 70
     0
 62
     3
  6
CONTINUOUS
370
    -3
390
A
  0
LAYER
  5
9D
102
{ACAD_XDICTIONARY
360
9E
102
}
330
21
100
AcDbSymbolTableRecord
100
AcDbLayerTableRecord
  2
L-CENTER
 70
     0
 62
     1
  6
CENTER
370
    -3
390
A
  0
LAYER
  5
149
102
{ACAD_XDICTIONARY
360
14A
102
}
330
21
100
AcDbSymbolTableRecord
100
AcDbLayerTableRecord
  2
3
 70
     0
 62
     2
  6
CONTINUOUS
370
    -3
390
A
  0
LAYER
  5
405
330
21
100
AcDbSymbolTableRecord
100
AcDbLayerTableRecord
  2
5
 70
     0
 62
     6
  6
CONTINUOUS
370
    -3
390
A
  0
ENDTAB
  0
TABLE
  2
STYLE
  5
24
330
0
100
AcDbSymbolTable
 70
     2
  0
STYLE
  5
25
330
24
100
AcDbSymbolTableRecord
100
AcDbTextStyleTableRecord
  2
STANDARD
 70
     0
 40
0.0
 41
1.0
 50
0.0
 71
     0
 42
5.4
  3
TXT
  4

  0
STYLE
  5
51
330
24
100
AcDbSymbolTableRecord
100
AcDbTextStyleTableRecord
  2
KANJI
 70
     0
 40
0.0
 41
1.0
 50
0.0
 71
     0
 42
9.0
  3
TXT
  4
BIGFONT
  0
ENDTAB
  0
TABLE
  2
VIEW
  5
2A
330
0
100
AcDbSymbolTable
 70
     0
  0
ENDTAB
  0
TABLE
  2
UCS
  5
2B
330
0
100
AcDbSymbolTable
 70
     0
  0
ENDTAB
  0
TABLE
  2
APPID
  5
32
330
0
100
AcDbSymbolTable
 70
     4
  0
APPID
  5
33
330
32
100
AcDbSymbolTableRecord
100
AcDbRegAppTableRecord
  2
ACAD
 70
     0
  0
APPID
  5
30
330
32
100
AcDbSymbolTableRecord
100
AcDbRegAppTableRecord
  2
ACAD_NAV_VCDISPLAY
 70
     0
  0
APPID
  5
1A
330
32
100
AcDbSymbolTableRecord
100
AcDbRegAppTableRecord
  2
ACAD_PSEXT
 70
     0
  0
APPID
  5
55D
330
32
100
AcDbSymbolTableRecord
100
AcDbRegAppTableRecord
  2
ACAD_MLEADERVER
 70
     0
  0
ENDTAB
  0
TABLE
  2
DIMSTYLE
  5
34
330
0
100
AcDbSymbolTable
 70
     1
100
AcDbDimStyleTable
  0
DIMSTYLE
105
35
330
34
100
AcDbSymbolTableRecord
100
AcDbDimStyleTableRecord
  2
STANDARD
 70
     0
178
     0
340
25
  0
ENDTAB
  0
TABLE
  2
BLOCK_RECORD
  5
1
330
0
100
AcDbSymbolTable
 70
     0
  0
BLOCK_RECORD
  5
2
102
{ACAD_XDICTIONARY
360
3
102
}
330
1
100
AcDbSymbolTableRecord
100
AcDbBlockTableRecord
  2
*MODEL_SPACE
340
18
  0
BLOCK_RECORD
  5
1B
330
1
100
AcDbSymbolTableRecord
100
AcDbBlockTableRecord
  2
*PAPER_SPACE
340
20
  0
ENDTAB
  0
ENDSEC
  0
SECTION
  2
BLOCKS
  0
BLOCK
  5
6
330
2
100
AcDbEntity
  8
0
100
AcDbBlockBegin
  2
*MODEL_SPACE
 70
     0
 10
0.0
 20
0.0
 30
0.0
  3
*MODEL_SPACE
  1

  0
ENDBLK
  5
17
330
2
100
AcDbEntity
  8
0
100
AcDbBlockEnd
  0
BLOCK
  5
1E
330
1B
100
AcDbEntity
 67
     1
  8
0
100
AcDbBlockBegin
  2
*PAPER_SPACE
 70
     0
 10
0.0
 20
0.0
 30
0.0
  3
*PAPER_SPACE
  1

  0
ENDBLK
  5
1F
330
1B
100
AcDbEntity
 67
     1
  8
0
100
AcDbBlockEnd
  0
ENDSEC
  0
SECTION
  2
ENTITIES
  0
LINE
  5
67
330
2
100
AcDbEntity
  8
4
100
AcDbLine
 10
460.8828173104351
 20
677.1145486030066
 30
0.0
 11
460.8828173104351
 21
679.1145486030066
 31
0.0
  0
LINE
  5
6B
330
2
100
AcDbEntity
  8
4
100
AcDbLine
 10
475.3828173104351
 20
679.1145486030066
 30
0.0
 11
460.8828173104351
 21
679.1145486030066
 31
0.0
  0
LINE
  5
6C
330
2
100
AcDbEntity
  8
4
100
AcDbLine
 10
474.6328173104351
 20
679.1145486030066
 30
0.0
 11
474.6328173104351
 21
687.1145486030066
 31
0.0
  0
LINE
  5
6D
330
2
100
AcDbEntity
  8
4
100
AcDbLine
 10
461.6328173104351
 20
679.1145486030066
 30
0.0
 11
461.6328173104351
 21
687.1145486030066
 31
0.0
  0
LINE
  5
6E
330
2
100
AcDbEntity
  8
4
100
AcDbLine
 10
475.3828173104351
 20
677.1145486030066
 30
0.0
 11
475.3828173104351
 21
679.1145486030066
 31
0.0
  0
LINE
  5
6F
330
2
100
AcDbEntity
  8
4
100
AcDbLine
 10
474.6328173104351
 20
687.1145486030066
 30
0.0
 11
461.6328173104351
 21
687.1145486030066
 31
0.0
  0
LINE
  5
70
330
2
100
AcDbEntity
  8
4
100
AcDbLine
 10
414.6328173104352
 20
687.1145486030066
 30
0.0
 11
401.6328173104352
 21
687.1145486030066
 31
0.0
  0
LINE
  5
71
330
2
100
AcDbEntity
  8
4
100
AcDbLine
 10
415.3828173104352
 20
677.1145486030066
 30
0.0
 11
415.3828173104352
 21
679.1145486030066
 31
0.0
  0
LINE
  5
72
330
2
100
AcDbEntity
  8
4
100
AcDbLine
 10
401.6328173104352
 20
679.1145486030066
 30
0.0
 11
401.6328173104352
 21
687.1145486030066
 31
0.0
  0
LINE
  5
73
330
2
100
AcDbEntity
  8
4
100
AcDbLine
 10
414.6328173104352
 20
679.1145486030066
 30
0.0
 11
414.6328173104352
 21
687.1145486030066
 31
0.0
  0
LINE
  5
74
330
2
100
AcDbEntity
  8
4
100
AcDbLine
 10
415.3828173104352
 20
679.1145486030066
 30
0.0
 11
400.8828173104352
 21
679.1145486030066
 31
0.0
  0
LINE
  5
75
330
2
100
AcDbEntity
  8
4
100
AcDbLine
 10
400.8828173104352
 20
677.1145486030066
 30
0.0
 11
400.8828173104352
 21
679.1145486030066
 31
0.0
  0
LINE
  5
76
330
2
100
AcDbEntity
  8
4
100
AcDbLine
 10
280.8828173104334
 20
677.1145486030066
 30
0.0
 11
280.8828173104334
 21
679.1145486030066
 31
0.0
  0
LINE
  5
77
330
2
100
AcDbEntity
  8
4
100
AcDbLine
 10
295.3828173104334
 20
679.1145486030066
 30
0.0
 11
280.8828173104334
 21
679.1145486030066
 31
0.0
  0
LINE
  5
78
330
2
100
AcDbEntity
  8
4
100
AcDbLine
 10
294.6328173104334
 20
679.1145486030066
 30
0.0
 11
294.6328173104334
 21
687.1145486030066
 31
0.0
  0
LINE
  5
79
330
2
100
AcDbEntity
  8
4
100
AcDbLine
 10
281.6328173104334
 20
679.1145486030066
 30
0.0
 11
281.6328173104334
 21
687.1145486030066
 31
0.0
  0
LINE
  5
7A
330
2
100
AcDbEntity
  8
4
100
AcDbLine
 10
295.3828173104334
 20
677.1145486030066
 30
0.0
 11
295.3828173104334
 21
679.1145486030066
 31
0.0
  0
LINE
  5
7B
330
2
100
AcDbEntity
  8
4
100
AcDbLine
 10
294.6328173104334
 20
687.1145486030066
 30
0.0
 11
281.6328173104334
 21
687.1145486030066
 31
0.0
  0
LINE
  5
7C
330
2
100
AcDbEntity
  8
4
100
AcDbLine
 10
235.3828173104335
 20
679.1145486030066
 30
0.0
 11
220.8828173104334
 21
679.1145486030066
 31
0.0
  0
LINE
  5
7D
330
2
100
AcDbEntity
  8
4
100
AcDbLine
 10
234.6328173104334
 20
687.1145486030066
 30
0.0
 11
221.6328173104334
 21
687.1145486030066
 31
0.0
  0
LINE
  5
7E
330
2
100
AcDbEntity
  8
4
100
AcDbLine
 10
220.8828173104334
 20
677.1145486030066
 30
0.0
 11
220.8828173104334
 21
679.1145486030066
 31
0.0
  0
LINE
  5
7F
330
2
100
AcDbEntity
  8
4
100
AcDbLine
 10
235.3828173104335
 20
677.1145486030066
 30
0.0
 11
235.3828173104335
 21
679.1145486030066
 31
0.0
  0
LINE
  5
80
330
2
100
AcDbEntity
  8
4
100
AcDbLine
 10
221.6328173104334
 20
679.1145486030066
 30
0.0
 11
221.6328173104334
 21
687.1145486030066
 31
0.0
  0
LINE
  5
81
330
2
100
AcDbEntity
  8
4
100
AcDbLine
 10
234.6328173104334
 20
679.1145486030066
 30
0.0
 11
234.6328173104334
 21
687.1145486030066
 31
0.0
  0
LINE
  5
82
330
2
100
AcDbEntity
  8
4
100
AcDbLine
 10
904.7577306388932
 20
193.4241460151745
 30
0.0
 11
904.7577306388932
 21
172.9241460151745
 31
0.0
  0
LINE
  5
83
330
2
100
AcDbEntity
  8
2
100
AcDbLine
 10
897.1577306388929
 20
93.17267042154185
 30
0.0
 11
899.1577306388929
 21
95.17267042154185
 31
0.0
  0
LINE
  5
84
330
2
100
AcDbEntity
  8
2
100
AcDbLine
 10
897.1577306388929
 20
96.00109754628807
 30
0.0
 11
899.1577306388929
 21
98.00109754628807
 31
0.0
  0
LINE
  5
85
330
2
100
AcDbEntity
  8
4
100
AcDbLine
 10
899.1577306388929
 20
102.5010975462881
 30
0.0
 11
907.1577306388929
 21
102.5010975462881
 31
0.0
  0
LINE
  5
86
330
2
100
AcDbEntity
  8
4
100
AcDbLine
 10
897.1577306388929
 20
103.2510975462881
 30
0.0
 11
899.1577306388929
 21
103.2510975462881
 31
0.0
  0
LINE
  5
87
330
2
100
AcDbEntity
  8
4
100
AcDbLine
 10
907.1577306388926
 20
89.92414601517453
 30
0.0
 11
907.1577306388929
 21
102.5010975462881
 31
0.0
  0
LINE
  5
88
330
2
100
AcDbEntity
  8
4
100
AcDbLine
 10
899.1577306388926
 20
89.92414601517453
 30
0.0
 11
899.1577306388929
 21
103.2510975462881
 31
0.0
  0
LINE
  5
89
330
2
100
AcDbEntity
  8
4
100
AcDbLine
 10
899.1577306388929
 20
192.6741460151745
 30
0.0
 11
899.1577306388929
 21
207.1741460151745
 31
0.0
  0
LINE
  5
8A
330
2
100
AcDbEntity
  8
4
100
AcDbLine
 10
907.1577306388929
 20
193.4241460151745
 30
0.0
 11
907.1577306388929
 21
206.4241460151745
 31
0.0
  0
LINE
  5
8B
330
2
100
AcDbEntity
  8
4
100
AcDbLine
 10
897.1577306388929
 20
207.1741460151745
 30
0.0
 11
899.1577306388929
 21
207.1741460151745
 31
0.0
  0
LINE
  5
8C
330
2
100
AcDbEntity
  8
4
100
AcDbLine
 10
897.1577306388929
 20
192.6741460151745
 30
0.0
 11
899.1577306388929
 21
192.6741460151745
 31
0.0
  0
LINE
  5
8D
330
2
100
AcDbEntity
  8
4
100
AcDbLine
 10
899.1577306388929
 20
206.4241460151745
 30
0.0
 11
907.1577306388929
 21
206.4241460151745
 31
0.0
  0
LINE
  5
8E
330
2
100
AcDbEntity
  8
4
100
AcDbLine
 10
899.1577306388929
 20
193.4241460151745
 30
0.0
 11
907.1577306388929
 21
193.4241460151745
 31
0.0
  0
LINE
  5
8F
330
2
100
AcDbEntity
  8
2
100
AcDbLine
 10
897.1577306388929
 20
199.9241460151745
 30
0.0
 11
899.1577306388929
 21
201.9241460151745
 31
0.0
  0
LINE
  5
90
330
2
100
AcDbEntity
  8
2
100
AcDbLine
 10
897.1577306388929
 20
197.0957188904283
 30
0.0
 11
899.1577306388929
 21
199.0957188904283
 31
0.0
  0
LINE
  5
91
330
2
100
AcDbEntity
  8
2
100
AcDbLine
 10
897.1577306388929
 20
301.018767329813
 30
0.0
 11
899.1577306388929
 21
303.018767329813
 31
0.0
  0
LINE
  5
92
330
2
100
AcDbEntity
  8
2
100
AcDbLine
 10
897.1577306388929
 20
303.8471944545593
 30
0.0
 11
899.1577306388929
 21
305.8471944545593
 31
0.0
  0
LINE
  5
93
330
2
100
AcDbEntity
  8
4
100
AcDbLine
 10
899.1577306388929
 20
297.3471944545593
 30
0.0
 11
907.1577306388929
 21
297.3471944545593
 31
0.0
  0
LINE
  5
94
330
2
100
AcDbEntity
  8
4
100
AcDbLine
 10
899.1577306388929
 20
310.3471944545593
 30
0.0
 11
907.1577306388929
 21
310.3471944545593
 31
0.0
  0
LINE
  5
95
330
2
100
AcDbEntity
  8
4
100
AcDbLine
 10
897.1577306388929
 20
296.5971944545593
 30
0.0
 11
899.1577306388929
 21
296.5971944545593
 31
0.0
  0
LINE
  5
96
330
2
100
AcDbEntity
  8
4
100
AcDbLine
 10
897.1577306388929
 20
311.0971944545593
 30
0.0
 11
899.1577306388929
 21
311.0971944545593
 31
0.0
  0
LINE
  5
97
330
2
100
AcDbEntity
  8
4
100
AcDbLine
 10
907.1577306388929
 20
297.3471944545593
 30
0.0
 11
907.1577306388929
 21
310.3471944545593
 31
0.0
  0
LINE
  5
98
330
2
100
AcDbEntity
  8
4
100
AcDbLine
 10
899.1577306388929
 20
296.5971944545593
 30
0.0
 11
899.1577306388929
 21
311.0971944545593
 31
0.0
  0
LINE
  5
99
330
2
100
AcDbEntity
  8
4
100
AcDbLine
 10
236.1328173104367
 20
605.9645486029974
 30
0.0
 11
236.1328173104362
 21
613.6645486029977
 31
0.0
  0
LINE
  5
9A
330
2
100
AcDbEntity
  8
4
 48
3.0
100
AcDbLine
 10
240.8956902354078
 20
605.9645486029976
 30
0.0
 11
236.1328173104367
 21
605.9645486029974
 31
0.0
  0
LINE
  5
9B
330
2
100
AcDbEntity
  8
4
 48
3.0
100
AcDbLine
 10
240.8956902354074
 20
613.6645486029979
 30
0.0
 11
236.1328173104362
 21
613.6645486029977
 31
0.0
  0
LINE
  5
9C
330
2
100
AcDbEntity
  8
L-CENTER
 48
3.0
100
AcDbLine
 10
246.1328173104372
 20
597.1668560859946
 30
0.0
 11
246.1328173104357
 21
622.4622411200019
 31
0.0
  0
CIRCLE
  5
A1
330
2
100
AcDbEntity
  8
4
100
AcDbCircle
 10
246.1328173104365
 20
609.8145486029982
 30
0.0
 40
6.5
  0
LINE
  5
A2
330
2
100
AcDbEntity
  8
4
 48
3.0
100
AcDbLine
 10
455.3699443854638
 20
613.6645486030045
 30
0.0
 11
460.132817310435
 21
613.6645486030045
 31
0.0
  0
LINE
  5
A3
330
2
100
AcDbEntity
  8
4
 48
3.0
100
AcDbLine
 10
455.3699443854637
 20
605.9645486030042
 30
0.0
 11
460.132817310435
 21
605.9645486030042
 31
0.0
  0
LINE
  5
A4
330
2
100
AcDbEntity
  8
4
100
AcDbLine
 10
460.1328173104349
 20
605.9645486030042
 30
0.0
 11
460.132817310435
 21
613.6645486030045
 31
0.0
  0
CIRCLE
  5
A5
330
2
100
AcDbEntity
  8
4
100
AcDbCircle
 10
450.132817310435
 20
609.8145486030044
 30
0.0
 40
6.5
  0
LINE
  5
A6
330
2
100
AcDbEntity
  8
L-CENTER
 48
3.0
100
AcDbLine
 10
450.132817310435
 20
597.1668560860007
 30
0.0
 11
450.132817310435
 21
622.462241120008
 31
0.0
  0
LINE
  5
A7
330
2
100
AcDbEntity
  8
4
100
AcDbLine
 10
213.632817310435
 20
623.8145486030064
 30
0.0
 11
215.132817310435
 21
623.8145486030064
 31
0.0
  0
LINE
  5
A8
330
2
100
AcDbEntity
  8
4
100
AcDbLine
 10
206.632817310435
 20
622.804929659773
 30
0.0
 11
211.632817310435
 21
622.804929659773
 31
0.0
  0
LINE
  5
A9
330
2
100
AcDbEntity
  8
4
100
AcDbLine
 10
213.632817310435
 20
624.8145486030064
 30
0.0
 11
211.632817310435
 21
624.8145486030064
 31
0.0
  0
LINE
  5
AA
330
2
100
AcDbEntity
  8
4
100
AcDbLine
 10
213.632817310435
 20
595.8145486030064
 30
0.0
 11
215.132817310435
 21
595.8145486030064
 31
0.0
  0
LINE
  5
AB
330
2
100
AcDbEntity
  8
4
100
AcDbLine
 10
206.632817310435
 20
596.8241675462398
 30
0.0
 11
211.632817310435
 21
596.8241675462398
 31
0.0
  0
LINE
  5
AC
330
2
100
AcDbEntity
  8
4
100
AcDbLine
 10
211.632817310435
 20
594.8145486030064
 30
0.0
 11
213.632817310435
 21
594.8145486030064
 31
0.0
  0
LINE
  5
AD
330
2
100
AcDbEntity
  8
4
100
AcDbLine
 10
213.632817310435
 20
624.8145486030064
 30
0.0
 11
213.632817310435
 21
594.8145486030064
 31
0.0
  0
LINE
  5
AE
330
2
100
AcDbEntity
  8
4
100
AcDbLine
 10
211.632817310435
 20
624.8145486030064
 30
0.0
 11
211.632817310435
 21
594.8145486030064
 31
0.0
  0
LINE
  5
AF
330
2
100
AcDbEntity
  8
4
100
AcDbLine
 10
215.132817310435
 20
623.8145486030064
 30
0.0
 11
215.132817310435
 21
595.8145486030064
 31
0.0
  0
LINE
  5
B0
330
2
100
AcDbEntity
  8
4
100
AcDbLine
 10
206.632817310435
 20
622.804929659773
 30
0.0
 11
206.632817310435
 21
596.8241675462398
 31
0.0
  0
LINE
  5
B1
330
2
100
AcDbEntity
  8
4
100
AcDbLine
 10
218.1328173104347
 20
591.8145486030064
 30
0.0
 11
215.132817310435
 21
591.8145486030064
 31
0.0
  0
LINE
  5
B2
330
2
100
AcDbEntity
  8
4
100
AcDbLine
 10
218.1328173104347
 20
627.8145486030064
 30
0.0
 11
215.132817310435
 21
627.8145486030064
 31
0.0
  0
LINE
  5
B3
330
2
100
AcDbEntity
  8
4
100
AcDbLine
 10
215.132817310435
 20
591.8145486030064
 30
0.0
 11
215.132817310435
 21
627.8145486030062
 31
0.0
  0
LWPOLYLINE
  5
B4
330
2
100
AcDbEntity
  8
4
100
AcDbPolyline
 90
        6
 70
     1
 43
0.0
 10
293.6328173104345
 20
609.8145486030062
 10
287.3828173104347
 20
620.6398661503117
 10
274.8828173104347
 20
620.639866150312
 10
268.6328173104345
 20
609.8145486030066
 10
274.8828173104344
 20
598.9892310557011
 10
287.3828173104344
 20
598.9892310557009
  0
CIRCLE
  5
B5
330
2
100
AcDbEntity
  8
4
100
AcDbCircle
 10
281.1328173104345
 20
609.8145486030064
 30
0.0
 40
12.5
  0
CIRCLE
  5
B6
330
2
100
AcDbEntity
  8
4
100
AcDbCircle
 10
281.1328173104346
 20
609.8145486030064
 30
0.0
 40
19.0
  0
LINE
  5
B7
330
2
100
AcDbEntity
  8
L-CENTER
 48
3.0
100
AcDbLine
 10
281.1328173104346
 20
636.5209591225755
 30
0.0
 11
281.1328173104344
 21
583.108138083436
 31
0.0
  0
LINE
  5
B8
330
2
100
AcDbEntity
  8
4
100
AcDbLine
 10
294.6328173104334
 20
681.7867495678909
 30
0.0
 11
301.4331890603843
 21
682.9127127592758
 31
0.0
  0
LINE
  5
B9
330
2
100
AcDbEntity
  8
4
100
AcDbLine
 10
294.6328173104334
 20
683.3071715538256
 30
0.0
 11
301.867459738434
 21
684.5050385787902
 31
0.0
  0
LINE
  5
BA
330
2
100
AcDbEntity
  8
L-CENTER
 48
3.0
100
AcDbLine
 10
228.1328173104339
 20
653.8848669721126
 30
0.0
 11
228.1328173104333
 21
689.0855578016096
 31
0.0
  0
LINE
  5
BB
330
2
100
AcDbEntity
  8
L-CENTER
 48
3.0
100
AcDbLine
 10
288.1328173104339
 20
653.8848669721137
 30
0.0
 11
288.1328173104333
 21
689.085557801611
 31
0.0
  0
LINE
  5
BC
330
2
100
AcDbEntity
  8
4
100
AcDbLine
 10
401.6328173104351
 20
681.7867495678904
 30
0.0
 11
394.8324455604849
 21
682.9127127592758
 31
0.0
  0
LINE
  5
BD
330
2
100
AcDbEntity
  8
4
100
AcDbLine
 10
401.6328173104352
 20
683.3071715538265
 30
0.0
 11
394.3981748824355
 21
684.5050385787902
 31
0.0
  0
LINE
  5
BE
330
2
100
AcDbEntity
  8
L-CENTER
 48
3.0
100
AcDbLine
 10
408.1328173104353
 20
653.8848669721149
 30
0.0
 11
408.1328173104353
 21
689.0855578016119
 31
0.0
  0
LINE
  5
BF
330
2
100
AcDbEntity
  8
L-CENTER
 48
3.0
100
AcDbLine
 10
468.1328173104352
 20
653.8848669721149
 30
0.0
 11
468.1328173104352
 21
689.0855578016119
 31
0.0
  0
LINE
  5
C0
330
2
100
AcDbEntity
  8
4
100
AcDbLine
 10
328.1328173104351
 20
696.714548603006
 30
0.0
 11
328.1328173104352
 21
714.8145486030064
 31
0.0
  0
LINE
  5
C1
330
2
100
AcDbEntity
  8
4
100
AcDbLine
 10
329.1328173104352
 20
788.8145486030064
 30
0.0
 11
330.1328173104352
 21
789.8145486030064
 31
0.0
  0
LINE
  5
C2
330
2
100
AcDbEntity
  8
4
100
AcDbLine
 10
329.1328173104352
 20
788.8145486030064
 30
0.0
 11
343.1328173104352
 21
788.8145486030064
 31
0.0
  0
ARC
  5
C3
330
2
100
AcDbEntity
  8
4
100
AcDbCircle
 10
348.1328173104353
 20
724.8145486030064
 30
0.0
 40
5.0
100
AcDbArc
 50
180.0
 51
270.0
  0
LINE
  5
C4
330
2
100
AcDbEntity
  8
4
100
AcDbLine
 10
348.1328173104352
 20
719.8145486030064
 30
0.0
 11
348.1328173104352
 21
719.8145486030064
 31
0.0
  0
ARC
  5
C5
330
2
100
AcDbEntity
  8
4
100
AcDbCircle
 10
328.1328173104353
 20
715.8145486030064
 30
0.0
 40
1.0
100
AcDbArc
 50
270.0
 51
0.0
  0
LINE
  5
C6
330
2
100
AcDbEntity
  8
4
100
AcDbLine
 10
329.1328173104352
 20
715.8145486030064
 30
0.0
 11
329.1328173104352
 21
788.8145486030064
 31
0.0
  0
LINE
  5
C7
330
2
100
AcDbEntity
  8
4
100
AcDbLine
 10
343.1328173104352
 20
724.8145486030064
 30
0.0
 11
343.1328173104352
 21
789.8145486030064
 31
0.0
  0
LINE
  5
C8
330
2
100
AcDbEntity
  8
4
100
AcDbLine
 10
366.1328173104352
 20
789.8145486030064
 30
0.0
 11
367.1328173104352
 21
788.8145486030064
 31
0.0
  0
LINE
  5
C9
330
2
100
AcDbEntity
  8
4
100
AcDbLine
 10
353.1328173104352
 20
788.8145486030064
 30
0.0
 11
367.1328173104352
 21
788.8145486030064
 31
0.0
  0
LINE
  5
CA
330
2
100
AcDbEntity
  8
4
100
AcDbLine
 10
330.1328173104352
 20
789.8145486030064
 30
0.0
 11
366.1328173104352
 21
789.8145486030064
 31
0.0
  0
ARC
  5
CB
330
2
100
AcDbEntity
  8
4
100
AcDbCircle
 10
348.1328173104353
 20
724.8145486030064
 30
0.0
 40
5.0
100
AcDbArc
 50
270.0
 51
0.0
  0
ARC
  5
CC
330
2
100
AcDbEntity
  8
4
100
AcDbCircle
 10
368.1328173104353
 20
715.8145486030064
 30
0.0
 40
1.0
100
AcDbArc
 50
180.0
 51
270.0
  0
LINE
  5
CD
330
2
100
AcDbEntity
  8
4
100
AcDbLine
 10
368.1328173104351
 20
696.714548603006
 30
0.0
 11
368.1328173104352
 21
714.8145486030064
 31
0.0
  0
LINE
  5
CE
330
2
100
AcDbEntity
  8
4
100
AcDbLine
 10
328.1328173104352
 20
714.8145486030064
 30
0.0
 11
368.1328173104352
 21
714.8145486030064
 31
0.0
  0
LINE
  5
CF
330
2
100
AcDbEntity
  8
4
100
AcDbLine
 10
367.1328173104352
 20
715.8145486030064
 30
0.0
 11
367.1328173104352
 21
788.8145486030064
 31
0.0
  0
LINE
  5
D0
330
2
100
AcDbEntity
  8
4
100
AcDbLine
 10
353.1328173104352
 20
724.8145486030064
 30
0.0
 11
353.1328173104352
 21
789.8145486030064
 31
0.0
  0
LINE
  5
D1
330
2
100
AcDbEntity
  8
L-CENTER
 48
3.0
100
AcDbLine
 10
273.1328173104347
 20
686.3242846502787
 30
0.0
 11
273.1328173104347
 21
653.1019145515813
 31
0.0
  0
ARC
  5
D2
330
2
100
AcDbEntity
  8
4
100
AcDbCircle
 10
475.1328173104345
 20
676.1145486030066
 30
0.0
 40
1.0
100
AcDbArc
 50
0.0
 51
90.0
  0
ARC
  5
D3
330
2
100
AcDbEntity
  8
4
100
AcDbCircle
 10
389.3690214694354
 20
694.7145486030065
 30
0.0
 40
1.0
100
AcDbArc
 50
15.25511870304778
 51
90.0
  0
ARC
  5
D4
330
2
100
AcDbEntity
  8
4
100
AcDbCircle
 10
394.7248745198187
 20
686.478175002592
 30
0.0
 40
2.0
100
AcDbArc
 50
195.2551187030482
 51
260.5986145193421
  0
ARC
  5
D5
330
2
100
AcDbEntity
  8
4
100
AcDbCircle
 10
395.1591451978686
 20
684.8858491830772
 30
0.0
 40
2.0
100
AcDbArc
 50
195.2551187030482
 51
260.5986145193421
  0
LINE
  5
D6
330
2
100
AcDbEntity
  8
4
100
AcDbLine
 10
390.3337852906733
 20
694.9776660087989
 30
0.0
 11
392.7953468773434
 21
685.9519401910077
 31
0.0
  0
LINE
  5
D7
330
2
100
AcDbEntity
  8
4
100
AcDbLine
 10
379.1328173104347
 20
696.7145486030065
 30
0.0
 11
379.1328173104347
 21
695.7145486030065
 31
0.0
  0
LINE
  5
D8
330
2
100
AcDbEntity
  8
4
100
AcDbLine
 10
375.1328173104347
 20
684.714548603007
 30
0.0
 11
375.132817310435
 21
683.1222227834921
 31
0.0
  0
LINE
  5
D9
330
2
100
AcDbEntity
  8
4
100
AcDbLine
 10
375.1328173104347
 20
684.714548603007
 30
0.0
 11
370.1328173104347
 21
677.114548603007
 31
0.0
  0
LINE
  5
DA
330
2
100
AcDbEntity
  8
4
100
AcDbLine
 10
375.1328173104347
 20
683.1222227834926
 30
0.0
 11
371.1804000864308
 21
677.114548603007
 31
0.0
  0
LINE
  5
DB
330
2
100
AcDbEntity
  8
4
100
AcDbLine
 10
375.1328173104347
 20
683.1222227834926
 30
0.0
 11
392.8810437537931
 21
683.1222227834926
 31
0.0
  0
LINE
  5
DC
330
2
100
AcDbEntity
  8
4
100
AcDbLine
 10
317.1328173104347
 20
696.714548603006
 30
0.0
 11
317.132817310435
 21
695.714548603007
 31
0.0
  0
LINE
  5
DD
330
2
100
AcDbEntity
  8
4
100
AcDbLine
 10
321.1328173104347
 20
683.1222227834926
 30
0.0
 11
325.0852345344387
 21
677.114548603007
 31
0.0
  0
LINE
  5
DE
330
2
100
AcDbEntity
  8
4
100
AcDbLine
 10
321.1328173104347
 20
684.714548603007
 30
0.0
 11
326.1328173104347
 21
677.114548603007
 31
0.0
  0
LINE
  5
DF
330
2
100
AcDbEntity
  8
4
100
AcDbLine
 10
321.1328173104347
 20
684.714548603007
 30
0.0
 11
321.1328173104347
 21
683.1222227834926
 31
0.0
  0
ARC
  5
E0
330
2
100
AcDbEntity
  8
4
100
AcDbCircle
 10
306.8966131514337
 20
694.7145486030065
 30
0.0
 40
1.0
100
AcDbArc
 50
90.0
 51
164.7448812969522
  0
ARC
  5
E1
330
2
100
AcDbEntity
  8
4
100
AcDbCircle
 10
301.5407601010508
 20
686.478175002592
 30
0.0
 40
2.0
100
AcDbArc
 50
279.4013854806579
 51
344.7448812969518
  0
ARC
  5
E2
330
2
100
AcDbEntity
  8
4
100
AcDbCircle
 10
301.1064894230009
 20
684.8858491830772
 30
0.0
 40
2.0
100
AcDbArc
 50
279.4013854806579
 51
344.7448812969518
  0
LINE
  5
E3
330
2
100
AcDbEntity
  8
4
100
AcDbLine
 10
305.9318493301961
 20
694.9776660087989
 30
0.0
 11
303.4702877435261
 21
685.9519401910077
 31
0.0
  0
LINE
  5
E4
330
2
100
AcDbEntity
  8
4
100
AcDbLine
 10
302.6985466323851
 20
683.1222227834926
 30
0.0
 11
321.1328173104347
 21
683.1222227834926
 31
0.0
  0
LINE
  5
E5
330
2
100
AcDbEntity
  8
4
100
AcDbLine
 10
389.3690214694356
 20
695.7145486030065
 30
0.0
 11
306.8966131514339
 21
695.7145486030065
 31
0.0
  0
LINE
  5
E6
330
2
100
AcDbEntity
  8
4
100
AcDbLine
 10
379.1328173104347
 20
696.7145486030065
 30
0.0
 11
317.1328173104347
 21
696.714548603006
 31
0.0
  0
LINE
  5
E7
330
2
100
AcDbEntity
  8
4
100
AcDbLine
 10
321.1328173104347
 20
684.714548603007
 30
0.0
 11
375.1328173104347
 21
684.714548603007
 31
0.0
  0
LINE
  5
E8
330
2
100
AcDbEntity
  8
4
100
AcDbLine
 10
259.1328173104347
 20
681.2145486030065
 30
0.0
 11
259.1328173104347
 21
678.2773435881661
 31
0.0
  0
ARC
  5
E9
330
2
100
AcDbEntity
  8
4
100
AcDbCircle
 10
260.1328173104345
 20
681.2145486030065
 30
0.0
 40
1.0
100
AcDbArc
 50
90.0
 51
180.0
  0
ARC
  5
EA
330
2
100
AcDbEntity
  8
4
100
AcDbCircle
 10
258.1328173104345
 20
678.2773435881661
 30
0.0
 40
1.0
100
AcDbArc
 50
279.4013854806595
 51
0.0
  0
ARC
  5
EB
330
2
100
AcDbEntity
  8
4
100
AcDbCircle
 10
221.1328173104345
 20
676.1145486030066
 30
0.0
 40
1.0
100
AcDbArc
 50
90.0
 51
180.0
  0
LINE
  5
EC
330
2
100
AcDbEntity
  8
4
100
AcDbLine
 10
281.6328173104334
 20
682.2145486030065
 30
0.0
 11
260.1328173104347
 21
682.2145486030065
 31
0.0
  0
LINE
  5
ED
330
2
100
AcDbEntity
  8
4
100
AcDbLine
 10
257.2318272114268
 20
677.1145486030066
 30
0.0
 11
281.6328173104334
 21
681.1547125374325
 31
0.0
  0
LINE
  5
EE
330
2
100
AcDbEntity
  8
4
100
AcDbLine
 10
266.4145738591566
 20
677.114548603007
 30
0.0
 11
281.6328173104334
 21
679.6342905514973
 31
0.0
  0
LINE
  5
EF
330
2
100
AcDbEntity
  8
4
100
AcDbLine
 10
475.1328173104345
 20
677.1145486030066
 30
0.0
 11
221.1328173104347
 21
677.1145486030066
 31
0.0
  0
LINE
  5
F0
330
2
100
AcDbEntity
  8
4
100
AcDbLine
 10
439.0338074094433
 20
677.1145486030066
 30
0.0
 11
414.6328173104353
 21
681.1547125374329
 31
0.0
  0
LINE
  5
F1
330
2
100
AcDbEntity
  8
4
100
AcDbLine
 10
429.8510607617131
 20
677.114548603007
 30
0.0
 11
414.6328173104352
 21
679.6342905514973
 31
0.0
  0
LINE
  5
F2
330
2
100
AcDbEntity
  8
4
100
AcDbLine
 10
220.1328173104344
 20
559.8145486030064
 30
0.0
 11
220.1328173104344
 21
550.8145486030062
 31
0.0
  0
LINE
  5
F3
330
2
100
AcDbEntity
  8
4
100
AcDbLine
 10
476.1328173104344
 20
559.814548603006
 30
0.0
 11
476.1328173104344
 21
550.8145486030062
 31
0.0
  0
LINE
  5
F4
330
2
100
AcDbEntity
  8
4
100
AcDbLine
 10
476.1328173104347
 20
676.1145486030066
 30
0.0
 11
476.1328173104349
 21
659.8145486030069
 31
0.0
  0
LINE
  5
F5
330
2
100
AcDbEntity
  8
4
100
AcDbLine
 10
220.1328173104347
 20
676.1145486030066
 30
0.0
 11
220.1328173104347
 21
659.8145486030064
 31
0.0
  0
LINE
  5
F6
330
2
100
AcDbEntity
  8
4
100
AcDbLine
 10
478.132817310431
 20
592.3145486030062
 30
0.0
 11
478.1328173104292
 21
559.814548603006
 31
0.0
  0
LINE
  5
F7
330
2
100
AcDbEntity
  8
4
100
AcDbLine
 10
477.1328173104344
 20
592.3145486030064
 30
0.0
 11
498.1328173104345
 21
592.3145486030062
 31
0.0
  0
LINE
  5
F8
330
2
100
AcDbEntity
  8
4
100
AcDbLine
 10
477.1328173104344
 20
627.3145486030062
 30
0.0
 11
498.1328173104345
 21
627.3145486030062
 31
0.0
  0
LINE
  5
F9
330
2
100
AcDbEntity
  8
4
100
AcDbLine
 10
557.1328173104346
 20
623.3145486030062
 30
0.0
 11
558.1328173104346
 21
622.3145486030062
 31
0.0
  0
LINE
  5
FA
330
2
100
AcDbEntity
  8
4
100
AcDbLine
 10
557.1328173104346
 20
623.3145486030062
 30
0.0
 11
557.1328173104346
 21
613.3145486030062
 31
0.0
  0
LINE
  5
FB
330
2
100
AcDbEntity
  8
4
100
AcDbLine
 10
557.1328173104346
 20
606.3145486030062
 30
0.0
 11
557.1328173104346
 21
596.3145486030064
 31
0.0
  0
LINE
  5
FC
330
2
100
AcDbEntity
  8
4
100
AcDbLine
 10
557.1328173104346
 20
596.3145486030062
 30
0.0
 11
558.1328173104346
 21
597.3145486030062
 31
0.0
  0
LINE
  5
FD
330
2
100
AcDbEntity
  8
4
100
AcDbLine
 10
558.1328173104346
 20
622.3145486030062
 30
0.0
 11
558.1328173104346
 21
597.3145486030062
 31
0.0
  0
ARC
  5
FE
330
2
100
AcDbEntity
  8
4
100
AcDbCircle
 10
499.1328173104345
 20
624.3145486030062
 30
0.0
 40
1.0
100
AcDbArc
 50
180.0
 51
270.0
  0
ARC
  5
FF
330
2
100
AcDbEntity
  8
4
100
AcDbCircle
 10
499.1328173104345
 20
595.3145486030062
 30
0.0
 40
1.0
100
AcDbArc
 50
90.0
 51
180.0
  0
LINE
  5
100
330
2
100
AcDbEntity
  8
4
100
AcDbLine
 10
498.1328173104345
 20
627.3145486030062
 30
0.0
 11
498.1328173104345
 21
592.3145486030062
 31
0.0
  0
ARC
  5
101
330
2
100
AcDbEntity
  8
4
100
AcDbCircle
 10
506.6328173104345
 20
609.8145486030062
 30
0.0
 40
3.5
100
AcDbArc
 50
90.0
 51
270.0
  0
LINE
  5
102
330
2
100
AcDbEntity
  8
4
100
AcDbLine
 10
506.6328173104345
 20
606.3145486030062
 30
0.0
 11
558.1328173104346
 21
606.3145486030062
 31
0.0
  0
LINE
  5
103
330
2
100
AcDbEntity
  8
4
100
AcDbLine
 10
506.6328173104345
 20
613.3145486030062
 30
0.0
 11
558.1328173104346
 21
613.3145486030062
 31
0.0
  0
LINE
  5
104
330
2
100
AcDbEntity
  8
4
100
AcDbLine
 10
499.1328173104345
 20
596.3145486030062
 30
0.0
 11
557.1328173104346
 21
596.3145486030062
 31
0.0
  0
LINE
  5
105
330
2
100
AcDbEntity
  8
4
100
AcDbLine
 10
499.1328173104345
 20
623.3145486030062
 30
0.0
 11
557.1328173104346
 21
623.3145486030062
 31
0.0
  0
LINE
  5
106
330
2
100
AcDbEntity
  8
4
100
AcDbLine
 10
477.1328173104345
 20
645.8145486030062
 30
0.0
 11
477.1328173104345
 21
573.8145486030062
 31
0.0
  0
LINE
  5
107
330
2
100
AcDbEntity
  8
4
100
AcDbLine
 10
476.1328173104345
 20
573.814548603006
 30
0.0
 11
477.1328173104345
 21
573.8145486030062
 31
0.0
  0
LINE
  5
108
330
2
100
AcDbEntity
  8
4
100
AcDbLine
 10
476.1328173104345
 20
645.8145486030062
 30
0.0
 11
477.1328173104345
 21
645.8145486030062
 31
0.0
  0
LINE
  5
109
330
2
100
AcDbEntity
  8
4
100
AcDbLine
 10
220.1328173104345
 20
645.8145486030062
 30
0.0
 11
219.1328173104345
 21
645.8145486030062
 31
0.0
  0
LINE
  5
10A
330
2
100
AcDbEntity
  8
4
100
AcDbLine
 10
220.1328173104345
 20
573.814548603006
 30
0.0
 11
219.1328173104345
 21
573.8145486030062
 31
0.0
  0
LINE
  5
10B
330
2
100
AcDbEntity
  8
4
100
AcDbLine
 10
219.1328173104345
 20
645.8145486030062
 30
0.0
 11
219.1328173104345
 21
573.8145486030062
 31
0.0
  0
LINE
  5
10C
330
2
100
AcDbEntity
  8
4
100
AcDbLine
 10
223.1328173104344
 20
561.8145486030064
 30
0.0
 11
220.1328173104344
 21
561.8145486030064
 31
0.0
  0
LINE
  5
10D
330
2
100
AcDbEntity
  8
4
100
AcDbLine
 10
223.1328173104347
 20
657.8145486030064
 30
0.0
 11
220.1328173104347
 21
657.8145486030064
 31
0.0
  0
LINE
  5
10E
330
2
100
AcDbEntity
  8
4
100
AcDbLine
 10
476.1328173104349
 20
657.8145486030064
 30
0.0
 11
476.1328173104346
 21
561.8145486030062
 31
0.0
  0
LINE
  5
10F
330
2
100
AcDbEntity
  8
4
100
AcDbLine
 10
220.1328173104347
 20
657.8145486030064
 30
0.0
 11
220.1328173104344
 21
561.8145486030064
 31
0.0
  0
LINE
  5
110
330
2
100
AcDbEntity
  8
4
100
AcDbLine
 10
476.1328173104344
 20
561.8145486030064
 30
0.0
 11
473.1328173104344
 21
561.8145486030064
 31
0.0
  0
LINE
  5
111
330
2
100
AcDbEntity
  8
4
100
AcDbLine
 10
476.1328173104347
 20
657.8145486030064
 30
0.0
 11
473.1328173104347
 21
657.8145486030064
 31
0.0
  0
LINE
  5
112
330
2
100
AcDbEntity
  8
4
100
AcDbLine
 10
478.1328173104349
 20
659.8145486030069
 30
0.0
 11
478.132817310433
 21
627.3145486030062
 31
0.0
  0
LINE
  5
113
330
2
100
AcDbEntity
  8
4
100
AcDbLine
 10
218.1328173104347
 20
659.8145486030064
 30
0.0
 11
218.1328173104347
 21
559.8145486030062
 31
0.0
  0
LINE
  5
114
330
2
100
AcDbEntity
  8
4
100
AcDbLine
 10
473.1328173104346
 20
658.8145486030073
 30
0.0
 11
473.1328173104344
 21
560.8145486030069
 31
0.0
  0
LINE
  5
115
330
2
100
AcDbEntity
  8
4
100
AcDbLine
 10
223.1328173104347
 20
658.8145486030064
 30
0.0
 11
223.1328173104344
 21
560.8145486030064
 31
0.0
  0
ARC
  5
116
330
2
100
AcDbEntity
  8
4
100
AcDbCircle
 10
493.1328173104343
 20
694.8145486030064
 30
0.0
 40
5.0
100
AcDbArc
 50
0.0
 51
90.0
  0
ARC
  5
117
330
2
100
AcDbEntity
  8
4
100
AcDbCircle
 10
448.1328173104343
 20
694.8145486030064
 30
0.0
 40
5.0
100
AcDbArc
 50
90.0
 51
180.0
  0
LINE
  5
118
330
2
100
AcDbEntity
  8
L-CENTER
 48
3.0
100
AcDbLine
 10
478.1328173104343
 20
694.9345486030063
 30
0.0
 11
478.1328173104343
 21
664.6945486030061
 31
0.0
  0
ARC
  5
119
330
2
100
AcDbEntity
  8
4
100
AcDbCircle
 10
478.1328173104343
 20
679.8145486030064
 30
0.0
 40
9.0
100
AcDbArc
 50
257.1604115930984
 51
125.7953675436853
  0
LINE
  5
11A
330
2
100
AcDbEntity
  8
4
100
AcDbLine
 10
443.1328173104343
 20
677.1145486030066
 30
0.0
 11
443.1328173104343
 21
694.8145486030064
 31
0.0
  0
LINE
  5
11B
330
2
100
AcDbEntity
  8
L-CENTER
 48
3.0
100
AcDbLine
 10
493.2528173104342
 20
679.8145486030064
 30
0.0
 11
463.0128173104344
 21
679.8145486030064
 31
0.0
  0
LINE
  5
11C
330
2
100
AcDbEntity
  8
4
100
AcDbLine
 10
493.1328173104343
 20
699.8145486030064
 30
0.0
 11
448.1328173104343
 21
699.8145486030064
 31
0.0
  0
ARC
  5
11D
330
2
100
AcDbEntity
  8
4
100
AcDbCircle
 10
248.1328173104347
 20
694.8145486030064
 30
0.0
 40
5.0
100
AcDbArc
 50
0.0
 51
90.0
  0
LINE
  5
11E
330
2
100
AcDbEntity
  8
L-CENTER
 48
3.0
100
AcDbLine
 10
218.1328173104343
 20
694.9345486030063
 30
0.0
 11
218.1328173104343
 21
664.6945486030065
 31
0.0
  0
ARC
  5
11F
330
2
100
AcDbEntity
  8
4
100
AcDbCircle
 10
218.1328173104343
 20
679.8145486030064
 30
0.0
 40
9.0
100
AcDbArc
 50
54.20463245631456
 51
282.8395884069076
  0
LINE
  5
120
330
2
100
AcDbEntity
  8
4
100
AcDbLine
 10
253.1328173104343
 20
677.1145486030066
 30
0.0
 11
253.1328173104343
 21
694.8145486030064
 31
0.0
  0
ARC
  5
121
330
2
100
AcDbEntity
  8
4
100
AcDbCircle
 10
203.1328173104347
 20
694.8145486030064
 30
0.0
 40
5.0
100
AcDbArc
 50
90.0
 51
180.0
  0
LINE
  5
122
330
2
100
AcDbEntity
  8
L-CENTER
 48
3.0
100
AcDbLine
 10
233.2528173104346
 20
679.8145486030064
 30
0.0
 11
203.0128173104344
 21
679.8145486030064
 31
0.0
  0
LINE
  5
123
330
2
100
AcDbEntity
  8
4
100
AcDbLine
 10
248.1328173104347
 20
699.8145486030064
 30
0.0
 11
203.1328173104347
 21
699.8145486030064
 31
0.0
  0
LINE
  5
124
330
2
100
AcDbEntity
  8
L-CENTER
 48
3.0
100
AcDbLine
 10
564.4002935649967
 20
609.8145486030035
 30
0.0
 11
188.1328173104343
 21
609.8145486030064
 31
0.0
  0
LINE
  5
125
330
2
100
AcDbEntity
  8
4
100
AcDbLine
 10
473.1328173104347
 20
658.8145486030073
 30
0.0
 11
223.1328173104347
 21
658.8145486030064
 31
0.0
  0
LINE
  5
126
330
2
100
AcDbEntity
  8
4
100
AcDbLine
 10
478.1328173104349
 20
659.8145486030069
 30
0.0
 11
218.1328173104347
 21
659.8145486030064
 31
0.0
  0
LINE
  5
127
330
2
100
AcDbEntity
  8
4
100
AcDbLine
 10
476.1328173104349
 20
665.8145486030069
 30
0.0
 11
220.1328173104347
 21
665.8145486030064
 31
0.0
  0
ARC
  5
128
330
2
100
AcDbEntity
  8
4
100
AcDbCircle
 10
493.1328173104343
 20
524.8145486030062
 30
0.0
 40
5.0
100
AcDbArc
 50
270.0
 51
0.0
  0
ARC
  5
129
330
2
100
AcDbEntity
  8
4
100
AcDbCircle
 10
448.1328173104343
 20
524.8145486030062
 30
0.0
 40
5.0
100
AcDbArc
 50
180.0
 51
270.0
  0
LINE
  5
12A
330
2
100
AcDbEntity
  8
L-CENTER
 48
3.0
100
AcDbLine
 10
478.1328173104343
 20
554.9345486030063
 30
0.0
 11
478.1328173104343
 21
524.6945486030061
 31
0.0
  0
CIRCLE
  5
12B
330
2
100
AcDbEntity
  8
4
100
AcDbCircle
 10
478.1328173104343
 20
539.8145486030062
 30
0.0
 40
9.0
  0
LINE
  5
12C
330
2
100
AcDbEntity
  8
4
100
AcDbLine
 10
443.1328173104343
 20
524.8145486030064
 30
0.0
 11
443.1328173104344
 21
549.1062152696725
 31
0.0
  0
LINE
  5
12D
330
2
100
AcDbEntity
  8
4
100
AcDbLine
 10
493.1328173104343
 20
519.8145486030062
 30
0.0
 11
448.1328173104343
 21
519.8145486030062
 31
0.0
  0
LINE
  5
12E
330
2
100
AcDbEntity
  8
L-CENTER
 48
3.0
100
AcDbLine
 10
493.2528173104342
 20
539.8145486030062
 30
0.0
 11
463.0128173104344
 21
539.8145486030062
 31
0.0
  0
ARC
  5
12F
330
2
100
AcDbEntity
  8
4
100
AcDbCircle
 10
395.7677317303837
 20
533.2080653088246
 30
0.0
 40
2.0
100
AcDbArc
 50
106.2602047083099
 51
164.7448812969518
  0
ARC
  5
130
330
2
100
AcDbEntity
  8
4
100
AcDbCircle
 10
390.3690214694352
 20
524.8145486030064
 30
0.0
 40
1.0
100
AcDbArc
 50
270.0
 51
344.7448812969523
  0
LINE
  5
131
330
2
100
AcDbEntity
  8
4
100
AcDbLine
 10
391.3337852906729
 20
524.5514311972142
 30
0.0
 11
393.8382040879082
 21
533.7343001204088
 31
0.0
  0
ARC
  5
132
330
2
100
AcDbEntity
  8
4
100
AcDbCircle
 10
300.4979028904854
 20
533.2080653088246
 30
0.0
 40
2.0
100
AcDbArc
 50
15.25511870304819
 51
73.73979529169013
  0
ARC
  5
133
330
2
100
AcDbEntity
  8
4
100
AcDbCircle
 10
305.8966131514334
 20
524.8145486030064
 30
0.0
 40
1.0
100
AcDbArc
 50
195.2551187030478
 51
270.0
  0
LINE
  5
134
330
2
100
AcDbEntity
  8
4
100
AcDbLine
 10
304.9318493301957
 20
524.5514311972142
 30
0.0
 11
302.4274305329608
 21
533.7343001204088
 31
0.0
  0
LINE
  5
135
330
2
100
AcDbEntity
  8
4
100
AcDbLine
 10
305.8966131514334
 20
523.8145486030064
 30
0.0
 11
390.3690214694352
 21
523.8145486030062
 31
0.0
  0
LINE
  5
136
330
2
100
AcDbEntity
  8
4
100
AcDbLine
 10
302.1328173104343
 20
534.8145486030062
 30
0.0
 11
394.5764251260557
 21
534.8145486030062
 31
0.0
  0
LINE
  5
137
330
2
100
AcDbEntity
  8
4
100
AcDbLine
 10
443.6328173104339
 20
550.8145486030062
 30
0.0
 11
388.7756744532916
 21
534.8145486030062
 31
0.0
  0
LINE
  5
138
330
2
100
AcDbEntity
  8
4
100
AcDbLine
 10
448.9899601675773
 20
550.814548603006
 30
0.0
 11
395.2077317303833
 21
535.1280653088245
 31
0.0
  0
ARC
  5
139
330
2
100
AcDbEntity
  8
4
100
AcDbCircle
 10
248.1328173104343
 20
524.8145486030064
 30
0.0
 40
5.0
100
AcDbArc
 50
270.0
 51
0.0
  0
CIRCLE
  5
13A
330
2
100
AcDbEntity
  8
4
100
AcDbCircle
 10
218.1328173104343
 20
539.8145486030064
 30
0.0
 40
9.0
  0
LINE
  5
13B
330
2
100
AcDbEntity
  8
L-CENTER
 48
3.0
100
AcDbLine
 10
218.1328173104343
 20
554.9345486030063
 30
0.0
 11
218.1328173104343
 21
524.6945486030063
 31
0.0
  0
LINE
  5
13C
330
2
100
AcDbEntity
  8
4
100
AcDbLine
 10
253.1328173104347
 20
524.8145486030064
 30
0.0
 11
253.1328173104344
 21
549.1062152696725
 31
0.0
  0
ARC
  5
13D
330
2
100
AcDbEntity
  8
4
100
AcDbCircle
 10
203.1328173104343
 20
524.8145486030064
 30
0.0
 40
5.0
100
AcDbArc
 50
180.0
 51
270.0
  0
LINE
  5
13E
330
2
100
AcDbEntity
  8
L-CENTER
 48
3.0
100
AcDbLine
 10
233.2528173104342
 20
539.8145486030064
 30
0.0
 11
203.0128173104344
 21
539.8145486030064
 31
0.0
  0
LINE
  5
13F
330
2
100
AcDbEntity
  8
4
100
AcDbLine
 10
248.1328173104343
 20
519.8145486030064
 30
0.0
 11
203.1328173104343
 21
519.8145486030064
 31
0.0
  0
LINE
  5
140
330
2
100
AcDbEntity
  8
4
100
AcDbLine
 10
473.1328173104344
 20
560.8145486030066
 30
0.0
 11
223.1328173104343
 21
560.8145486030066
 31
0.0
  0
LINE
  5
141
330
2
100
AcDbEntity
  8
4
100
AcDbLine
 10
478.1328173104344
 20
559.814548603006
 30
0.0
 11
218.1328173104344
 21
559.8145486030062
 31
0.0
  0
LINE
  5
142
330
2
100
AcDbEntity
  8
4
100
AcDbLine
 10
476.1328173104344
 20
550.8145486030062
 30
0.0
 11
220.1328173104344
 21
550.8145486030062
 31
0.0
  0
LINE
  5
143
330
2
100
AcDbEntity
  8
4
100
AcDbLine
 10
247.2756744532913
 20
550.814548603006
 30
0.0
 11
301.0579028904853
 21
535.1280653088245
 31
0.0
  0
LINE
  5
144
330
2
100
AcDbEntity
  8
4
100
AcDbLine
 10
252.6328173104346
 20
550.8145486030062
 30
0.0
 11
307.4899601675774
 21
534.8145486030062
 31
0.0
  0
LINE
  5
145
330
2
100
AcDbEntity
  8
4
100
AcDbLine
 10
198.1328173104347
 20
694.8145486030064
 30
0.0
 11
198.1328173104343
 21
524.8145486030064
 31
0.0
  0
LINE
  5
146
330
2
100
AcDbEntity
  8
L-CENTER
 48
3.0
100
AcDbLine
 10
348.1328173104351
 20
795.7647841512342
 30
0.0
 11
348.1328173104343
 21
512.6530509459319
 31
0.0
  0
LINE
  5
147
330
2
100
AcDbEntity
  8
4
100
AcDbLine
 10
498.1328173104343
 20
694.8145486030064
 30
0.0
 11
498.1328173104343
 21
524.8145486030062
 31
0.0
  0
ARC
  5
15C
330
2
100
AcDbEntity
  8
4
100
AcDbCircle
 10
896.1577306388933
 20
326.9241460151745
 30
0.0
 40
1.0
100
AcDbArc
 50
0.0
 51
90.0
  0
LINE
  5
15D
330
2
100
AcDbEntity
  8
4
100
AcDbLine
 10
879.8577306388931
 20
327.9241460151745
 30
0.0
 11
879.8577306388931
 21
329.9241460151745
 31
0.0
  0
LINE
  5
15E
330
2
100
AcDbEntity
  8
4
100
AcDbLine
 10
878.7877236374927
 20
329.9241460151745
 30
0.0
 11
879.8577306388931
 21
329.9241460151745
 31
0.0
  0
LINE
  5
15F
330
2
100
AcDbEntity
  8
4
100
AcDbLine
 10
879.8577306388931
 20
327.9241460151745
 30
0.0
 11
885.8577306388931
 21
327.9241460151745
 31
0.0
  0
LINE
  5
160
330
2
100
AcDbEntity
  8
4
100
AcDbLine
 10
896.1577306388933
 20
327.9241460151745
 30
0.0
 11
885.8577306388931
 21
327.9241460151745
 31
0.0
  0
ARC
  5
161
330
2
100
AcDbEntity
  8
4
100
AcDbCircle
 10
528.857730638893
 20
322.9241460151745
 30
0.0
 40
350.0
100
AcDbArc
 50
0.0
 51
6.908068832753678
  0
LINE
  5
163
330
2
100
AcDbEntity
  8
L-CENTER
 48
3.0
100
AcDbLine
 10
873.9280490080012
 20
303.8471944545593
 30
0.0
 11
909.1287398374982
 21
303.8471944545593
 31
0.0
  0
ARC
  5
164
330
2
100
AcDbEntity
  8
4
100
AcDbCircle
 10
914.7577306388932
 20
241.1603501741754
 30
0.0
 40
1.0
100
AcDbArc
 50
0.0
 51
74.74488129694508
  0
ARC
  5
165
330
2
100
AcDbEntity
  8
4
100
AcDbCircle
 10
906.5213570384788
 20
246.5162032245587
 30
0.0
 40
2.0
100
AcDbArc
 50
189.4013854806434
 51
254.7448812969418
  0
ARC
  5
166
330
2
100
AcDbEntity
  8
4
100
AcDbCircle
 10
904.9290312189635
 20
246.9504739026083
 30
0.0
 40
2.0
100
AcDbArc
 50
189.4013854806434
 51
254.7448812969418
  0
LINE
  5
167
330
2
100
AcDbEntity
  8
4
100
AcDbLine
 10
905.9951222268944
 20
244.5866755820832
 30
0.0
 11
904.4027964073796
 21
245.0209462601329
 31
0.0
  0
LINE
  5
168
330
2
100
AcDbEntity
  8
4
100
AcDbLine
 10
915.0208480446856
 20
242.1251139954131
 30
0.0
 11
904.4027964073791
 21
245.0209462601331
 31
0.0
  0
LINE
  5
169
330
2
100
AcDbEntity
  8
4
100
AcDbLine
 10
897.1577306388929
 20
290.8251361141847
 30
0.0
 11
904.5482206146769
 21
246.1895035871751
 31
0.0
  0
LINE
  5
16A
330
2
100
AcDbEntity
  8
4
100
AcDbLine
 10
897.1577306388933
 20
281.6423894664526
 30
0.0
 11
902.9558947951621
 21
246.6237742652249
 31
0.0
  0
LINE
  5
170
330
2
100
AcDbEntity
  8
4
100
AcDbLine
 10
1009.857730638893
 20
181.9241460151743
 30
0.0
 11
1009.857730638893
 21
222.4241460151745
 31
0.0
  0
LINE
  5
171
330
2
100
AcDbEntity
  8
4
100
AcDbLine
 10
939.8577306388927
 20
218.9241460151745
 30
0.0
 11
939.8577306388927
 21
222.4241460151745
 31
0.0
  0
LINE
  5
172
330
2
100
AcDbEntity
  8
4
100
AcDbLine
 10
934.8577306388927
 20
179.9241460151745
 30
0.0
 11
934.8577306388927
 21
219.9241460151745
 31
0.0
  0
LINE
  5
173
330
2
100
AcDbEntity
  8
4
100
AcDbLine
 10
915.7577306388932
 20
230.9241460151745
 30
0.0
 11
916.7577306388932
 21
230.9241460151745
 31
0.0
  0
LINE
  5
174
330
2
100
AcDbEntity
  8
4
100
AcDbLine
 10
903.1654048193789
 20
226.9241460151745
 30
0.0
 11
897.1577306388933
 21
222.9717287911706
 31
0.0
  0
LINE
  5
175
330
2
100
AcDbEntity
  8
4
100
AcDbLine
 10
904.7577306388932
 20
226.9241460151745
 30
0.0
 11
897.1577306388933
 21
221.9241460151745
 31
0.0
  0
LINE
  5
176
330
2
100
AcDbEntity
  8
4
100
AcDbLine
 10
904.7577306388932
 20
226.9241460151745
 30
0.0
 11
903.1654048193789
 21
226.9241460151745
 31
0.0
  0
LINE
  5
177
330
2
100
AcDbEntity
  8
4
100
AcDbLine
 10
915.7577306388932
 20
168.9241460151745
 30
0.0
 11
916.7577306388928
 21
168.9241460151745
 31
0.0
  0
LINE
  5
178
330
2
100
AcDbEntity
  8
4
100
AcDbLine
 10
904.7577306388932
 20
172.9241460151745
 30
0.0
 11
903.1654048193784
 21
172.9241460151743
 31
0.0
  0
LINE
  5
179
330
2
100
AcDbEntity
  8
4
100
AcDbLine
 10
904.7577306388932
 20
172.9241460151745
 30
0.0
 11
897.1577306388933
 21
177.9241460151745
 31
0.0
  0
LINE
  5
17A
330
2
100
AcDbEntity
  8
4
100
AcDbLine
 10
903.1654048193789
 20
172.9241460151745
 30
0.0
 11
897.1577306388933
 21
176.8765632391785
 31
0.0
  0
LINE
  5
17B
330
2
100
AcDbEntity
  8
4
100
AcDbLine
 10
916.7577306388928
 20
168.9241460151745
 30
0.0
 11
916.7577306388932
 21
230.9241460151745
 31
0.0
  0
LINE
  5
17C
330
2
100
AcDbEntity
  8
4
100
AcDbLine
 10
904.7577306388932
 20
226.9241460151745
 30
0.0
 11
904.7577306388932
 21
206.4241460151745
 31
0.0
  0
LINE
  5
17D
330
2
100
AcDbEntity
  8
4
100
AcDbLine
 10
916.7577306388932
 20
219.9241460151745
 30
0.0
 11
934.8577306388936
 21
219.9241460151745
 31
0.0
  0
LINE
  5
17E
330
2
100
AcDbEntity
  8
4
100
AcDbLine
 10
916.7577306388932
 20
179.9241460151745
 30
0.0
 11
934.8577306388936
 21
179.9241460151745
 31
0.0
  0
ARC
  5
17F
330
2
100
AcDbEntity
  8
4
100
AcDbCircle
 10
914.7577306388932
 20
158.6879418561737
 30
0.0
 40
1.0
100
AcDbArc
 50
285.2551187030549
 51
0.0
  0
ARC
  5
180
330
2
100
AcDbEntity
  8
4
100
AcDbCircle
 10
906.5213570384788
 20
153.3320888057904
 30
0.0
 40
2.0
100
AcDbArc
 50
105.2551187030583
 51
170.5986145193566
  0
ARC
  5
181
330
2
100
AcDbEntity
  8
4
100
AcDbCircle
 10
904.9290312189635
 20
152.8978181277407
 30
0.0
 40
2.0
100
AcDbArc
 50
105.2551187030583
 51
170.5986145193566
  0
LINE
  5
182
330
2
100
AcDbEntity
  8
4
100
AcDbLine
 10
905.9951222268944
 20
155.2616164482658
 30
0.0
 11
904.4027964073796
 21
154.8273457702162
 31
0.0
  0
LINE
  5
183
330
2
100
AcDbEntity
  8
4
100
AcDbLine
 10
915.0208480446856
 20
157.7231780349359
 30
0.0
 11
905.9951222268944
 21
155.2616164482658
 31
0.0
  0
LINE
  5
184
330
2
100
AcDbEntity
  8
L-CENTER
 48
3.0
100
AcDbLine
 10
873.9280490080012
 20
96.00109754628807
 30
0.0
 11
909.1287398374982
 21
96.00109754628807
 31
0.0
  0
LINE
  5
185
330
2
100
AcDbEntity
  8
4
100
AcDbLine
 10
897.1577306388929
 20
109.0231559161643
 30
0.0
 11
904.5482206146769
 21
153.6587884431738
 31
0.0
  0
LINE
  5
186
330
2
100
AcDbEntity
  8
4
100
AcDbLine
 10
897.1577306388933
 20
118.2059025638964
 30
0.0
 11
902.9558947951621
 21
153.2245177651243
 31
0.0
  0
LINE
  5
187
330
2
100
AcDbEntity
  8
4
100
AcDbLine
 10
903.1654048193789
 20
172.9241460151745
 30
0.0
 11
903.1654048193789
 21
155.1759195718162
 31
0.0
  0
LINE
  5
188
330
2
100
AcDbEntity
  8
4
100
AcDbLine
 10
939.8577306388927
 20
222.4241460151745
 30
0.0
 11
1009.857730638893
 21
222.4241460151745
 31
0.0
  0
LINE
  5
189
330
2
100
AcDbEntity
  8
4
100
AcDbLine
 10
934.8577306388936
 20
180.9241460151745
 30
0.0
 11
1008.857730638893
 21
180.9241460151745
 31
0.0
  0
LINE
  5
18A
330
2
100
AcDbEntity
  8
4
100
AcDbLine
 10
934.8577306388936
 20
218.9241460151745
 30
0.0
 11
1008.857730638893
 21
218.9241460151745
 31
0.0
  0
LINE
  5
18B
330
2
100
AcDbEntity
  8
4
100
AcDbLine
 10
915.7577306388932
 20
158.6879418561737
 30
0.0
 11
915.7577306388932
 21
241.1603501741754
 31
0.0
  0
LINE
  5
18C
330
2
100
AcDbEntity
  8
4
100
AcDbLine
 10
903.1654048193789
 20
245.3584166932242
 30
0.0
 11
903.1654048193789
 21
226.9241460151745
 31
0.0
  0
LINE
  5
193
330
2
100
AcDbEntity
  8
4
100
AcDbLine
 10
840.8577306388931
 20
377.4241460151745
 30
0.0
 11
840.8577306388931
 21
381.4241460151745
 31
0.0
  0
LINE
  5
194
330
2
100
AcDbEntity
  8
4
100
AcDbLine
 10
842.3577306388931
 20
377.4241460151745
 30
0.0
 11
842.3577306388931
 21
375.4241460151745
 31
0.0
  0
LINE
  5
195
330
2
100
AcDbEntity
  8
4
100
AcDbLine
 10
834.8577306388931
 20
379.9241460151745
 30
0.0
 11
834.8577306388931
 21
376.9241460151745
 31
0.0
  0
LINE
  5
196
330
2
100
AcDbEntity
  8
4
100
AcDbLine
 10
836.3579756388933
 20
380.9241460151745
 30
0.0
 11
836.3579756388933
 21
379.9241460151745
 31
0.0
  0
LINE
  5
197
330
2
100
AcDbEntity
  8
4
100
AcDbLine
 10
842.3577306388931
 20
377.4241460151745
 30
0.0
 11
834.8577306388927
 21
377.4241460151743
 31
0.0
  0
LINE
  5
198
330
2
100
AcDbEntity
  8
4
100
AcDbLine
 10
842.3577306388931
 20
375.4241460151745
 30
0.0
 11
834.6577806388934
 21
375.4241460151748
 31
0.0
  0
LINE
  5
19A
330
2
100
AcDbEntity
  8
4
100
AcDbLine
 10
824.8577306388931
 20
379.9241460151745
 30
0.0
 11
824.8577306388931
 21
376.9241460151745
 31
0.0
  0
LINE
  5
19B
330
2
100
AcDbEntity
  8
4
100
AcDbLine
 10
823.3577306388931
 20
380.9241460151745
 30
0.0
 11
823.3577306388931
 21
379.9241460151745
 31
0.0
  0
LINE
  5
19C
330
2
100
AcDbEntity
  8
4
100
AcDbLine
 10
817.3577306388931
 20
377.4241460151745
 30
0.0
 11
817.3577306388931
 21
375.4241460151745
 31
0.0
  0
LINE
  5
19D
330
2
100
AcDbEntity
  8
4
100
AcDbLine
 10
818.8577306388931
 20
377.4241460151745
 30
0.0
 11
818.8577306388931
 21
381.4241460151745
 31
0.0
  0
LINE
  5
19E
330
2
100
AcDbEntity
  8
4
100
AcDbLine
 10
824.8577306388927
 20
377.4241460151743
 30
0.0
 11
817.3577306388931
 21
377.4241460151745
 31
0.0
  0
LINE
  5
19F
330
2
100
AcDbEntity
  8
4
100
AcDbLine
 10
825.0576831388933
 20
375.4241460151748
 30
0.0
 11
817.3577306388931
 21
375.4241460151745
 31
0.0
  0
LINE
  5
1A0
330
2
100
AcDbEntity
  8
4
100
AcDbLine
 10
840.8577306388931
 20
381.4241460151745
 30
0.0
 11
818.8577306388931
 21
381.4241460151745
 31
0.0
  0
LINE
  5
1A1
330
2
100
AcDbEntity
  8
4
100
AcDbLine
 10
834.8577306388931
 20
376.9241460151745
 30
0.0
 11
824.8577306388931
 21
376.9241460151745
 31
0.0
  0
LINE
  5
1A2
330
2
100
AcDbEntity
  8
4
100
AcDbLine
 10
836.3579756388933
 20
379.9241460151745
 30
0.0
 11
823.3577306388931
 21
379.9241460151745
 31
0.0
  0
LINE
  5
1A3
330
2
100
AcDbEntity
  8
4
100
AcDbLine
 10
836.3579756388933
 20
380.9241460151745
 30
0.0
 11
823.3577306388931
 21
380.9241460151745
 31
0.0
  0
LINE
  5
1AE
330
2
100
AcDbEntity
  8
4
100
AcDbLine
 10
848.8577306388931
 20
371.4080512239839
 30
0.0
 11
848.8577306388931
 21
373.9241460151745
 31
0.0
  0
ARC
  5
1AF
330
2
100
AcDbEntity
  8
4
100
AcDbCircle
 10
834.1702306388931
 20
373.0982160151746
 30
0.0
 40
1.8259875
100
AcDbArc
 50
38.0711599999965
 51
141.9288400000035
  0
ARC
  5
1B0
330
2
100
AcDbEntity
  8
4
100
AcDbCircle
 10
829.8577306388931
 20
368.6704810151743
 30
0.0
 40
6.253744999999999
100
AcDbArc
 50
62.63066799999912
 51
117.3693320000009
  0
LINE
  5
1B1
330
2
100
AcDbEntity
  8
4
100
AcDbLine
 10
826.9829756388933
 20
374.2241935151744
 30
0.0
 11
826.9829756388933
 21
371.9241460151745
 31
0.0
  0
LINE
  5
1B2
330
2
100
AcDbEntity
  8
4
100
AcDbLine
 10
832.7327306388931
 20
374.2241935151744
 30
0.0
 11
832.7327306388931
 21
371.9241460151745
 31
0.0
  0
LINE
  5
1B3
330
2
100
AcDbEntity
  8
4
100
AcDbLine
 10
835.6077306388931
 20
374.2241935151744
 30
0.0
 11
835.6077306388931
 21
371.9241460151745
 31
0.0
  0
LINE
  5
1B4
330
2
100
AcDbEntity
  8
4
100
AcDbLine
 10
835.6077306388936
 20
373.9241460151745
 30
0.0
 11
848.8577306388931
 21
373.9241460151745
 31
0.0
  0
LINE
  5
1B5
330
2
100
AcDbEntity
  8
4
100
AcDbLine
 10
826.3577306388931
 20
339.4241460151745
 30
0.0
 11
833.3577306388931
 21
339.4241460151745
 31
0.0
  0
LINE
  5
1B6
330
2
100
AcDbEntity
  8
4
100
AcDbLine
 10
826.3577306388931
 20
332.4241460151745
 30
0.0
 11
833.3577306388931
 21
332.4241460151745
 31
0.0
  0
LINE
  5
1B7
330
2
100
AcDbEntity
  8
4
100
AcDbLine
 10
826.3577306388931
 20
332.4241460151745
 30
0.0
 11
826.3577306388931
 21
339.4241460151745
 31
0.0
  0
LINE
  5
1B8
330
2
100
AcDbEntity
  8
4
100
AcDbLine
 10
833.3577306388931
 20
332.4241460151745
 30
0.0
 11
833.3577306388931
 21
339.4241460151745
 31
0.0
  0
LINE
  5
1B9
330
2
100
AcDbEntity
  8
4
100
AcDbLine
 10
824.1077306388931
 20
374.2239485151745
 30
0.0
 11
824.1077306388931
 21
371.9241460151745
 31
0.0
  0
LINE
  5
1BA
330
2
100
AcDbEntity
  8
4
100
AcDbLine
 10
810.8577306388931
 20
371.4080512239839
 30
0.0
 11
810.8577306388931
 21
373.9241460151745
 31
0.0
  0
LINE
  5
1BB
330
2
100
AcDbEntity
  8
4
100
AcDbLine
 10
810.8577306388931
 20
373.9241460151745
 30
0.0
 11
824.1077306388931
 21
373.9241460151745
 31
0.0
  0
ARC
  5
1BC
330
2
100
AcDbEntity
  8
4
100
AcDbCircle
 10
788.3622879846469
 20
364.4195886694208
 30
0.0
 40
5.0
100
AcDbArc
 50
96.90806883277081
 51
173.0919311672463
  0
ARC
  5
1BD
330
2
100
AcDbEntity
  8
4
100
AcDbCircle
 10
1130.857730638893
 20
322.9241460151745
 30
0.0
 40
350.0
100
AcDbArc
 50
173.0919311672463
 51
180.0
  0
ARC
  5
1BE
330
2
100
AcDbEntity
  8
4
100
AcDbCircle
 10
829.8577306388931
 20
21.92414601517453
 30
0.0
 40
350.0
100
AcDbArc
 50
83.09193116722949
 51
96.90806883277051
  0
ARC
  5
1BF
330
2
100
AcDbEntity
  8
4
100
AcDbCircle
 10
829.8577306388931
 20
322.9241460151745
 30
0.0
 40
13.5
100
AcDbArc
 50
105.0261137591184
 51
74.97388624088157
  0
ARC
  5
1C0
330
2
100
AcDbEntity
  8
4
100
AcDbCircle
 10
825.5454756388929
 20
373.0982160151746
 30
0.0
 40
1.8259875
100
AcDbArc
 50
38.0711599999965
 51
141.9288400000035
  0
LINE
  5
1C1
330
2
100
AcDbEntity
  8
4
100
AcDbLine
 10
835.6077306388931
 20
371.9241460151745
 30
0.0
 11
824.1077306388931
 21
371.9241460151745
 31
0.0
  0
LINE
  5
1C2
330
2
100
AcDbEntity
  8
4
100
AcDbLine
 10
834.1702306388931
 20
374.9241460151745
 30
0.0
 11
825.5454756388929
 21
374.9241460151745
 31
0.0
  0
CIRCLE
  5
1C3
330
2
100
AcDbEntity
  8
4
100
AcDbCircle
 10
829.8577306388931
 20
322.9241460151745
 30
0.0
 40
36.0
  0
LINE
  5
1C4
330
2
100
AcDbEntity
  8
4
100
AcDbLine
 10
771.8577306388931
 20
327.9241460151745
 30
0.0
 11
779.8577306388931
 21
327.9241460151745
 31
0.0
  0
ARC
  5
1C5
330
2
100
AcDbEntity
  8
4
100
AcDbCircle
 10
771.8577306388931
 20
326.9241460151745
 30
0.0
 40
1.0
100
AcDbArc
 50
90.0
 51
180.0
  0
ARC
  5
1C6
330
2
100
AcDbEntity
  8
4
100
AcDbCircle
 10
744.8577306388931
 20
242.1603501741754
 30
0.0
 40
1.0
100
AcDbArc
 50
105.2551187030549
 51
180.0
  0
LINE
  5
1C7
330
2
100
AcDbEntity
  8
4
100
AcDbLine
 10
744.5946132331012
 20
243.1251139954131
 30
0.0
 11
755.4502021296299
 21
246.0857291490116
 31
0.0
  0
ARC
  5
1C8
330
2
100
AcDbEntity
  8
4
100
AcDbCircle
 10
754.9239673180457
 20
248.0152567914872
 30
0.0
 40
2.0
100
AcDbArc
 50
285.2551187030583
 51
343.7190237230148
  0
LINE
  5
1C9
330
2
100
AcDbEntity
  8
4
100
AcDbLine
 10
756.8437641738099
 20
247.4545607663556
 30
0.0
 11
770.8577306388931
 21
295.4377237469441
 31
0.0
  0
LINE
  5
1CA
330
2
100
AcDbEntity
  8
4
100
AcDbLine
 10
780.9277376402936
 20
329.9241460151745
 30
0.0
 11
779.8577306388931
 21
329.9241460151745
 31
0.0
  0
LINE
  5
1CB
330
2
100
AcDbEntity
  8
4
100
AcDbLine
 10
754.8341257809732
 20
226.9241460151745
 30
0.0
 11
756.532350262494
 21
226.9241460151745
 31
0.0
  0
LINE
  5
1CC
330
2
100
AcDbEntity
  8
4
100
AcDbLine
 10
754.8341257809736
 20
226.9241460151745
 30
0.0
 11
770.8577306388931
 21
221.9241460151743
 31
0.0
  0
LINE
  5
1CD
330
2
100
AcDbEntity
  8
4
100
AcDbLine
 10
756.5323502624935
 20
226.9241460151745
 30
0.0
 11
770.8577306388931
 21
222.4540593825402
 31
0.0
  0
LINE
  5
1CE
330
2
100
AcDbEntity
  8
4
100
AcDbLine
 10
754.8341257809736
 20
172.9241460151745
 30
0.0
 11
756.5323502624935
 21
172.9241460151745
 31
0.0
  0
LINE
  5
1CF
330
2
100
AcDbEntity
  8
4
100
AcDbLine
 10
756.5323502624935
 20
172.9241460151745
 30
0.0
 11
770.8577306388931
 21
177.3942326478088
 31
0.0
  0
LINE
  5
1D0
330
2
100
AcDbEntity
  8
4
100
AcDbLine
 10
754.8341257809736
 20
172.9241460151745
 30
0.0
 11
770.8577306388931
 21
177.9241460151748
 31
0.0
  0
LINE
  5
1D1
330
2
100
AcDbEntity
  8
4
100
AcDbLine
 10
754.8341257809736
 20
172.9241460151745
 30
0.0
 11
754.8341257809732
 21
226.9241460151745
 31
0.0
  0
ARC
  5
1D2
330
2
100
AcDbEntity
  8
4
100
AcDbCircle
 10
753.2279009153888
 20
152.2897942232469
 30
0.0
 40
2.0
100
AcDbArc
 50
16.28097627698519
 51
74.71360825113084
  0
LINE
  5
1D3
330
2
100
AcDbEntity
  8
4
100
AcDbLine
 10
753.7551888187124
 20
154.2190343500865
 30
0.0
 11
755.45020212963
 21
153.7625628813375
 31
0.0
  0
ARC
  5
1D4
330
2
100
AcDbEntity
  8
4
100
AcDbCircle
 10
744.8577306388931
 20
157.6875098267537
 30
0.0
 40
1.0
100
AcDbArc
 50
180.0
 51
254.7136082511308
  0
LINE
  5
1D5
330
2
100
AcDbEntity
  8
4
100
AcDbLine
 10
744.5940866872313
 20
156.7228897633338
 30
0.0
 11
755.6056397646419
 21
153.7132806152829
 31
0.0
  0
ARC
  5
1D6
330
2
100
AcDbEntity
  8
4
100
AcDbCircle
 10
754.9239673180457
 20
151.8330352388621
 30
0.0
 40
2.0
100
AcDbArc
 50
16.28097627698519
 51
74.74488129694171
  0
LINE
  5
1D7
330
2
100
AcDbEntity
  8
4
100
AcDbLine
 10
756.8437641738099
 20
152.3937312639937
 30
0.0
 11
770.8577306388931
 21
104.4105682834038
 31
0.0
  0
LINE
  5
1D8
330
2
100
AcDbEntity
  8
4
100
AcDbLine
 10
755.1476977711529
 20
152.8504902483783
 30
0.0
 11
770.8577306388927
 21
99.06007556447094
 31
0.0
  0
LINE
  5
1D9
330
2
100
AcDbEntity
  8
4
100
AcDbLine
 10
756.5323502624935
 20
153.4599978701222
 30
0.0
 11
756.5323502624935
 21
172.9241460151748
 31
0.0
  0
LINE
  5
1DA
330
2
100
AcDbEntity
  8
4
100
AcDbLine
 10
743.8577306388931
 20
242.1603501741754
 30
0.0
 11
743.8577306388931
 21
157.6875098267537
 31
0.0
  0
LINE
  5
1DB
330
2
100
AcDbEntity
  8
4
100
AcDbLine
 10
756.5323502624935
 20
226.9241460151748
 30
0.0
 11
756.5323502624935
 21
245.4166547162451
 31
0.0
  0
LINE
  5
1EC
330
2
100
AcDbEntity
  8
4
100
AcDbLine
 10
841.8577306388936
 20
375.4241460151745
 30
0.0
 11
841.8577306388936
 21
373.9241460151745
 31
0.0
  0
LINE
  5
1ED
330
2
100
AcDbEntity
  8
4
100
AcDbLine
 10
817.8577306388931
 20
375.4241460151745
 30
0.0
 11
817.8577306388931
 21
373.9241460151745
 31
0.0
  0
LINE
  5
1EE
330
2
100
AcDbEntity
  8
4
100
AcDbLine
 10
825.0576831388933
 20
374.9241460151745
 30
0.0
 11
825.0576831388933
 21
376.9241460151745
 31
0.0
  0
LINE
  5
1EF
330
2
100
AcDbEntity
  8
4
100
AcDbLine
 10
834.6577806388934
 20
374.9241460151745
 30
0.0
 11
834.6577806388934
 21
376.9241460151745
 31
0.0
  0
CIRCLE
  5
1F2
330
2
100
AcDbEntity
  8
4
100
AcDbCircle
 10
829.8577306388931
 20
322.9241460151745
 30
0.0
 40
48.0
  0
LINE
  5
1F3
330
2
100
AcDbEntity
  8
L-CENTER
 48
3.0
100
AcDbLine
 10
883.411237510719
 20
322.9241460151745
 30
0.0
 11
776.3545506036501
 21
322.9241460151745
 31
0.0
  0
ARC
  5
1F4
330
2
100
AcDbEntity
  8
4
100
AcDbCircle
 10
871.3531732931394
 20
364.4195886694208
 30
0.0
 40
5.0
100
AcDbArc
 50
6.908068832753678
 51
83.09193116722919
  0
LINE
  5
1F6
330
2
100
AcDbEntity
  8
L-CENTER
 48
3.0
100
AcDbLine
 10
1015.408920082954
 20
199.9241460151745
 30
0.0
 11
737.4854572205784
 21
199.9241460151745
 31
0.0
  0
LINE
  5
1F9
330
2
100
AcDbEntity
  8
4
100
AcDbLine
 10
919.8577306388931
 20
59.92414601517453
 30
0.0
 11
919.8577306388931
 21
87.92414601517453
 31
0.0
  0
ARC
  5
1FA
330
2
100
AcDbEntity
  8
4
100
AcDbCircle
 10
882.8577306388936
 20
93.92414601517453
 30
0.0
 40
4.0
100
AcDbArc
 50
180.0
 51
270.0
  0
ARC
  5
1FB
330
2
100
AcDbEntity
  8
4
100
AcDbCircle
 10
917.8577306388931
 20
87.92414601517453
 30
0.0
 40
2.0
100
AcDbArc
 50
0.0
 51
90.0
  0
ARC
  5
200
330
2
100
AcDbEntity
  8
4
100
AcDbCircle
 10
784.8577306388931
 20
93.92414601517453
 30
0.0
 40
4.0
100
AcDbArc
 50
270.0
 51
0.0
  0
ARC
  5
203
330
2
100
AcDbEntity
  8
4
100
AcDbCircle
 10
741.8577306388931
 20
87.92414601517453
 30
0.0
 40
2.0
100
AcDbArc
 50
90.0
 51
180.0
  0
LINE
  5
204
330
2
100
AcDbEntity
  8
4
100
AcDbLine
 10
739.8577306388931
 20
59.92414601517453
 30
0.0
 11
739.8577306388931
 21
87.92414601517453
 31
0.0
  0
ARC
  5
209
330
2
100
AcDbEntity
  8
4
100
AcDbCircle
 10
776.8577306388927
 20
93.92414601517453
 30
0.0
 40
4.0
100
AcDbArc
 50
270.0
 51
0.0
  0
LINE
  5
212
330
2
100
AcDbEntity
  8
4
100
AcDbLine
 10
739.8577306388931
 20
59.92414601517453
 30
0.0
 11
919.8577306388931
 21
59.92414601517453
 31
0.0
  0
LINE
  5
213
330
2
100
AcDbEntity
  8
4
100
AcDbLine
 10
741.8577306388931
 20
89.92414601517453
 30
0.0
 11
917.8577306388931
 21
89.92414601517453
 31
0.0
  0
ARC
  5
214
330
2
100
AcDbEntity
  8
4
100
AcDbCircle
 10
874.8577306388931
 20
93.92414601517453
 30
0.0
 40
4.0
100
AcDbArc
 50
180.0
 51
270.0
  0
LINE
  5
215
330
2
100
AcDbEntity
  8
4
100
AcDbLine
 10
770.8577306388931
 20
326.9241460151745
 30
0.0
 11
770.8577306388931
 21
89.92414601517453
 31
0.0
  0
LINE
  5
216
330
2
100
AcDbEntity
  8
4
100
AcDbLine
 10
779.8577306388931
 20
329.9241460151745
 30
0.0
 11
779.8577306388931
 21
91.27839470411027
 31
0.0
  0
LINE
  5
217
330
2
100
AcDbEntity
  8
4
100
AcDbLine
 10
885.8577306388931
 20
89.92414601517453
 30
0.0
 11
885.8577306388931
 21
327.9241460151745
 31
0.0
  0
LINE
  5
218
330
2
100
AcDbEntity
  8
4
100
AcDbLine
 10
878.8577306388931
 20
322.9241460151745
 30
0.0
 11
878.8577306388936
 21
93.92414601517453
 31
0.0
  0
LINE
  5
219
330
2
100
AcDbEntity
  8
4
100
AcDbLine
 10
780.8577306388931
 20
322.9241460151745
 30
0.0
 11
780.8577306388931
 21
93.92414601517453
 31
0.0
  0
LINE
  5
21A
330
2
100
AcDbEntity
  8
4
100
AcDbLine
 10
870.8577306388931
 20
93.92414601517453
 30
0.0
 11
870.8577306388931
 21
194.153146814707
 31
0.0
  0
LINE
  5
21B
330
2
100
AcDbEntity
  8
4
100
AcDbLine
 10
788.8577306388931
 20
93.92414601517453
 30
0.0
 11
788.8577306388931
 21
194.153146814707
 31
0.0
  0
LINE
  5
21C
330
2
100
AcDbEntity
  8
4
100
AcDbLine
 10
885.8577306388936
 20
89.92414601517453
 30
0.0
 11
885.8577306388931
 21
327.9241460151745
 31
0.0
  0
LINE
  5
21D
330
2
100
AcDbEntity
  8
4
100
AcDbLine
 10
897.1577306388929
 20
89.92414601517453
 30
0.0
 11
897.1577306388929
 21
326.9241460151745
 31
0.0
  0
LINE
  5
21E
330
2
100
AcDbEntity
  8
L-CENTER
 48
3.0
100
AcDbLine
 10
829.8577306388931
 20
54.924713018445
 30
0.0
 11
829.8577306388931
 21
386.1112974979162
 31
0.0
  0
LINE
  5
21F
330
2
100
AcDbEntity
  8
L-CENTER
 48
3.0
100
AcDbLine
 10
899.8577306388931
 20
100.9241460151745
 30
0.0
 11
899.8577306388931
 21
48.92414601517453
 31
0.0
  0
LINE
  5
220
330
2
100
AcDbEntity
  8
L-CENTER
 48
3.0
100
AcDbLine
 10
759.8577306388931
 20
100.9241460151745
 30
0.0
 11
759.8577306388931
 21
48.92414601517453
 31
0.0
  0
LINE
  5
22A
330
2
100
AcDbEntity
  8
4
100
AcDbLine
 10
459.6328173104347
 20
378.1240960151742
 30
0.0
 11
460.1328173104347
 21
380.9241460151743
 31
0.0
  0
LINE
  5
22B
330
2
100
AcDbEntity
  8
4
100
AcDbLine
 10
460.1328173104347
 20
376.9241460151743
 30
0.0
 11
460.1328173104347
 21
380.9241460151743
 31
0.0
  0
LINE
  5
22C
330
2
100
AcDbEntity
  8
4
100
AcDbLine
 10
456.9116248104348
 20
379.9241460151743
 30
0.0
 11
457.2331598104348
 21
378.1240960151742
 31
0.0
  0
LINE
  5
22D
330
2
100
AcDbEntity
  8
4
100
AcDbLine
 10
455.1328173104347
 20
379.9241460151743
 30
0.0
 11
455.1328173104347
 21
376.9241460151743
 31
0.0
  0
ARC
  5
22E
330
2
100
AcDbEntity
  8
4
100
AcDbCircle
 10
458.4328673104347
 20
378.1240960151742
 30
0.0
 40
1.1999975
100
AcDbArc
 50
180.0
 51
0.0
  0
CIRCLE
  5
22F
330
2
100
AcDbEntity
  8
4
100
AcDbCircle
 10
458.4328673104347
 20
378.1240960151742
 30
0.0
 40
0.5
  0
LINE
  5
230
330
2
100
AcDbEntity
  8
4
100
AcDbLine
 10
443.6328173104347
 20
380.9241460151743
 30
0.0
 11
443.6328173104347
 21
379.9241460151743
 31
0.0
  0
LINE
  5
231
330
2
100
AcDbEntity
  8
4
100
AcDbLine
 10
445.1328173104347
 20
379.9241460151743
 30
0.0
 11
445.1328173104347
 21
376.9241460151743
 31
0.0
  0
LINE
  5
232
330
2
100
AcDbEntity
  8
4
100
AcDbLine
 10
460.1328173104347
 20
376.9241460151743
 30
0.0
 11
445.1328173104347
 21
376.9241460151743
 31
0.0
  0
LINE
  5
233
330
2
100
AcDbEntity
  8
4
100
AcDbLine
 10
460.1328173104347
 20
380.9241460151743
 30
0.0
 11
443.6328173104347
 21
380.9241460151743
 31
0.0
  0
LINE
  5
234
330
2
100
AcDbEntity
  8
4
100
AcDbLine
 10
456.9116248104348
 20
379.9241460151743
 30
0.0
 11
443.6328173104347
 21
379.9241460151743
 31
0.0
  0
LINE
  5
239
330
2
100
AcDbEntity
  8
4
100
AcDbLine
 10
293.6328173104347
 20
375.4241460151745
 30
0.0
 11
293.6328173104347
 21
381.4241460151745
 31
0.0
  0
LINE
  5
23A
330
2
100
AcDbEntity
  8
4
100
AcDbLine
 10
287.3828173104347
 20
377.4241460151745
 30
0.0
 11
287.3828173104347
 21
381.4241460151745
 31
0.0
  0
LINE
  5
23B
330
2
100
AcDbEntity
  8
4
100
AcDbLine
 10
274.8828173104347
 20
377.4241460151745
 30
0.0
 11
274.8828173104347
 21
381.4241460151745
 31
0.0
  0
LINE
  5
23C
330
2
100
AcDbEntity
  8
4
100
AcDbLine
 10
268.6328173104347
 20
375.4241460151745
 30
0.0
 11
268.6328173104347
 21
381.4241460151745
 31
0.0
  0
LINE
  5
23D
330
2
100
AcDbEntity
  8
4
100
AcDbLine
 10
268.6328173104347
 20
375.4241460151745
 30
0.0
 11
293.6328173104347
 21
375.4241460151745
 31
0.0
  0
LINE
  5
23E
330
2
100
AcDbEntity
  8
4
100
AcDbLine
 10
268.6328173104347
 20
377.4241460151745
 30
0.0
 11
293.6328173104347
 21
377.4241460151745
 31
0.0
  0
LINE
  5
23F
330
2
100
AcDbEntity
  8
4
100
AcDbLine
 10
268.6328173104347
 20
381.4241460151745
 30
0.0
 11
293.6328173104347
 21
381.4241460151745
 31
0.0
  0
LINE
  5
240
330
2
100
AcDbEntity
  8
4
100
AcDbLine
 10
252.6328173104347
 20
380.9241460151743
 30
0.0
 11
252.6328173104347
 21
379.9241460151743
 31
0.0
  0
LINE
  5
241
330
2
100
AcDbEntity
  8
4
100
AcDbLine
 10
251.1328173104347
 20
379.9241460151743
 30
0.0
 11
251.1328173104347
 21
376.9241460151743
 31
0.0
  0
LINE
  5
242
330
2
100
AcDbEntity
  8
4
100
AcDbLine
 10
239.3540098104346
 20
379.9241460151743
 30
0.0
 11
239.0324748104346
 21
378.1240960151742
 31
0.0
  0
LINE
  5
243
330
2
100
AcDbEntity
  8
4
100
AcDbLine
 10
241.1328173104347
 20
379.9241460151743
 30
0.0
 11
241.1328173104347
 21
376.9241460151743
 31
0.0
  0
LINE
  5
244
330
2
100
AcDbEntity
  8
4
100
AcDbLine
 10
239.3540098104346
 20
379.9241460151743
 30
0.0
 11
252.6328173104347
 21
379.9241460151743
 31
0.0
  0
LINE
  5
245
330
2
100
AcDbEntity
  8
4
100
AcDbLine
 10
236.6328173104347
 20
378.1240960151742
 30
0.0
 11
236.1328173104347
 21
380.9241460151743
 31
0.0
  0
CIRCLE
  5
246
330
2
100
AcDbEntity
  8
4
100
AcDbCircle
 10
237.8327673104346
 20
378.1240960151742
 30
0.0
 40
0.5
  0
LINE
  5
247
330
2
100
AcDbEntity
  8
4
100
AcDbLine
 10
236.1328173104347
 20
376.9241460151743
 30
0.0
 11
236.1328173104347
 21
380.9241460151743
 31
0.0
  0
ARC
  5
248
330
2
100
AcDbEntity
  8
4
100
AcDbCircle
 10
237.8327673104346
 20
378.1240960151742
 30
0.0
 40
1.1999975
100
AcDbArc
 50
180.0
 51
0.0
  0
LINE
  5
249
330
2
100
AcDbEntity
  8
4
100
AcDbLine
 10
236.1328173104347
 20
376.9241460151743
 30
0.0
 11
251.1328173104347
 21
376.9241460151743
 31
0.0
  0
LINE
  5
24A
330
2
100
AcDbEntity
  8
4
100
AcDbLine
 10
236.1328173104347
 20
380.9241460151743
 30
0.0
 11
252.6328173104347
 21
380.9241460151743
 31
0.0
  0
LINE
  5
24D
330
2
100
AcDbEntity
  8
4
100
AcDbLine
 10
558.1328173104347
 20
339.4241460151745
 30
0.0
 11
558.1328173104347
 21
310.4241460151773
 31
0.0
  0
LINE
  5
24E
330
2
100
AcDbEntity
  8
4
100
AcDbLine
 10
503.1328173104347
 20
339.4241460151745
 30
0.0
 11
503.1328173104345
 21
336.4241460151745
 31
0.0
  0
LINE
  5
24F
330
2
100
AcDbEntity
  8
4
100
AcDbLine
 10
498.1328173104345
 20
337.9241460151745
 30
0.0
 11
498.1328173104345
 21
307.9241460151745
 31
0.0
  0
LINE
  5
250
330
2
100
AcDbEntity
  8
4
100
AcDbLine
 10
498.1328173104347
 20
336.4241460151745
 30
0.0
 11
557.1328173104374
 21
336.4241460151745
 31
0.0
  0
LINE
  5
251
330
2
100
AcDbEntity
  8
4
100
AcDbLine
 10
498.1328173104347
 20
309.4241460151745
 30
0.0
 11
557.132817310432
 21
309.4241460151745
 31
0.0
  0
LINE
  5
252
330
2
100
AcDbEntity
  8
4
100
AcDbLine
 10
503.1328173104347
 20
339.4241460151745
 30
0.0
 11
558.1328173104347
 21
339.4241460151745
 31
0.0
  0
ARC
  5
253
330
2
100
AcDbEntity
  8
4
100
AcDbCircle
 10
472.2328173104344
 20
371.0241460151744
 30
0.0
 40
0.9
100
AcDbArc
 50
0.0
 51
90.0
  0
LINE
  5
254
330
2
100
AcDbEntity
  8
4
100
AcDbLine
 10
476.1328173104347
 20
370.9241460151745
 30
0.0
 11
473.1328173104345
 21
370.9241460151745
 31
0.0
  0
LINE
  5
255
330
2
100
AcDbEntity
  8
4
100
AcDbLine
 10
476.1328173104347
 20
358.9241460151745
 30
0.0
 11
477.1328173104347
 21
358.9241460151745
 31
0.0
  0
ARC
  5
256
330
2
100
AcDbEntity
  8
4
100
AcDbCircle
 10
452.6328173104347
 20
370.1099360151743
 30
0.0
 40
4.8142575
100
AcDbArc
 50
58.71532999999298
 51
121.2845180000035
  0
LINE
  5
257
330
2
100
AcDbEntity
  8
4
100
AcDbLine
 10
455.1328173104347
 20
371.9241460151743
 30
0.0
 11
455.1328173104347
 21
374.2241935151742
 31
0.0
  0
LINE
  5
258
330
2
100
AcDbEntity
  8
4
100
AcDbLine
 10
447.6328173104347
 20
374.9241460151743
 30
0.0
 11
452.6328173104347
 21
374.9241460151743
 31
0.0
  0
ARC
  5
259
330
2
100
AcDbEntity
  8
4
100
AcDbCircle
 10
458.5411505104306
 20
310.33247921517
 30
0.0
 40
5.0
100
AcDbArc
 50
15.05726445492235
 51
74.94273554507498
  0
LINE
  5
25A
330
2
100
AcDbEntity
  8
4
100
AcDbLine
 10
445.1328173104347
 20
371.9241460151743
 30
0.0
 11
445.1328173104347
 21
374.2241935151742
 31
0.0
  0
ARC
  5
25B
330
2
100
AcDbEntity
  8
4
100
AcDbCircle
 10
447.6328173104347
 20
370.1099360151743
 30
0.0
 40
4.8142575
100
AcDbArc
 50
58.71532999999298
 51
121.2845180000035
  0
LINE
  5
25C
330
2
100
AcDbEntity
  8
4
100
AcDbLine
 10
445.1328173104347
 20
371.9241460151743
 30
0.0
 11
455.1328173104347
 21
371.9241460151743
 31
0.0
  0
ARC
  5
25D
330
2
100
AcDbEntity
  8
4
100
AcDbCircle
 10
475.1047133410754
 20
271.9241460151745
 30
0.0
 40
3.0
100
AcDbArc
 50
90.0
 51
131.0941784841971
  0
LINE
  5
25E
330
2
100
AcDbEntity
  8
4
100
AcDbLine
 10
476.1328173104347
 20
274.9241460151745
 30
0.0
 11
475.1047133410754
 21
274.9241460151745
 31
0.0
  0
LINE
  5
25F
330
2
100
AcDbEntity
  8
4
100
AcDbLine
 10
476.1328173104347
 20
286.9241460151743
 30
0.0
 11
477.1328173104347
 21
286.9241460151745
 31
0.0
  0
LINE
  5
260
330
2
100
AcDbEntity
  8
4
100
AcDbLine
 10
473.1328173104345
 20
265.3076301682879
 30
0.0
 11
473.1328173104345
 21
371.0241460151744
 31
0.0
  0
LINE
  5
261
330
2
100
AcDbEntity
  8
4
100
AcDbLine
 10
476.1328173104347
 20
274.9241460151745
 30
0.0
 11
476.1328173104347
 21
370.9241460151745
 31
0.0
  0
LINE
  5
262
330
2
100
AcDbEntity
  8
4
100
AcDbLine
 10
477.1328173104347
 20
358.9241460151745
 30
0.0
 11
477.1328173104347
 21
286.9241460151745
 31
0.0
  0
LINE
  5
263
330
2
100
AcDbEntity
  8
4
100
AcDbLine
 10
477.1328173104345
 20
337.9241460151745
 30
0.0
 11
498.1328173104347
 21
337.9241460151745
 31
0.0
  0
LINE
  5
264
330
2
100
AcDbEntity
  8
4
100
AcDbLine
 10
477.1328173104345
 20
307.9241460151745
 30
0.0
 11
498.1328173104347
 21
307.9241460151745
 31
0.0
  0
ARC
  5
265
330
2
100
AcDbEntity
  8
4
100
AcDbCircle
 10
447.9675683522547
 20
225.2623086245237
 30
0.0
 40
3.0
100
AcDbArc
 50
265.1485788721415
 51
14.24103163537813
  0
ARC
  5
266
330
2
100
AcDbEntity
  8
4
100
AcDbCircle
 10
447.9675683522547
 20
174.5859834058253
 30
0.0
 40
3.0
100
AcDbArc
 50
345.7589683646219
 51
94.85142112785853
  0
ARC
  5
267
330
2
100
AcDbEntity
  8
4
100
AcDbCircle
 10
48.13281731043492
 20
199.9241460151745
 30
0.0
 40
430.0
100
AcDbArc
 50
0.0
 51
15.05726445492227
  0
ARC
  5
268
330
2
100
AcDbEntity
  8
4
100
AcDbCircle
 10
383.950345285998
 20
235.7416739907378
 30
0.0
 40
5.0
100
AcDbArc
 50
6.97379343037548
 51
83.02620656964558
  0
ARC
  5
269
330
2
100
AcDbEntity
  8
4
100
AcDbCircle
 10
386.6124233046477
 20
238.4037520093875
 30
0.0
 40
5.0
100
AcDbArc
 50
7.494980959286906
 51
82.50501904072031
  0
ARC
  5
26A
330
2
100
AcDbEntity
  8
4
100
AcDbCircle
 10
348.1328173104347
 20
-54.07585398482547
 30
0.0
 40
300.0
100
AcDbArc
 50
82.50501904072057
 51
97.49498095927937
  0
ARC
  5
26B
330
2
100
AcDbEntity
  8
4
100
AcDbCircle
 10
348.1328173104347
 20
-57.07585398482547
 30
0.0
 40
300.0
100
AcDbArc
 50
83.02620656964554
 51
96.97379343035446
  0
ARC
  5
26C
330
2
100
AcDbEntity
  8
4
100
AcDbCircle
 10
301.1328173104347
 20
372.9241460151745
 30
0.0
 40
1.0
100
AcDbArc
 50
180.0
 51
270.0
  0
LINE
  5
26D
330
2
100
AcDbEntity
  8
4
100
AcDbLine
 10
300.1328173104347
 20
373.9241460151745
 30
0.0
 11
300.1328173104347
 21
372.9241460151745
 31
0.0
  0
LINE
  5
26E
330
2
100
AcDbEntity
  8
4
100
AcDbLine
 10
262.1328173104347
 20
373.9241460151745
 30
0.0
 11
262.1328173104347
 21
372.9241460151745
 31
0.0
  0
LINE
  5
26F
330
2
100
AcDbEntity
  8
4
100
AcDbLine
 10
262.1328173104347
 20
373.9241460151745
 30
0.0
 11
300.1328173104347
 21
373.9241460151745
 31
0.0
  0
LINE
  5
270
330
2
100
AcDbEntity
  8
4
100
AcDbLine
 10
251.1328173104347
 20
371.9241460151743
 30
0.0
 11
251.1328173104347
 21
374.2241935151742
 31
0.0
  0
ARC
  5
271
330
2
100
AcDbEntity
  8
4
100
AcDbCircle
 10
243.6328173104347
 20
370.1099360151743
 30
0.0
 40
4.8142575
100
AcDbArc
 50
58.71548199999653
 51
121.2846700000073
  0
LINE
  5
272
330
2
100
AcDbEntity
  8
4
100
AcDbLine
 10
241.1328173104347
 20
371.9241460151743
 30
0.0
 11
241.1328173104347
 21
374.2241935151742
 31
0.0
  0
LINE
  5
273
330
2
100
AcDbEntity
  8
4
100
AcDbLine
 10
248.6328173104347
 20
374.9241460151743
 30
0.0
 11
243.6328173104347
 21
374.9241460151743
 31
0.0
  0
ARC
  5
274
330
2
100
AcDbEntity
  8
4
100
AcDbCircle
 10
248.6328173104347
 20
370.1099360151743
 30
0.0
 40
4.8142575
100
AcDbArc
 50
58.71548199999653
 51
121.2846700000073
  0
LINE
  5
275
330
2
100
AcDbEntity
  8
4
100
AcDbLine
 10
251.1328173104347
 20
371.9241460151743
 30
0.0
 11
241.1328173104347
 21
371.9241460151743
 31
0.0
  0
LINE
  5
276
330
2
100
AcDbEntity
  8
4
100
AcDbLine
 10
220.1328173104347
 20
370.9241460151745
 30
0.0
 11
223.1328173104349
 21
370.9241460151745
 31
0.0
  0
LINE
  5
277
330
2
100
AcDbEntity
  8
4
100
AcDbLine
 10
220.1328173104347
 20
358.9241460151745
 30
0.0
 11
219.1328173104347
 21
358.9241460151745
 31
0.0
  0
ARC
  5
278
330
2
100
AcDbEntity
  8
4
100
AcDbCircle
 10
224.032817310435
 20
371.0241460151744
 30
0.0
 40
0.9
100
AcDbArc
 50
90.0
 51
180.0
  0
LINE
  5
279
330
2
100
AcDbEntity
  8
4
100
AcDbLine
 10
223.1328173104349
 20
370.9241460151745
 30
0.0
 11
223.1328173104349
 21
371.0241460151744
 31
0.0
  0
ARC
  5
27A
330
2
100
AcDbEntity
  8
4
100
AcDbCircle
 10
237.7244841104388
 20
310.33247921517
 30
0.0
 40
5.0
100
AcDbArc
 50
105.0572644549253
 51
164.9427355450778
  0
ARC
  5
27B
330
2
100
AcDbEntity
  8
4
100
AcDbCircle
 10
261.1328173104347
 20
372.9241460151745
 30
0.0
 40
1.0
100
AcDbArc
 50
270.0
 51
0.0
  0
ARC
  5
27C
330
2
100
AcDbEntity
  8
4
100
AcDbCircle
 10
221.160921279794
 20
271.9241460151745
 30
0.0
 40
3.0
100
AcDbArc
 50
48.9058215158025
 51
90.0
  0
LINE
  5
27D
330
2
100
AcDbEntity
  8
4
100
AcDbLine
 10
220.1328173104347
 20
274.9241460151745
 30
0.0
 11
221.160921279794
 21
274.9241460151745
 31
0.0
  0
LINE
  5
27E
330
2
100
AcDbEntity
  8
4
100
AcDbLine
 10
220.1328173104347
 20
286.9241460151743
 30
0.0
 11
219.1328173104347
 21
286.9241460151745
 31
0.0
  0
LINE
  5
27F
330
2
100
AcDbEntity
  8
4
100
AcDbLine
 10
223.1328173104349
 20
265.3076301682879
 30
0.0
 11
223.1328173104349
 21
371.0241460151744
 31
0.0
  0
LINE
  5
280
330
2
100
AcDbEntity
  8
4
100
AcDbLine
 10
220.1328173104347
 20
274.9241460151745
 30
0.0
 11
220.1328173104347
 21
370.9241460151745
 31
0.0
  0
LINE
  5
281
330
2
100
AcDbEntity
  8
4
100
AcDbLine
 10
219.1328173104347
 20
358.9241460151745
 30
0.0
 11
219.1328173104347
 21
286.9241460151745
 31
0.0
  0
ARC
  5
282
330
2
100
AcDbEntity
  8
4
100
AcDbCircle
 10
309.6532113162215
 20
238.4037520093875
 30
0.0
 40
5.0
100
AcDbArc
 50
97.4949809592797
 51
172.5050190407131
  0
ARC
  5
283
330
2
100
AcDbEntity
  8
4
100
AcDbCircle
 10
312.3152893348714
 20
235.7416739907378
 30
0.0
 40
5.0
100
AcDbArc
 50
96.97379343035443
 51
173.0262065696509
  0
ARC
  5
284
330
2
100
AcDbEntity
  8
4
100
AcDbCircle
 10
399.3014250766036
 20
233.4072885507567
 30
0.0
 40
7.0
100
AcDbArc
 50
186.2614549438293
 51
265.1485788721413
  0
ARC
  5
285
330
2
100
AcDbEntity
  8
4
100
AcDbCircle
 10
399.3014250766036
 20
166.4410034795922
 30
0.0
 40
7.0
100
AcDbArc
 50
94.85142112785867
 51
173.7385450561707
  0
ARC
  5
286
330
2
100
AcDbEntity
  8
4
100
AcDbCircle
 10
383.950345285998
 20
164.106618039611
 30
0.0
 40
5.0
100
AcDbArc
 50
276.9737934303544
 51
353.0262065696245
  0
ARC
  5
287
330
2
100
AcDbEntity
  8
4
100
AcDbCircle
 10
386.6124233046477
 20
161.4445400209613
 30
0.0
 40
5.0
100
AcDbArc
 50
277.4949809592791
 51
352.5050190407131
  0
ARC
  5
288
330
2
100
AcDbEntity
  8
4
100
AcDbCircle
 10
381.6159598460168
 20
148.7555382490057
 30
0.0
 40
7.0
100
AcDbArc
 50
96.26145494383444
 51
175.1485788721372
  0
ARC
  5
289
330
2
100
AcDbEntity
  8
4
100
AcDbCircle
 10
373.4709799197839
 20
100.0893949733545
 30
0.0
 40
3.0
100
AcDbArc
 50
175.1485788721372
 51
284.2410316353825
  0
LINE
  5
28A
330
2
100
AcDbEntity
  8
4
100
AcDbLine
 10
374.6410383276822
 20
149.3475431586755
 30
0.0
 11
370.4817278404977
 21
100.343111363213
 31
0.0
  0
ARC
  5
28B
330
2
100
AcDbEntity
  8
4
100
AcDbCircle
 10
314.6496747748525
 20
148.7555382490057
 30
0.0
 40
7.0
100
AcDbArc
 50
4.851421127862851
 51
83.73854505616558
  0
ARC
  5
28C
330
2
100
AcDbEntity
  8
4
100
AcDbCircle
 10
322.7946547010855
 20
100.0893949733545
 30
0.0
 40
3.0
100
AcDbArc
 50
255.7589683646175
 51
4.851421127862851
  0
LINE
  5
28D
330
2
100
AcDbEntity
  8
4
100
AcDbLine
 10
321.6245962931872
 20
149.3475431586755
 30
0.0
 11
325.7839067803717
 21
100.343111363213
 31
0.0
  0
ARC
  5
28E
330
2
100
AcDbEntity
  8
4
100
AcDbCircle
 10
348.1328173104347
 20
456.9241460151745
 30
0.0
 40
300.0
100
AcDbArc
 50
263.0262065696456
 51
276.9737934303545
  0
ARC
  5
28F
330
2
100
AcDbEntity
  8
4
100
AcDbCircle
 10
348.1328173104347
 20
453.9241460151745
 30
0.0
 40
300.0
100
AcDbArc
 50
262.5050190407206
 51
277.4949809592794
  0
ARC
  5
290
330
2
100
AcDbEntity
  8
4
100
AcDbCircle
 10
296.9642095442658
 20
233.4072885507567
 30
0.0
 40
7.0
100
AcDbArc
 50
274.8514211278587
 51
353.7385450561706
  0
ARC
  5
291
330
2
100
AcDbEntity
  8
4
100
AcDbCircle
 10
296.9642095442658
 20
166.4410034795922
 30
0.0
 40
7.0
100
AcDbArc
 50
6.26145494382934
 51
85.14857887214133
  0
ARC
  5
292
330
2
100
AcDbEntity
  8
4
100
AcDbCircle
 10
248.2980662686147
 20
225.2623086245237
 30
0.0
 40
3.0
100
AcDbArc
 50
165.758968364622
 51
274.8514211278585
  0
ARC
  5
293
330
2
100
AcDbEntity
  8
4
100
AcDbCircle
 10
248.2980662686147
 20
174.5859834058253
 30
0.0
 40
3.0
100
AcDbArc
 50
85.14857887214148
 51
194.241031635378
  0
LINE
  5
294
330
2
100
AcDbEntity
  8
4
100
AcDbLine
 10
218.1328173104347
 20
199.9241460151745
 30
0.0
 11
218.1328173104347
 21
167.9241460151745
 31
0.0
  0
LINE
  5
295
330
2
100
AcDbEntity
  8
4
100
AcDbLine
 10
248.5517826584734
 20
222.2730565452373
 30
0.0
 11
297.5562144539357
 21
226.432367032422
 31
0.0
  0
LINE
  5
296
330
2
100
AcDbEntity
  8
4
100
AcDbLine
 10
248.5517826584734
 20
177.5752354851115
 30
0.0
 11
297.5562144539357
 21
173.4159249979268
 31
0.0
  0
LINE
  5
297
330
2
100
AcDbEntity
  8
4
100
AcDbLine
 10
216.1328173104347
 20
110.2521460151745
 30
0.0
 11
216.1328173104347
 21
125.336732998868
 31
0.0
  0
ARC
  5
298
330
2
100
AcDbEntity
  8
4
100
AcDbCircle
 10
309.6532113162217
 20
161.4445400209613
 30
0.0
 40
5.0
100
AcDbArc
 50
187.4949809592869
 51
262.5050190407203
  0
ARC
  5
299
330
2
100
AcDbEntity
  8
4
100
AcDbCircle
 10
312.3152893348714
 20
164.106618039611
 30
0.0
 40
5.0
100
AcDbArc
 50
186.9737934303755
 51
263.0262065696456
  0
ARC
  5
29A
330
2
100
AcDbEntity
  8
4
100
AcDbCircle
 10
602.1328173104347
 20
199.9241460151745
 30
0.0
 40
300.0
100
AcDbArc
 50
172.5050190407131
 51
187.494980959287
  0
ARC
  5
29B
330
2
100
AcDbEntity
  8
4
100
AcDbCircle
 10
605.1328173104347
 20
199.9241460151745
 30
0.0
 40
300.0
100
AcDbArc
 50
173.0262065696508
 51
186.9737934303492
  0
ARC
  5
29C
330
2
100
AcDbEntity
  8
4
100
AcDbCircle
 10
91.13281731043469
 20
199.9241460151745
 30
0.0
 40
300.0
100
AcDbArc
 50
353.0262065696508
 51
6.973793430349181
  0
ARC
  5
29D
330
2
100
AcDbEntity
  8
4
100
AcDbCircle
 10
94.13281731043469
 20
199.9241460151745
 30
0.0
 40
300.0
100
AcDbArc
 50
352.5050190407131
 51
7.494980959286954
  0
ARC
  5
29E
330
2
100
AcDbEntity
  8
4
100
AcDbCircle
 10
348.1328173104347
 20
-100.0758539848255
 30
0.0
 40
430.0
100
AcDbArc
 50
74.94273554507474
 51
105.0572644549253
  0
LINE
  5
29F
330
2
100
AcDbEntity
  8
4
100
AcDbLine
 10
472.2328173104344
 20
371.9241460151745
 30
0.0
 11
224.032817310435
 21
371.9241460151743
 31
0.0
  0
LINE
  5
2A0
330
2
100
AcDbEntity
  8
4
100
AcDbLine
 10
447.7138519623962
 20
222.2730565452373
 30
0.0
 11
398.7094201669337
 21
226.4323670324218
 31
0.0
  0
LINE
  5
2A1
330
2
100
AcDbEntity
  8
4
100
AcDbLine
 10
447.713851962396
 20
177.5752354851115
 30
0.0
 11
398.7094201669337
 21
173.4159249979268
 31
0.0
  0
LINE
  5
2A2
330
2
100
AcDbEntity
  8
4
100
AcDbLine
 10
241.3327673104346
 20
376.9241460151743
 30
0.0
 11
241.3327673104346
 21
374.3391860151744
 31
0.0
  0
LINE
  5
2A3
330
2
100
AcDbEntity
  8
4
100
AcDbLine
 10
250.9328673104347
 20
376.9241460151743
 30
0.0
 11
250.9328673104347
 21
374.3391860151744
 31
0.0
  0
LINE
  5
2A4
330
2
100
AcDbEntity
  8
L-CENTER
 48
3.0
100
AcDbLine
 10
246.1328173104347
 20
385.653232708408
 30
0.0
 11
246.1328173104347
 21
364.3019988560147
 31
0.0
  0
LINE
  5
2A5
330
2
100
AcDbEntity
  8
4
100
AcDbLine
 10
292.6328173104347
 20
373.9241460151745
 30
0.0
 11
292.6328173104347
 21
375.4241460151745
 31
0.0
  0
LINE
  5
2A6
330
2
100
AcDbEntity
  8
L-CENTER
 48
3.0
100
AcDbLine
 10
281.1328173104347
 20
387.4336074607743
 30
0.0
 11
281.1328173104347
 21
365.4336074607743
 31
0.0
  0
LINE
  5
2A7
330
2
100
AcDbEntity
  8
4
100
AcDbLine
 10
269.6328173104347
 20
373.9241460151745
 30
0.0
 11
269.6328173104347
 21
375.4241460151745
 31
0.0
  0
LINE
  5
2A9
330
2
100
AcDbEntity
  8
4
100
AcDbLine
 10
454.9328673104347
 20
376.9241460151743
 30
0.0
 11
454.9328673104347
 21
374.3391860151744
 31
0.0
  0
LINE
  5
2AA
330
2
100
AcDbEntity
  8
L-CENTER
 48
3.0
100
AcDbLine
 10
450.1328173104347
 20
385.653232708408
 30
0.0
 11
450.1328173104347
 21
364.3019988560147
 31
0.0
  0
LINE
  5
2AB
330
2
100
AcDbEntity
  8
4
100
AcDbLine
 10
445.3327673104346
 20
376.9241460151743
 30
0.0
 11
445.3327673104346
 21
374.3391860151744
 31
0.0
  0
LINE
  5
2AD
330
2
100
AcDbEntity
  8
4
100
AcDbLine
 10
211.6328173104347
 20
157.4241460151745
 30
0.0
 11
206.6328173104347
 21
157.4241460151745
 31
0.0
  0
LINE
  5
2AE
330
2
100
AcDbEntity
  8
4
100
AcDbLine
 10
206.6328173104347
 20
164.9241460151745
 30
0.0
 11
213.6328173104347
 21
164.9241460151745
 31
0.0
  0
LINE
  5
2AF
330
2
100
AcDbEntity
  8
4
100
AcDbLine
 10
213.6328173104347
 20
163.9241460151745
 30
0.0
 11
215.1328173104347
 21
163.9241460151745
 31
0.0
  0
LINE
  5
2B0
330
2
100
AcDbEntity
  8
4
100
AcDbLine
 10
213.6328173104347
 20
134.9241460151745
 30
0.0
 11
206.6328173104347
 21
134.9241460151745
 31
0.0
  0
LINE
  5
2B1
330
2
100
AcDbEntity
  8
4
100
AcDbLine
 10
213.6328173104347
 20
135.9241460151745
 30
0.0
 11
215.1328173104347
 21
135.9241460151745
 31
0.0
  0
LINE
  5
2B2
330
2
100
AcDbEntity
  8
4
100
AcDbLine
 10
211.6328173104347
 20
142.4241460151745
 30
0.0
 11
206.6328173104347
 21
142.4241460151745
 31
0.0
  0
LINE
  5
2B3
330
2
100
AcDbEntity
  8
4
100
AcDbLine
 10
206.6328173104347
 20
134.9241460151745
 30
0.0
 11
206.6328173104347
 21
164.9241460151745
 31
0.0
  0
LINE
  5
2B4
330
2
100
AcDbEntity
  8
4
100
AcDbLine
 10
215.1328173104347
 20
135.9241460151745
 30
0.0
 11
215.1328173104347
 21
163.9241460151745
 31
0.0
  0
LINE
  5
2B5
330
2
100
AcDbEntity
  8
4
100
AcDbLine
 10
213.6328173104347
 20
134.9241460151745
 30
0.0
 11
213.6328173104347
 21
164.9241460151745
 31
0.0
  0
LINE
  5
2B6
330
2
100
AcDbEntity
  8
4
100
AcDbLine
 10
211.6328173104347
 20
134.9241460151745
 30
0.0
 11
211.6328173104347
 21
164.9241460151745
 31
0.0
  0
LINE
  5
2B7
330
2
100
AcDbEntity
  8
4
100
AcDbLine
 10
214.6328173104347
 20
96.92414601517453
 30
0.0
 11
214.6328173104347
 21
108.9241460151745
 31
0.0
  0
LINE
  5
2B8
330
2
100
AcDbEntity
  8
4
100
AcDbLine
 10
215.1328173104347
 20
167.9241460151745
 30
0.0
 11
215.1328173104347
 21
131.9241460151745
 31
0.0
  0
LINE
  5
2B9
330
2
100
AcDbEntity
  8
L-CENTER
 48
3.0
100
AcDbLine
 10
561.9057702896781
 20
322.9241460151745
 30
0.0
 11
213.6570384176417
 21
322.9241460151745
 31
0.0
  0
LINE
  5
2BA
330
2
100
AcDbEntity
  8
4
100
AcDbLine
 10
214.6328173104347
 20
96.92414601517453
 30
0.0
 11
216.1328173104347
 21
96.92414601517453
 31
0.0
  0
LINE
  5
2BB
330
2
100
AcDbEntity
  8
L-CENTER
 48
3.0
100
AcDbLine
 10
209.9293365430395
 20
102.9241460151745
 30
0.0
 11
225.3591016162956
 21
102.9241460151745
 31
0.0
  0
LINE
  5
2BC
330
2
100
AcDbEntity
  8
4
100
AcDbLine
 10
216.1328173104347
 20
131.9241460151745
 30
0.0
 11
215.1328173104347
 21
131.9241460151745
 31
0.0
  0
LINE
  5
2BD
330
2
100
AcDbEntity
  8
4
100
AcDbLine
 10
214.6328173104347
 20
108.9241460151745
 30
0.0
 11
216.1328173104347
 21
108.9241460151745
 31
0.0
  0
LINE
  5
2BE
330
2
100
AcDbEntity
  8
L-CENTER
 48
3.0
100
AcDbLine
 10
229.6280668438154
 20
149.9241460151745
 30
0.0
 11
202.0610182887029
 21
149.9241460151745
 31
0.0
  0
LINE
  5
2BF
330
2
100
AcDbEntity
  8
L-CENTER
 48
3.0
100
AcDbLine
 10
210.9904309589029
 20
199.9241460151745
 30
0.0
 11
485.2752036619664
 21
199.9241460151745
 31
0.0
  0
ARC
  5
2C0
330
2
100
AcDbEntity
  8
4
100
AcDbCircle
 10
648.1328173104345
 20
199.9241460151745
 30
0.0
 40
430.0
100
AcDbArc
 50
164.9427355450777
 51
180.0
  0
LINE
  5
2C1
330
2
100
AcDbEntity
  8
4
100
AcDbLine
 10
218.1328173104347
 20
167.9241460151745
 30
0.0
 11
215.1328173104347
 21
167.9241460151745
 31
0.0
  0
ARC
  5
2C5
330
2
100
AcDbEntity
  8
4
100
AcDbCircle
 10
496.1328173104347
 20
87.92414601517453
 30
0.0
 40
2.0
100
AcDbArc
 50
0.0
 51
90.0
  0
LINE
  5
2C8
330
2
100
AcDbEntity
  8
4
100
AcDbLine
 10
498.1328173104347
 20
59.92414601517453
 30
0.0
 11
498.1328173104347
 21
87.92414601517453
 31
0.0
  0
ARC
  5
2CD
330
2
100
AcDbEntity
  8
4
100
AcDbCircle
 10
483.1328173104347
 20
94.92414601517453
 30
0.0
 40
5.0
100
AcDbArc
 50
180.0
 51
270.0
  0
LINE
  5
2CE
330
2
100
AcDbEntity
  8
4
100
AcDbLine
 10
486.7595794903951
 20
59.92414601517453
 30
0.0
 11
486.7595794903951
 21
89.92414601517453
 31
0.0
  0
ARC
  5
2CF
330
2
100
AcDbEntity
  8
4
100
AcDbCircle
 10
465.8901266317877
 20
93.92414601517453
 30
0.0
 40
4.0
100
AcDbArc
 50
162.5763272197884
 51
270.0
  0
LINE
  5
2D0
330
2
100
AcDbEntity
  8
4
100
AcDbLine
 10
468.7595794903951
 20
59.92414601517453
 30
0.0
 11
468.7595794903949
 21
89.92414601517453
 31
0.0
  0
LWPOLYLINE
  5
2D1
330
2
100
AcDbEntity
  8
4
100
AcDbPolyline
 90
       44
 70
     0
 43
0.0
 10
457.4686112927744
 20
89.92414601517453
 10
458.3044506144036
 20
88.85433058449553
 10
458.6314806144038
 20
88.42235458449522
 10
458.9348376144038
 20
87.99389158449526
 10
459.5844636144039
 20
86.74711858449541
 10
459.6747306144037
 20
86.35025458449536
 10
459.6821346144039
 20
85.96567558449533
 10
459.5948316144036
 20
85.59514558449541
 10
459.3785976144036
 20
85.19612758449534
 10
459.0683196144037
 20
84.80969758449555
 10
458.7044436144038
 20
84.4284965844954
 10
458.3274186144038
 20
84.04517158449539
 10
457.9776876144038
 20
83.65236358449533
 10
457.6957056144038
 20
83.2427135844955
 10
457.5233196144036
 20
82.84427158449535
 10
457.4324466144038
 20
82.42739758449534
 10
457.4122626144038
 20
81.99430558449535
 10
457.6676286144037
 20
80.61990058449533
 10
458.1695736144039
 20
79.17936358449538
 10
458.6258676144037
 20
77.73255958449545
 10
458.7173136144038
 20
77.25924658449526
 10
458.7603936144038
 20
76.79410258449525
 10
458.7442836144037
 20
76.33935058449538
 10
458.6122266144037
 20
75.72511858449548
 10
458.3724846144037
 20
75.13085758449529
 10
458.0534646144038
 20
74.55202858449525
 10
456.9047046144038
 20
72.86282158449535
 10
456.5525556144037
 20
72.30039658449527
 10
456.2631216144037
 20
71.73073858449538
 10
456.0648096144037
 20
71.14931158449531
 10
455.9826696144037
 20
70.62297658449529
 10
455.9806776144038
 20
70.08538858449538
 10
456.0456846144037
 20
69.53802658449536
 10
456.5112576144039
 20
67.8520355844953
 10
457.1065986144036
 20
66.13115758449544
 10
457.2725376144038
 20
65.55666358449525
 10
457.4003136144038
 20
64.98418858449531
 10
457.4767806144037
 20
64.41521458449529
 10
457.4734686144039
 20
63.51794458449535
 10
457.3337286144038
 20
62.63119858449522
 10
457.0848426144037
 20
61.75287358449532
 10
456.7540986144036
 20
60.8808635844955
 10
456.3687816144036
 20
60.0130625844954
 10
456.3264030774072
 20
59.92414601517453
  0
LINE
  5
2D3
330
2
100
AcDbEntity
  8
4
100
AcDbLine
 10
448.1328173104347
 20
59.92414601517453
 30
0.0
 11
448.1328173104347
 21
63.9241460151743
 31
0.0
  0
ARC
  5
2D4
330
2
100
AcDbEntity
  8
4
100
AcDbCircle
 10
445.1328173104349
 20
87.92414601517453
 30
0.0
 40
2.0
100
AcDbArc
 50
90.0
 51
180.0
  0
ARC
  5
2D5
330
2
100
AcDbEntity
  8
4
100
AcDbCircle
 10
438.1328173104349
 20
74.33631724184124
 30
0.0
 40
5.0
100
AcDbArc
 50
0.0
 51
101.9405439606022
  0
LINE
  5
2D6
330
2
100
AcDbEntity
  8
4
100
AcDbLine
 10
443.1328173104349
 20
68.92414601517453
 30
0.0
 11
443.1328173104349
 21
87.92414601517453
 31
0.0
  0
ARC
  5
2D7
330
2
100
AcDbEntity
  8
4
100
AcDbCircle
 10
443.1328173104347
 20
63.92414601517453
 30
0.0
 40
5.0
100
AcDbArc
 50
0.0
 51
90.0
  0
LINE
  5
2DC
330
2
100
AcDbEntity
  8
4
100
AcDbLine
 10
498.1328173104347
 20
59.92414601517453
 30
0.0
 11
448.1328173104347
 21
59.92414601517453
 31
0.0
  0
LINE
  5
2DD
330
2
100
AcDbEntity
  8
4
100
AcDbLine
 10
496.1328173104347
 20
89.92414601517453
 30
0.0
 11
445.1328173104349
 21
89.92414601517453
 31
0.0
  0
ARC
  5
2E9
330
2
100
AcDbEntity
  8
4
100
AcDbCircle
 10
251.1328173104345
 20
87.92414601517453
 30
0.0
 40
2.0
100
AcDbArc
 50
0.0
 51
90.0
  0
ARC
  5
2EA
330
2
100
AcDbEntity
  8
4
100
AcDbCircle
 10
253.1328173104347
 20
63.92414601517453
 30
0.0
 40
5.0
100
AcDbArc
 50
90.0
 51
180.0
  0
ARC
  5
2EB
330
2
100
AcDbEntity
  8
4
100
AcDbCircle
 10
258.1328173104345
 20
74.33631724184124
 30
0.0
 40
5.0
100
AcDbArc
 50
78.05945603939779
 51
180.0
  0
LINE
  5
2EC
330
2
100
AcDbEntity
  8
4
100
AcDbLine
 10
253.1328173104345
 20
68.92414601517453
 30
0.0
 11
253.1328173104345
 21
87.92414601517453
 31
0.0
  0
ARC
  5
2ED
330
2
100
AcDbEntity
  8
4
100
AcDbCircle
 10
230.3755079890817
 20
93.92414601517453
 30
0.0
 40
4.0
100
AcDbArc
 50
270.0
 51
17.42367278021146
  0
LINE
  5
2EE
330
2
100
AcDbEntity
  8
4
100
AcDbLine
 10
248.1328173104347
 20
59.92414601517453
 30
0.0
 11
248.1328173104347
 21
63.9241460151743
 31
0.0
  0
ARC
  5
316
330
2
100
AcDbEntity
  8
4
100
AcDbCircle
 10
348.1328173104347
 20
499.9241460151745
 30
0.0
 40
430.0
100
AcDbArc
 50
258.0594560393932
 51
281.9405439606068
  0
LINE
  5
317
330
2
100
AcDbEntity
  8
4
100
AcDbLine
 10
443.1328173104347
 20
68.92414601517453
 30
0.0
 11
253.1328173104347
 21
68.92414601517453
 31
0.0
  0
ARC
  5
321
330
2
100
AcDbEntity
  8
4
100
AcDbCircle
 10
200.1328173104345
 20
87.92414601517453
 30
0.0
 40
2.0
100
AcDbArc
 50
90.0
 51
180.0
  0
LINE
  5
322
330
2
100
AcDbEntity
  8
4
100
AcDbLine
 10
198.1328173104347
 20
59.92414601517453
 30
0.0
 11
198.1328173104345
 21
87.92414601517453
 31
0.0
  0
LINE
  5
33A
330
2
100
AcDbEntity
  8
4
100
AcDbLine
 10
200.1328173104347
 20
89.92414601517453
 30
0.0
 11
251.1328173104345
 21
89.92414601517453
 31
0.0
  0
LINE
  5
33B
330
2
100
AcDbEntity
  8
4
100
AcDbLine
 10
248.1328173104347
 20
59.92414601517453
 30
0.0
 11
198.1328173104347
 21
59.92414601517453
 31
0.0
  0
ARC
  5
33C
330
2
100
AcDbEntity
  8
4
100
AcDbCircle
 10
211.1328173104347
 20
94.92414601517453
 30
0.0
 40
5.0
100
AcDbArc
 50
270.0
 51
0.0
  0
ARC
  5
33D
330
2
100
AcDbEntity
  8
4
100
AcDbCircle
 10
213.1328173104347
 20
94.92414601517453
 30
0.0
 40
5.0
100
AcDbArc
 50
270.0
 51
0.0
  0
LINE
  5
33E
330
2
100
AcDbEntity
  8
4
100
AcDbLine
 10
218.1328173104347
 20
199.9241460151745
 30
0.0
 11
218.1328173104347
 21
94.92414601517453
 31
0.0
  0
ARC
  5
33F
330
2
100
AcDbEntity
  8
4
100
AcDbCircle
 10
568.1328173104345
 20
199.9241460151745
 30
0.0
 40
350.0
100
AcDbArc
 50
180.0
 51
197.4236727802115
  0
ARC
  5
340
330
2
100
AcDbEntity
  8
4
100
AcDbCircle
 10
348.1328173104347
 20
199.9241460151745
 30
0.0
 40
128.0
100
AcDbArc
 50
90.0
 51
270.0
  0
ARC
  5
341
330
2
100
AcDbEntity
  8
4
100
AcDbCircle
 10
348.1328173104347
 20
199.9241460151745
 30
0.0
 40
106.0
100
AcDbArc
 50
102.4557926259054
 51
270.0
  0
ARC
  5
342
330
2
100
AcDbEntity
  8
4
100
AcDbCircle
 10
128.1328173104349
 20
199.9241460151745
 30
0.0
 40
350.0
100
AcDbArc
 50
342.5763272197885
 51
0.0
  0
LINE
  5
343
330
2
100
AcDbEntity
  8
4
100
AcDbLine
 10
478.1328173104347
 20
199.9241460151745
 30
0.0
 11
478.1328173104347
 21
94.92414601517453
 31
0.0
  0
ARC
  5
344
330
2
100
AcDbEntity
  8
4
100
AcDbCircle
 10
348.1328173104347
 20
199.9241460151745
 30
0.0
 40
128.0
100
AcDbArc
 50
270.0
 51
90.0
  0
ARC
  5
345
330
2
100
AcDbEntity
  8
4
100
AcDbCircle
 10
348.1328173104347
 20
199.9241460151745
 30
0.0
 40
106.0
100
AcDbArc
 50
270.0
 51
77.54420737409461
  0
LINE
  5
346
330
2
100
AcDbEntity
  8
L-CENTER
 48
3.0
100
AcDbLine
 10
348.1328173104347
 20
63.10513286524605
 30
0.0
 11
348.1328173104347
 21
377.9014680447565
 31
0.0
  0
LINE
  5
347
330
2
100
AcDbEntity
  8
L-CENTER
 48
3.0
100
AcDbLine
 10
218.1328173104351
 20
100.9241460151745
 30
0.0
 11
218.1328173104351
 21
48.92414601517453
 31
0.0
  0
LINE
  5
348
330
2
100
AcDbEntity
  8
4
100
AcDbLine
 10
216.1328173104347
 20
94.92414601517453
 30
0.0
 11
216.1328173104347
 21
148.1910521660377
 31
0.0
  0
LINE
  5
349
330
2
100
AcDbEntity
  8
L-CENTER
 48
3.0
100
AcDbLine
 10
478.1328173104351
 20
100.9241460151745
 30
0.0
 11
478.1328173104351
 21
48.92414601517453
 31
0.0
  0
LINE
  5
465
330
2
100
AcDbEntity
  8
4
100
AcDbLine
 10
424.6328173104346
 20
336.9241460151745
 30
0.0
 11
412.1328173104346
 21
336.9241460151745
 31
0.0
  0
LINE
  5
466
330
2
100
AcDbEntity
  8
4
100
AcDbLine
 10
424.6328173104346
 20
360.9241460151745
 30
0.0
 11
412.1328173104346
 21
360.9241460151745
 31
0.0
  0
LINE
  5
467
330
2
100
AcDbEntity
  8
4
100
AcDbLine
 10
388.1328173104343
 20
332.9241460151744
 30
0.0
 11
464.1328173104346
 21
332.9241460151745
 31
0.0
  0
LINE
  5
468
330
2
100
AcDbEntity
  8
4
100
AcDbLine
 10
388.1328173104343
 20
364.9241460151745
 30
0.0
 11
464.1328173104346
 21
364.9241460151745
 31
0.0
  0
ARC
  5
469
330
2
100
AcDbEntity
  8
4
100
AcDbCircle
 10
348.1328173104348
 20
292.9241460151745
 30
0.0
 40
18.0
100
AcDbArc
 50
180.0
 51
0.0
  0
LINE
  5
46A
330
2
100
AcDbEntity
  8
4
100
AcDbLine
 10
396.1328173104346
 20
359.9241460151745
 30
0.0
 11
396.1328173104346
 21
343.9241460151745
 31
0.0
  0
LINE
  5
46B
330
2
100
AcDbEntity
  8
4
100
AcDbLine
 10
411.1328173104346
 20
337.9241460151745
 30
0.0
 11
411.1328173104346
 21
359.9241460151745
 31
0.0
  0
LINE
  5
46C
330
2
100
AcDbEntity
  8
4
100
AcDbLine
 10
390.1328173104346
 20
359.9241460151745
 30
0.0
 11
390.1328173104346
 21
337.9241460151745
 31
0.0
  0
LINE
  5
46D
330
2
100
AcDbEntity
  8
4
100
AcDbLine
 10
386.1328173104343
 20
362.9241460151745
 30
0.0
 11
386.1328173104346
 21
334.9241460151745
 31
0.0
  0
LINE
  5
46F
330
2
100
AcDbEntity
  8
4
100
AcDbLine
 10
366.1328173104348
 20
292.9241460151745
 30
0.0
 11
366.1328173104348
 21
299.5233427990844
 31
0.0
  0
LINE
  5
470
330
2
100
AcDbEntity
  8
4
100
AcDbLine
 10
405.6328173104346
 20
336.9241460151745
 30
0.0
 11
391.1328173104346
 21
336.9241460151745
 31
0.0
  0
ARC
  5
471
330
2
100
AcDbEntity
  8
4
100
AcDbCircle
 10
391.1328173104346
 20
337.9241460151745
 30
0.0
 40
1.0
100
AcDbArc
 50
180.0
 51
270.0
  0
ARC
  5
472
330
2
100
AcDbEntity
  8
4
100
AcDbCircle
 10
388.1328173104343
 20
334.9241460151745
 30
0.0
 40
2.0
100
AcDbArc
 50
180.0
 51
270.0
  0
ARC
  5
473
330
2
100
AcDbEntity
  8
4
100
AcDbCircle
 10
412.1328173104346
 20
337.9241460151745
 30
0.0
 40
1.0
100
AcDbArc
 50
180.0
 51
270.0
  0
ARC
  5
474
330
2
100
AcDbEntity
  8
4
100
AcDbCircle
 10
405.6328173104346
 20
337.9241460151745
 30
0.0
 40
1.0
100
AcDbArc
 50
270.0
 51
0.0
  0
LINE
  5
475
330
2
100
AcDbEntity
  8
4
100
AcDbLine
 10
405.6328173104346
 20
342.9241460151745
 30
0.0
 11
397.1328173104346
 21
342.9241460151745
 31
0.0
  0
ARC
  5
476
330
2
100
AcDbEntity
  8
4
100
AcDbCircle
 10
397.1328173104346
 20
343.9241460151745
 30
0.0
 40
1.0
100
AcDbArc
 50
180.0
 51
270.0
  0
LINE
  5
477
330
2
100
AcDbEntity
  8
4
100
AcDbLine
 10
406.6328173104346
 20
341.9241460151745
 30
0.0
 11
406.6328173104346
 21
337.9241460151745
 31
0.0
  0
ARC
  5
478
330
2
100
AcDbEntity
  8
4
100
AcDbCircle
 10
405.6328173104346
 20
341.9241460151745
 30
0.0
 40
1.0
100
AcDbArc
 50
0.0
 51
90.0
  0
LINE
  5
479
330
2
100
AcDbEntity
  8
4
100
AcDbLine
 10
395.1328173104346
 20
360.9241460151745
 30
0.0
 11
391.1328173104346
 21
360.9241460151745
 31
0.0
  0
ARC
  5
47A
330
2
100
AcDbEntity
  8
4
100
AcDbCircle
 10
388.1328173104343
 20
362.9241460151745
 30
0.0
 40
2.0
100
AcDbArc
 50
90.0
 51
180.0
  0
ARC
  5
47B
330
2
100
AcDbEntity
  8
4
100
AcDbCircle
 10
391.1328173104346
 20
359.9241460151745
 30
0.0
 40
1.0
100
AcDbArc
 50
90.0
 51
180.0
  0
ARC
  5
47C
330
2
100
AcDbEntity
  8
4
100
AcDbCircle
 10
395.1328173104346
 20
359.9241460151745
 30
0.0
 40
1.0
100
AcDbArc
 50
0.0
 51
90.0
  0
ARC
  5
47D
330
2
100
AcDbEntity
  8
4
100
AcDbCircle
 10
412.1328173104346
 20
359.9241460151745
 30
0.0
 40
1.0
100
AcDbArc
 50
90.0
 51
180.0
  0
ARC
  5
47E
330
2
100
AcDbEntity
  8
4
100
AcDbCircle
 10
460.6328173104346
 20
351.9241460151745
 30
0.0
 40
3.0
100
AcDbArc
 50
90.0
 51
255.52248781407
  0
LINE
  5
47F
330
2
100
AcDbEntity
  8
4
100
AcDbLine
 10
444.1328173104346
 20
359.9241460151745
 30
0.0
 11
444.1328173104346
 21
352.8324729283725
 31
0.0
  0
LINE
  5
480
330
2
100
AcDbEntity
  8
4
100
AcDbLine
 10
466.1328173104346
 20
362.9241460151745
 30
0.0
 11
466.1328173104346
 21
334.9241460151745
 31
0.0
  0
LINE
  5
481
330
2
100
AcDbEntity
  8
4
100
AcDbLine
 10
429.1328173104346
 20
353.4241460151745
 30
0.0
 11
429.1328173104346
 21
356.4241460151745
 31
0.0
  0
ARC
  5
482
330
2
100
AcDbEntity
  8
4
100
AcDbCircle
 10
424.6328173104346
 20
341.4241460151745
 30
0.0
 40
4.5
100
AcDbArc
 50
270.0
 51
0.0
  0
LINE
  5
483
330
2
100
AcDbEntity
  8
4
100
AcDbLine
 10
429.1328173104346
 20
341.4241460151745
 30
0.0
 11
429.1328173104346
 21
344.4241460151745
 31
0.0
  0
ARC
  5
484
330
2
100
AcDbEntity
  8
4
100
AcDbCircle
 10
424.6328173104346
 20
344.4241460151745
 30
0.0
 40
4.5
100
AcDbArc
 50
0.0
 51
40.00520088485374
  0
ARC
  5
485
330
2
100
AcDbEntity
  8
4
100
AcDbCircle
 10
429.9947199578162
 20
348.9241460151745
 30
0.0
 40
2.5
100
AcDbArc
 50
139.9947991151461
 51
220.0052008848539
  0
ARC
  5
486
330
2
100
AcDbEntity
  8
4
100
AcDbCircle
 10
424.6328173104346
 20
353.4241460151745
 30
0.0
 40
4.5
100
AcDbArc
 50
319.9947991151463
 51
0.0
  0
ARC
  5
487
330
2
100
AcDbEntity
  8
4
100
AcDbCircle
 10
434.6328173104346
 20
350.9241460151745
 30
0.0
 40
1.0
100
AcDbArc
 50
90.0
 51
180.0
  0
ARC
  5
488
330
2
100
AcDbEntity
  8
4
100
AcDbCircle
 10
434.6328173104346
 20
346.9241460151745
 30
0.0
 40
1.0
100
AcDbArc
 50
180.0
 51
270.0
  0
LINE
  5
489
330
2
100
AcDbEntity
  8
4
100
AcDbLine
 10
433.6328173104346
 20
350.9241460151745
 30
0.0
 11
433.6328173104346
 21
346.9241460151745
 31
0.0
  0
ARC
  5
48A
330
2
100
AcDbEntity
  8
4
100
AcDbCircle
 10
438.6328173104346
 20
350.9241460151745
 30
0.0
 40
1.0
100
AcDbArc
 50
0.0
 51
90.0
  0
ARC
  5
48B
330
2
100
AcDbEntity
  8
4
100
AcDbCircle
 10
438.6328173104346
 20
346.9241460151745
 30
0.0
 40
1.0
100
AcDbArc
 50
270.0
 51
0.0
  0
LINE
  5
48C
330
2
100
AcDbEntity
  8
4
100
AcDbLine
 10
438.6328173104346
 20
345.9241460151745
 30
0.0
 11
434.6328173104346
 21
345.9241460151745
 31
0.0
  0
LINE
  5
48D
330
2
100
AcDbEntity
  8
4
100
AcDbLine
 10
438.6328173104346
 20
351.9241460151745
 30
0.0
 11
434.6328173104346
 21
351.9241460151745
 31
0.0
  0
LINE
  5
48E
330
2
100
AcDbEntity
  8
4
100
AcDbLine
 10
439.6328173104346
 20
350.9241460151745
 30
0.0
 11
439.6328173104346
 21
346.9241460151745
 31
0.0
  0
ARC
  5
48F
330
2
100
AcDbEntity
  8
4
100
AcDbCircle
 10
457.1328173104346
 20
341.9241460151745
 30
0.0
 40
5.0
100
AcDbArc
 50
270.0
 51
0.0
  0
ARC
  5
490
330
2
100
AcDbEntity
  8
4
100
AcDbCircle
 10
445.1328173104346
 20
337.9241460151745
 30
0.0
 40
1.0
100
AcDbArc
 50
180.0
 51
270.0
  0
ARC
  5
491
330
2
100
AcDbEntity
  8
4
100
AcDbCircle
 10
464.1328173104346
 20
334.9241460151745
 30
0.0
 40
2.0
100
AcDbArc
 50
270.0
 51
0.0
  0
LINE
  5
492
330
2
100
AcDbEntity
  8
4
100
AcDbLine
 10
457.1328173104346
 20
336.9241460151745
 30
0.0
 11
445.1328173104346
 21
336.9241460151745
 31
0.0
  0
ARC
  5
493
330
2
100
AcDbEntity
  8
4
100
AcDbCircle
 10
444.1328173104346
 20
347.4241460151745
 30
0.0
 40
4.5
100
AcDbArc
 50
280.4756816963802
 51
79.52431830361975
  0
LINE
  5
494
330
2
100
AcDbEntity
  8
4
100
AcDbLine
 10
444.1328173104346
 20
342.0158191019766
 30
0.0
 11
444.1328173104346
 21
337.9241460151745
 31
0.0
  0
ARC
  5
495
330
2
100
AcDbEntity
  8
4
100
AcDbCircle
 10
445.1328173104346
 20
342.0158191019766
 30
0.0
 40
1.0
100
AcDbArc
 50
100.4756816963802
 51
180.0
  0
ARC
  5
496
330
2
100
AcDbEntity
  8
4
100
AcDbCircle
 10
445.1328173104343
 20
352.8324729283725
 30
0.0
 40
1.0
100
AcDbArc
 50
180.0
 51
259.5243183036197
  0
ARC
  5
497
330
2
100
AcDbEntity
  8
4
100
AcDbCircle
 10
459.1328173104346
 20
346.1146709958614
 30
0.0
 40
3.0
100
AcDbArc
 50
0.0
 51
75.52248781407
  0
LINE
  5
498
330
2
100
AcDbEntity
  8
4
100
AcDbLine
 10
462.1328173104346
 20
346.1146709958614
 30
0.0
 11
462.1328173104346
 21
341.9241460151745
 31
0.0
  0
ARC
  5
499
330
2
100
AcDbEntity
  8
4
100
AcDbCircle
 10
424.6328173104346
 20
356.4241460151745
 30
0.0
 40
4.5
100
AcDbArc
 50
0.0
 51
90.0
  0
LINE
  5
49A
330
2
100
AcDbEntity
  8
4
100
AcDbLine
 10
461.1328173104346
 20
360.9241460151745
 30
0.0
 11
445.1328173104346
 21
360.9241460151745
 31
0.0
  0
ARC
  5
49B
330
2
100
AcDbEntity
  8
4
100
AcDbCircle
 10
445.1328173104346
 20
359.9241460151745
 30
0.0
 40
1.0
100
AcDbArc
 50
90.0
 51
180.0
  0
ARC
  5
49C
330
2
100
AcDbEntity
  8
4
100
AcDbCircle
 10
464.1328173104346
 20
362.9241460151745
 30
0.0
 40
2.0
100
AcDbArc
 50
0.0
 51
90.0
  0
ARC
  5
49D
330
2
100
AcDbEntity
  8
4
100
AcDbCircle
 10
461.1328173104346
 20
359.9241460151745
 30
0.0
 40
1.0
100
AcDbArc
 50
0.0
 51
90.0
  0
ARC
  5
49E
330
2
100
AcDbEntity
  8
4
100
AcDbCircle
 10
461.1328173104346
 20
355.9241460151745
 30
0.0
 40
1.0
100
AcDbArc
 50
270.0
 51
0.0
  0
LINE
  5
49F
330
2
100
AcDbEntity
  8
4
100
AcDbLine
 10
461.1328173104346
 20
354.9241460151745
 30
0.0
 11
460.6328173104346
 21
354.9241460151745
 31
0.0
  0
LINE
  5
4A0
330
2
100
AcDbEntity
  8
4
100
AcDbLine
 10
462.1328173104346
 20
359.9241460151745
 30
0.0
 11
462.1328173104346
 21
355.9241460151745
 31
0.0
  0
LINE
  5
4A2
330
2
100
AcDbEntity
  8
4
100
AcDbLine
 10
330.1328173104346
 20
292.9241460151745
 30
0.0
 11
330.1328173104346
 21
299.5233427990844
 31
0.0
  0
LINE
  5
4A3
330
2
100
AcDbEntity
  8
4
100
AcDbLine
 10
777.8554981217201
 20
335.1675187327694
 30
0.0
 11
779.8086793865559
 21
363.0993121400445
 31
0.0
  0
ARC
  5
4A4
330
2
100
AcDbEntity
  8
4
100
AcDbCircle
 10
779.8506262222397
 20
335.028005785281
 30
0.0
 40
2.0
100
AcDbArc
 50
175.999999999997
 51
265.9999999999905
  0
LINE
  5
4A5
330
2
100
AcDbEntity
  8
4
100
AcDbLine
 10
779.7111132747516
 20
333.0328776847614
 30
0.0
 11
781.0011469045573
 21
332.9426697457292
 31
0.0
  0
ARC
  5
4A6
330
2
100
AcDbEntity
  8
4
100
AcDbCircle
 10
781.8038074870756
 20
362.9597991925561
 30
0.0
 40
2.0
100
AcDbArc
 50
85.9999999999905
 51
175.999999999997
  0
LINE
  5
4A7
330
2
100
AcDbEntity
  8
4
100
AcDbLine
 10
781.9433204345637
 20
364.9549272930759
 30
0.0
 11
783.3784659841792
 21
364.8545721401165
 31
0.0
  0
ARC
  5
523
330
2
100
AcDbEntity
  8
4
100
AcDbCircle
 10
370.1328173104348
 20
299.5233427990844
 30
0.0
 40
4.0
100
AcDbArc
 50
77.54420737409448
 51
180.0
  0
ARC
  5
524
330
2
100
AcDbEntity
  8
4
100
AcDbCircle
 10
326.1328173104346
 20
299.5233427990844
 30
0.0
 40
4.0
100
AcDbArc
 50
0.0
 51
102.4557926259055
  0
LINE
  5
560
330
2
100
AcDbEntity
  8
4
100
AcDbLine
 10
1008.857730638893
 20
218.9241460151743
 30
0.0
 11
1009.857730638893
 21
217.9241460151743
 31
0.0
  0
LINE
  5
561
330
2
100
AcDbEntity
  8
4
100
AcDbLine
 10
1008.857730638893
 20
218.9241460151743
 30
0.0
 11
1008.857730638893
 21
180.9241460151743
 31
0.0
  0
LINE
  5
562
330
2
100
AcDbEntity
  8
4
100
AcDbLine
 10
1009.857730638893
 20
181.9241460151743
 30
0.0
 11
1008.857730638893
 21
180.9241460151743
 31
0.0
  0
LINE
  5
563
330
2
100
AcDbEntity
  8
4
100
AcDbLine
 10
557.1328173104347
 20
336.4241460151773
 30
0.0
 11
558.1328173104347
 21
335.4241460151773
 31
0.0
  0
LINE
  5
564
330
2
100
AcDbEntity
  8
4
100
AcDbLine
 10
557.1328173104347
 20
336.4241460151745
 30
0.0
 11
557.1328173104347
 21
309.4241460151775
 31
0.0
  0
LINE
  5
565
330
2
100
AcDbEntity
  8
4
100
AcDbLine
 10
557.1328173104347
 20
309.4241460151773
 30
0.0
 11
558.1328173104347
 21
310.4241460151773
 31
0.0
  0
LINE
  5
56A
330
2
100
AcDbEntity
  8
4
100
AcDbLine
 10
618.4232866424628
 20
339.4241460151745
 30
0.0
 11
625.4232866424628
 21
339.4241460151745
 31
0.0
  0
LINE
  5
56B
330
2
100
AcDbEntity
  8
4
100
AcDbLine
 10
618.4232866424628
 20
332.4241460151748
 30
0.0
 11
625.4232866424628
 21
332.4241460151745
 31
0.0
  0
LINE
  5
56C
330
2
100
AcDbEntity
  8
L-CENTER
 48
3.0
100
AcDbLine
 10
621.9232866424628
 20
300.1806900151744
 30
0.0
 11
621.9232866424628
 21
345.6676020151747
 31
0.0
  0
LINE
  5
56D
330
2
100
AcDbEntity
  8
4
100
AcDbLine
 10
625.4232866424628
 20
332.4241460151745
 30
0.0
 11
625.4232866424628
 21
339.4241460151745
 31
0.0
  0
LINE
  5
56E
330
2
100
AcDbEntity
  8
4
100
AcDbLine
 10
618.4232866424628
 20
332.4241460151748
 30
0.0
 11
618.4232866424628
 21
339.4241460151745
 31
0.0
  0
ARC
  5
56F
330
2
100
AcDbEntity
  8
4
100
AcDbCircle
 10
621.9232866424628
 20
322.9241460151745
 30
0.0
 40
13.5
100
AcDbArc
 50
105.0261137591195
 51
74.97388624088256
  0
LINE
  5
570
330
2
100
AcDbEntity
  8
L-CENTER
 48
3.0
100
AcDbLine
 10
644.6667426424627
 20
322.9241460151745
 30
0.0
 11
599.1798306424624
 21
322.9241460151745
 31
0.0
  0
LINE
  5
571
330
2
100
AcDbEntity
  8
4
100
AcDbLine
 10
1079.364044732122
 20
222.4241460151745
 30
0.0
 11
1089.364044732122
 21
222.4241460151745
 31
0.0
  0
LINE
  5
572
330
2
100
AcDbEntity
  8
4
100
AcDbLine
 10
1079.364044732122
 20
214.4241460151745
 30
0.0
 11
1089.364044732122
 21
214.4241460151745
 31
0.0
  0
LINE
  5
573
330
2
100
AcDbEntity
  8
4
100
AcDbLine
 10
1079.364044732122
 20
222.4241460151745
 30
0.0
 11
1079.364044732122
 21
214.4241460151745
 31
0.0
  0
LINE
  5
574
330
2
100
AcDbEntity
  8
4
100
AcDbLine
 10
1089.364044732122
 20
222.4241460151745
 30
0.0
 11
1089.364044732122
 21
214.4241460151745
 31
0.0
  0
LINE
  5
575
330
2
100
AcDbEntity
  8
L-CENTER
 48
3.0
100
AcDbLine
 10
1054.839532732122
 20
199.9241460151745
 30
0.0
 11
1113.888556732122
 21
199.9241460151745
 31
0.0
  0
ARC
  5
576
330
2
100
AcDbEntity
  8
4
100
AcDbCircle
 10
1084.364044732122
 20
199.9241460151745
 30
0.0
 40
19.0
100
AcDbArc
 50
105.257523290455
 51
74.7424767095422
  0
LINE
  5
577
330
2
100
AcDbEntity
  8
L-CENTER
 48
3.0
100
AcDbLine
 10
1084.364044732122
 20
170.3996340151746
 30
0.0
 11
1084.364044732122
 21
229.4486580151747
 31
0.0
  0
TEXT
  5
57B
330
2
100
AcDbEntity
  8
3
100
AcDbText
 10
557.1684473147191
 20
15.16451421003707
 30
0.0
 40
12.0
  1
LB5-00
 41
0.9
  7
KANJI
100
AcDbText
  0
ENDSEC
  0
SECTION
  2
OBJECTS
  0
DICTIONARY
  5
C
330
0
100
AcDbDictionary
281
     1
  3
ACAD_CIP_PREVIOUS_PRODUCT_INFO
350
4FA
  3
ACAD_COLOR
350
4A
  3
ACAD_DETAILVIEWSTYLE
350
4F4
  3
ACAD_GROUP
350
37
  3
ACAD_LAYOUT
350
19
  3
ACAD_MATERIAL
350
E
  3
ACAD_MLEADERSTYLE
350
4D
  3
ACAD_MLINESTYLE
350
38
  3
ACAD_PLOTSETTINGS
350
39
  3
ACAD_PLOTSTYLENAME
350
B
  3
ACAD_SCALELIST
350
4B
  3
ACAD_SECTIONVIEWSTYLE
350
4F2
  3
ACAD_TABLESTYLE
350
4C
  3
ACAD_VISUALSTYLE
350
2F
  3
ACDBHEADERROUNDTRIPXREC
350
57E
  3
AcDbVariableDictionary
350
4D1
  3
DWGPROPS
350
581
  0
DICTIONARY
  5
31
330
2C
100
AcDbDictionary
280
     1
281
     1
  3
ACAD_XREC_ROUNDTRIP
360
582
  0
DICTIONARY
  5
22
330
21
100
AcDbDictionary
280
     1
281
     1
  3
ACAD_LAYERSTATES
360
23
  0
DICTIONARY
  5
8
330
7
100
AcDbDictionary
280
     1
281
     1
  3
ADSK_XREC_LAYER_RECONCILED
360
9
  0
DICTIONARY
  5
352
330
351
100
AcDbDictionary
280
     1
281
     1
  3
ADSK_XREC_LAYER_RECONCILED
360
353
  0
DICTIONARY
  5
4F
330
4E
100
AcDbDictionary
280
     1
281
     1
  3
ADSK_XREC_LAYER_RECONCILED
360
50
  0
DICTIONARY
  5
69
330
68
100
AcDbDictionary
280
     1
281
     1
  3
ADSK_XREC_LAYER_RECONCILED
360
6A
  0
DICTIONARY
  5
9E
330
9D
100
AcDbDictionary
280
     1
281
     1
  3
ADSK_XREC_LAYER_RECONCILED
360
9F
  0
DICTIONARY
  5
14A
330
149
100
AcDbDictionary
280
     1
281
     1
  3
ADSK_XREC_LAYER_RECONCILED
360
14B
  0
DICTIONARY
  5
3
330
2
100
AcDbDictionary
280
     1
281
     1
  3
ACAD_SORTENTS
360
4CF
  0
XRECORD
  5
4FA
102
{ACAD_REACTORS
330
C
102
}
330
C
100
AcDbXrecord
280
     1
300
ACD
300
2014
300
ACD_F_S
  0
DICTIONARY
  5
4A
102
{ACAD_REACTORS
330
C
102
}
330
C
100
AcDbDictionary
281
     1
  0
DICTIONARY
  5
4F4
102
{ACAD_REACTORS
330
C
102
}
330
C
100
AcDbDictionary
281
     1
  3
Imperial24
350
4F5
  0
DICTIONARY
  5
37
102
{ACAD_REACTORS
330
C
102
}
330
C
100
AcDbDictionary
281
     1
  0
DICTIONARY
  5
19
102
{ACAD_REACTORS
330
C
102
}
330
C
100
AcDbDictionary
281
     1
  3
Model
350
18
  3
レイアウト1
350
20
  0
DICTIONARY
  5
E
102
{ACAD_REACTORS
330
C
102
}
330
C
100
AcDbDictionary
281
     1
  3
ByBlock
350
42
  3
ByLayer
350
3A
  3
Global
350
D
  0
DICTIONARY
  5
4D
102
{ACAD_REACTORS
330
C
102
}
330
C
100
AcDbDictionary
281
     1
  3
Standard
350
4F1
  0
DICTIONARY
  5
38
102
{ACAD_REACTORS
330
C
102
}
330
C
100
AcDbDictionary
281
     1
  3
STANDARD
350
52
  0
DICTIONARY
  5
39
102
{ACAD_REACTORS
330
C
102
}
330
C
100
AcDbDictionary
281
     1
  0
ACDBDICTIONARYWDFLT
  5
B
102
{ACAD_REACTORS
330
C
102
}
330
C
100
AcDbDictionary
281
     1
  3
Normal
350
A
100
AcDbDictionaryWithDefault
340
A
  0
DICTIONARY
  5
4B
102
{ACAD_REACTORS
330
C
102
}
330
C
100
AcDbDictionary
281
     1
  3
A0
350
56
  3
A1
350
57
  3
A2
350
58
  3
A3
350
59
  3
A4
350
5A
  3
A5
350
5B
  3
A6
350
5C
  3
A7
350
5D
  3
A8
350
5E
  3
A9
350
5F
  3
B0
350
60
  3
B1
350
61
  3
B2
350
62
  3
B3
350
63
  3
B4
350
64
  3
B5
350
65
  3
B6
350
66
  0
DICTIONARY
  5
4F2
102
{ACAD_REACTORS
330
C
102
}
330
C
100
AcDbDictionary
281
     1
  3
Imperial24
350
4F3
  0
DICTIONARY
  5
4C
102
{ACAD_REACTORS
330
C
102
}
330
C
100
AcDbDictionary
281
     1
  3
Standard
350
53
  0
DICTIONARY
  5
2F
102
{ACAD_REACTORS
330
C
102
}
330
C
100
AcDbDictionary
281
     1
  3
2dWireframe
350
2E
  3
Basic
350
4E0
  3
Brighten
350
4E4
  3
ColorChange
350
4E8
  3
Conceptual
350
4E2
  3
Dim
350
4E3
  3
EdgeColorOff
350
4F0
  3
Facepattern
350
4E7
  3
Flat
350
4DC
  3
FlatWithEdges
350
4DD
  3
Gouraud
350
4DE
  3
GouraudWithEdges
350
4DF
  3
Hidden
350
4E1
  3
JitterOff
350
4EE
  3
Linepattern
350
4E6
  3
OverhangOff
350
4EF
  3
Realistic
350
54
  3
Shaded
350
4ED
  3
Shaded with edges
350
4EC
  3
Shades of Gray
350
4E9
  3
Sketchy
350
4EA
  3
Thicken
350
4E5
  3
Wireframe
350
55
  3
X-Ray
350
4EB
  0
DICTIONARY
  5
57E
102
{ACAD_REACTORS
330
C
102
}
330
C
100
AcDbDictionary
281
     1
  3
COLORDICT
350
57F
  3
MATERIALDICT
350
580
  0
DICTIONARY
  5
4D1
102
{ACAD_REACTORS
330
C
102
}
330
C
100
AcDbDictionary
281
     1
  3
CANNOSCALE
350
4D7
  3
CMLEADERSTYLE
350
4D3
  3
CTABLESTYLE
350
4D2
  3
CVIEWDETAILSTYLE
350
4D4
  3
CVIEWSECTIONSTYLE
350
4D5
  3
DIMASSOC
350
57C
  3
HIDETEXT
350
57D
  3
LAYEREVAL
350
4D9
  3
LAYERNOTIFY
350
4DA
  3
LIGHTINGUNITS
350
4D8
  3
MSLTSCALE
350
4D6
  3
XCLIPFRAME
350
55E
  0
XRECORD
  5
581
102
{ACAD_REACTORS
330
C
102
}
330
C
100
AcDbXrecord
280
     1
  1
DWGPROPS COOKIE
  2

  3

  4

  6

  7

  8
sg-d04
  9

300
=
301
=
302
=
303
=
304
=
305
=
306
=
307
=
308
=
309
=
 40
0.0
 41
2457417.198629398
 42
2457871.454605428
  1

 90
        0
  0
XRECORD
  5
582
102
{ACAD_REACTORS
330
31
102
}
330
31
100
AcDbXrecord
280
     1
102
VTR_0.000_0.000_1.000_1.000_VISUALSTYLE
340
2E
102
VTR_0.000_0.000_1.000_1.000_GRIDDISPLAY
 70
     3
102
VTR_0.000_0.000_1.000_1.000_GRIDMAJOR
 70
     5
102
VTR_0.000_0.000_1.000_1.000_DEFAULTLIGHTING
280
     1
102
VTR_0.000_0.000_1.000_1.000_DEFAULTLIGHTINGTYPE
 70
     1
102
VTR_0.000_0.000_1.000_1.000_BRIGHTNESS
141
0.0
102
VTR_0.000_0.000_1.000_1.000_CONTRAST
142
0.0
  0
DICTIONARY
  5
23
102
{ACAD_REACTORS
330
22
102
}
330
22
100
AcDbDictionary
281
     1
  0
XRECORD
  5
9
102
{ACAD_REACTORS
330
8
102
}
330
8
100
AcDbXrecord
280
     1
290
     1
  0
XRECORD
  5
353
102
{ACAD_REACTORS
330
352
102
}
330
352
100
AcDbXrecord
280
     1
290
     1
  0
XRECORD
  5
50
102
{ACAD_REACTORS
330
4F
102
}
330
4F
100
AcDbXrecord
280
     1
290
     1
  0
XRECORD
  5
6A
102
{ACAD_REACTORS
330
69
102
}
330
69
100
AcDbXrecord
280
     1
290
     1
  0
XRECORD
  5
9F
102
{ACAD_REACTORS
330
9E
102
}
330
9E
100
AcDbXrecord
280
     1
290
     1
  0
XRECORD
  5
14B
102
{ACAD_REACTORS
330
14A
102
}
330
14A
100
AcDbXrecord
280
     1
290
     1
  0
SORTENTSTABLE
  5
4CF
102
{ACAD_REACTORS
330
3
102
}
330
3
100
AcDbSortentsTable
330
2
331
0
  5
148
331
67
  5
67
331
6B
  5
6B
331
6C
  5
6C
331
6D
  5
6D
331
6E
  5
6E
331
6F
  5
6F
331
70
  5
70
331
71
  5
71
331
72
  5
72
331
73
  5
73
331
74
  5
74
331
75
  5
75
331
76
  5
76
331
77
  5
77
331
78
  5
78
331
79
  5
79
331
7A
  5
7A
331
7B
  5
7B
331
7C
  5
7C
331
7D
  5
7D
331
7E
  5
7E
331
7F
  5
7F
331
80
  5
80
331
81
  5
81
331
82
  5
82
331
83
  5
83
331
84
  5
84
331
85
  5
85
331
86
  5
86
331
87
  5
87
331
88
  5
88
331
89
  5
89
331
8A
  5
8A
331
8B
  5
8B
331
8C
  5
8C
331
8D
  5
8D
331
8E
  5
8E
331
8F
  5
8F
331
90
  5
90
331
91
  5
91
331
92
  5
92
331
93
  5
93
331
94
  5
94
331
95
  5
95
331
96
  5
96
331
97
  5
97
331
98
  5
98
331
99
  5
99
331
9A
  5
9A
331
9B
  5
9B
331
9C
  5
9C
331
A1
  5
A1
331
A2
  5
A2
331
A3
  5
A3
331
A4
  5
A4
331
A5
  5
A5
331
A6
  5
A6
331
A7
  5
A7
331
A8
  5
A8
331
A9
  5
A9
331
AA
  5
AA
331
AB
  5
AB
331
AC
  5
AC
331
AD
  5
AD
331
AE
  5
AE
331
AF
  5
AF
331
B0
  5
B0
331
B1
  5
B1
331
B2
  5
B2
331
B3
  5
B3
331
B4
  5
B4
331
B5
  5
B5
331
B6
  5
B6
331
B7
  5
B7
331
B8
  5
B8
331
B9
  5
B9
331
BA
  5
BA
331
BB
  5
BB
331
BC
  5
BC
331
BD
  5
BD
331
BE
  5
BE
331
BF
  5
BF
331
C0
  5
C0
331
C1
  5
C1
331
C2
  5
C2
331
C3
  5
C3
331
C4
  5
C4
331
C5
  5
C5
331
C6
  5
C6
331
C7
  5
C7
331
C8
  5
C8
331
C9
  5
C9
331
CA
  5
CA
331
CB
  5
CB
331
CC
  5
CC
331
CD
  5
CD
331
CE
  5
CE
331
CF
  5
CF
331
D0
  5
D0
331
D1
  5
D1
331
D2
  5
D2
331
D3
  5
D3
331
D4
  5
D4
331
D5
  5
D5
331
D6
  5
D6
331
D7
  5
D7
331
D8
  5
D8
331
D9
  5
D9
331
DA
  5
DA
331
DB
  5
DB
331
DC
  5
DC
331
DD
  5
DD
331
DE
  5
DE
331
DF
  5
DF
331
E0
  5
E0
331
E1
  5
E1
331
E2
  5
E2
331
E3
  5
E3
331
E4
  5
E4
331
E5
  5
E5
331
E6
  5
E6
331
E7
  5
E7
331
E8
  5
E8
331
E9
  5
E9
331
EA
  5
EA
331
EB
  5
EB
331
EC
  5
EC
331
ED
  5
ED
331
EE
  5
EE
331
EF
  5
EF
331
F0
  5
F0
331
F1
  5
F1
331
F2
  5
F2
331
F3
  5
F3
331
F4
  5
F4
331
F5
  5
F5
331
F6
  5
F6
331
F7
  5
F7
331
F8
  5
F8
331
F9
  5
F9
331
FA
  5
FA
331
FB
  5
FB
331
FC
  5
FC
331
FD
  5
FD
331
FE
  5
FE
331
FF
  5
FF
331
100
  5
100
331
101
  5
101
331
102
  5
102
331
103
  5
103
331
104
  5
104
331
105
  5
105
331
106
  5
106
331
107
  5
107
331
108
  5
108
331
109
  5
109
331
10A
  5
10A
331
10B
  5
10B
331
10C
  5
10C
331
10D
  5
10D
331
10E
  5
10E
331
10F
  5
10F
331
110
  5
110
331
111
  5
111
331
112
  5
112
331
113
  5
113
331
114
  5
114
331
115
  5
115
331
116
  5
116
331
117
  5
117
331
118
  5
118
331
119
  5
119
331
11A
  5
11A
331
11B
  5
11B
331
11C
  5
11C
331
11D
  5
11D
331
11E
  5
11E
331
11F
  5
11F
331
120
  5
120
331
121
  5
121
331
122
  5
122
331
123
  5
123
331
124
  5
124
331
125
  5
125
331
126
  5
126
331
127
  5
127
331
128
  5
128
331
129
  5
129
331
12A
  5
12A
331
12B
  5
12B
331
12C
  5
12C
331
12D
  5
12D
331
12E
  5
12E
331
12F
  5
12F
331
130
  5
130
331
131
  5
131
331
132
  5
132
331
133
  5
133
331
134
  5
134
331
135
  5
135
331
136
  5
136
331
137
  5
137
331
138
  5
138
331
139
  5
139
331
13A
  5
13A
331
13B
  5
13B
331
13C
  5
13C
331
13D
  5
13D
331
13E
  5
13E
331
13F
  5
13F
331
140
  5
140
331
141
  5
141
331
142
  5
142
331
143
  5
143
331
144
  5
144
331
145
  5
145
331
146
  5
146
331
147
  5
147
331
15C
  5
15C
331
15D
  5
15D
331
15E
  5
15E
331
15F
  5
15F
331
160
  5
160
331
161
  5
161
331
163
  5
163
331
164
  5
164
331
165
  5
165
331
166
  5
166
331
167
  5
167
331
168
  5
168
331
169
  5
169
331
16A
  5
16A
331
170
  5
170
331
171
  5
171
331
172
  5
172
331
173
  5
173
331
174
  5
174
331
175
  5
175
331
176
  5
176
331
177
  5
177
331
178
  5
178
331
179
  5
179
331
17A
  5
17A
331
17B
  5
17B
331
17C
  5
17C
331
17D
  5
17D
331
17E
  5
17E
331
17F
  5
17F
331
180
  5
180
331
181
  5
181
331
182
  5
182
331
183
  5
183
331
184
  5
184
331
185
  5
185
331
186
  5
186
331
187
  5
187
331
188
  5
188
331
189
  5
189
331
18A
  5
18A
331
18B
  5
18B
331
18C
  5
18C
331
193
  5
193
331
194
  5
194
331
195
  5
195
331
196
  5
196
331
197
  5
197
331
198
  5
198
331
19A
  5
19A
331
19B
  5
19B
331
19C
  5
19C
331
19D
  5
19D
331
19E
  5
19E
331
19F
  5
19F
331
1A0
  5
1A0
331
1A1
  5
1A1
331
1A2
  5
1A2
331
1A3
  5
1A3
331
1AE
  5
1AE
331
1AF
  5
1AF
331
1B0
  5
1B0
331
1B1
  5
1B1
331
1B2
  5
1B2
331
1B3
  5
1B3
331
1B4
  5
1B4
331
1B5
  5
1B5
331
1B6
  5
1B6
331
1B7
  5
1B7
331
1B8
  5
1B8
331
1B9
  5
1B9
331
1BA
  5
1BA
331
1BB
  5
1BB
331
1BC
  5
1BC
331
1BD
  5
1BD
331
1BE
  5
1BE
331
1BF
  5
1BF
331
1C0
  5
1C0
331
1C1
  5
1C1
331
1C2
  5
1C2
331
1C3
  5
1C3
331
1C4
  5
1C4
331
1C5
  5
1C5
331
1C6
  5
1C6
331
1C7
  5
1C7
331
1C8
  5
1C8
331
1C9
  5
1C9
331
1CA
  5
1CA
331
1CB
  5
1CB
331
1CC
  5
1CC
331
1CD
  5
1CD
331
1CE
  5
1CE
331
1CF
  5
1CF
331
1D0
  5
1D0
331
1D1
  5
1D1
331
1D2
  5
1D2
331
1D3
  5
1D3
331
1D4
  5
1D4
331
1D5
  5
1D5
331
1D6
  5
1D6
331
1D7
  5
1D7
331
1D8
  5
1D8
331
1D9
  5
1D9
331
1DA
  5
1DA
331
1DB
  5
1DB
331
1EC
  5
1EC
331
1ED
  5
1ED
331
1EE
  5
1EE
331
1EF
  5
1EF
331
1F2
  5
1F2
331
1F3
  5
1F3
331
1F4
  5
1F4
331
1F6
  5
1F6
331
1F9
  5
1F9
331
1FA
  5
1FA
331
1FB
  5
1FB
331
200
  5
200
331
203
  5
203
331
204
  5
204
331
209
  5
209
331
212
  5
212
331
213
  5
213
331
214
  5
214
331
215
  5
215
331
216
  5
216
331
217
  5
217
331
218
  5
218
331
219
  5
219
331
21A
  5
21A
331
21B
  5
21B
331
21C
  5
21C
331
21D
  5
21D
331
21E
  5
21E
331
21F
  5
21F
331
220
  5
220
331
22A
  5
22A
331
22B
  5
22B
331
22C
  5
22C
331
22D
  5
22D
331
22E
  5
22E
331
22F
  5
22F
331
230
  5
230
331
231
  5
231
331
232
  5
232
331
233
  5
233
331
234
  5
234
331
239
  5
239
331
23A
  5
23A
331
23B
  5
23B
331
23C
  5
23C
331
23D
  5
23D
331
23E
  5
23E
331
23F
  5
23F
331
240
  5
240
331
241
  5
241
331
242
  5
242
331
243
  5
243
331
244
  5
244
331
245
  5
245
331
246
  5
246
331
247
  5
247
331
248
  5
248
331
249
  5
249
331
24A
  5
24A
331
24D
  5
24D
331
24E
  5
24E
331
24F
  5
24F
331
250
  5
250
331
251
  5
251
331
252
  5
252
331
253
  5
253
331
254
  5
254
331
255
  5
255
331
256
  5
256
331
257
  5
257
331
258
  5
258
331
259
  5
259
331
25A
  5
25A
331
25B
  5
25B
331
25C
  5
25C
331
25D
  5
25D
331
25E
  5
25E
331
25F
  5
25F
331
260
  5
260
331
261
  5
261
331
262
  5
262
331
263
  5
263
331
264
  5
264
331
265
  5
265
331
266
  5
266
331
267
  5
267
331
268
  5
268
331
269
  5
269
331
26A
  5
26A
331
26B
  5
26B
331
26C
  5
26C
331
26D
  5
26D
331
26E
  5
26E
331
26F
  5
26F
331
270
  5
270
331
271
  5
271
331
272
  5
272
331
273
  5
273
331
274
  5
274
331
275
  5
275
331
276
  5
276
331
277
  5
277
331
278
  5
278
331
279
  5
279
331
27A
  5
27A
331
27B
  5
27B
331
27C
  5
27C
331
27D
  5
27D
331
27E
  5
27E
331
27F
  5
27F
331
280
  5
280
331
281
  5
281
331
282
  5
282
331
283
  5
283
331
284
  5
284
331
285
  5
285
331
286
  5
286
331
287
  5
287
331
288
  5
288
331
289
  5
289
331
28A
  5
28A
331
28B
  5
28B
331
28C
  5
28C
331
28D
  5
28D
331
28E
  5
28E
331
28F
  5
28F
331
290
  5
290
331
291
  5
291
331
292
  5
292
331
293
  5
293
331
294
  5
294
331
295
  5
295
331
296
  5
296
331
297
  5
297
331
298
  5
298
331
299
  5
299
331
29A
  5
29A
331
29B
  5
29B
331
29C
  5
29C
331
29D
  5
29D
331
29E
  5
29E
331
29F
  5
29F
331
2A0
  5
2A0
331
2A1
  5
2A1
331
2A2
  5
2A2
331
2A3
  5
2A3
331
2A4
  5
2A4
331
2A5
  5
2A5
331
2A6
  5
2A6
331
2A7
  5
2A7
331
2A9
  5
2A9
331
2AA
  5
2AA
331
2AB
  5
2AB
331
2AD
  5
2AD
331
2AE
  5
2AE
331
2AF
  5
2AF
331
2B0
  5
2B0
331
2B1
  5
2B1
331
2B2
  5
2B2
331
2B3
  5
2B3
331
2B4
  5
2B4
331
2B5
  5
2B5
331
2B6
  5
2B6
331
2B7
  5
2B7
331
2B8
  5
2B8
331
2B9
  5
2B9
331
2BA
  5
2BA
331
2BB
  5
2BB
331
2BC
  5
2BC
331
2BD
  5
2BD
331
2BE
  5
2BE
331
2BF
  5
2BF
331
2C0
  5
2C0
331
2C1
  5
2C1
331
2C5
  5
2C5
331
2C8
  5
2C8
331
2CD
  5
2CD
331
2CE
  5
2CE
331
2CF
  5
2CF
331
2D0
  5
2D0
331
2D1
  5
2D1
331
2D3
  5
2D3
331
2D4
  5
2D4
331
2D5
  5
2D5
331
2D6
  5
2D6
331
2D7
  5
2D7
331
2DC
  5
2DC
331
2DD
  5
2DD
331
2E9
  5
2E9
331
2EA
  5
2EA
331
2EB
  5
2EB
331
2EC
  5
2EC
331
2ED
  5
2ED
331
2EE
  5
2EE
331
316
  5
316
331
317
  5
317
331
321
  5
321
331
322
  5
322
331
33A
  5
33A
331
33B
  5
33B
331
33C
  5
33C
331
33D
  5
33D
331
33E
  5
33E
331
33F
  5
33F
331
340
  5
340
331
341
  5
341
331
342
  5
343
331
343
  5
344
331
344
  5
345
331
345
  5
346
331
346
  5
348
331
347
  5
349
331
348
  5
34A
331
349
  5
34B
331
465
  5
467
331
466
  5
468
331
467
  5
469
331
468
  5
46A
331
469
  5
46B
331
46A
  5
46C
331
46B
  5
46D
331
46C
  5
46F
331
46D
  5
470
331
46F
  5
471
331
470
  5
472
331
471
  5
473
331
472
  5
474
331
473
  5
475
331
474
  5
476
331
475
  5
477
331
476
  5
478
331
477
  5
479
331
478
  5
47A
331
479
  5
47B
331
47A
  5
47C
331
47B
  5
47D
331
47C
  5
47E
331
47D
  5
47F
331
47E
  5
480
331
47F
  5
481
331
480
  5
482
331
481
  5
483
331
482
  5
484
331
483
  5
485
331
484
  5
486
331
485
  5
487
331
486
  5
488
331
487
  5
489
331
488
  5
48A
331
489
  5
48B
331
48A
  5
48C
331
48B
  5
48D
331
48C
  5
48E
331
48D
  5
48F
331
48E
  5
490
331
48F
  5
491
331
490
  5
492
331
491
  5
493
331
492
  5
494
331
493
  5
495
331
494
  5
496
331
495
  5
497
331
496
  5
498
331
497
  5
499
331
498
  5
49A
331
499
  5
49B
331
49A
  5
49C
331
49B
  5
49D
331
49C
  5
49E
331
49D
  5
49F
331
49E
  5
4A0
331
49F
  5
4A2
331
4A0
  5
4A3
331
4A2
  5
4A4
331
4A3
  5
4A5
331
4A4
  5
4A6
331
4A5
  5
4A7
331
4A6
  5
4A8
331
4A7
  5
4A9
331
523
  5
347
331
524
  5
342
  0
ACDBDETAILVIEWSTYLE
  5
4F5
102
{ACAD_REACTORS
330
4F4
102
}
102
{ACAD_XDICTIONARY
360
50C
102
}
330
4F4
100
AcDbModelDocViewStyle
 70
     0
  3
Imperial24
290
     0
100
AcDbDetailViewStyle
 70
     0
 71
     0
 90
        3
 71
     1
340
25
 40
0.24
340
0
 40
0.24
300

 40
0.36
280
     3
 71
     2
340
16
 90
       25
 71
     3
340
25
 40
0.24
 90
        1
 40
0.75
 90
        1
300
%<\AcVar ViewType \f "%tc1">% %<\AcVar ViewDetailId>%\PSCALE %<\AcVar ViewScale \f "%sn">%
 71
     4
340
16
 90
       25
340
16
 90
       25
280
     0
  0
LAYOUT
  5
18
102
{ACAD_REACTORS
330
19
102
}
330
19
100
AcDbPlotSettings
  1

  2
Bullzip PDF Printer.pc3
  4
A3
  6

 40
0.2
 41
0.0
 42
0.0
 43
0.0
 44
420.2
 45
297.1
 46
25.0
 47
12.0
 48
59.99999986
 49
0.0
140
1205.999997235
141
817.4999980924995
142
1.0
143
3.0
 70
 11936
 72
     1
 73
     0
 74
     4
  7
monochrome.ctb
 75
     0
147
0.3333333333333333
148
-59.99999986
149
0.0
100
AcDbLayout
  1
Model
 70
     0
 71
     0
 10
0.0
 20
0.0
 11
12.0
 21
9.0
 12
0.0
 22
0.0
 32
0.0
 14
188.1328173104345
 24
15.16451421003707
 34
0.0
 15
1113.888556732122
 25
795.7647841512342
 35
0.0
146
0.0
 13
0.0
 23
0.0
 33
0.0
 16
1.0
 26
0.0
 36
0.0
 17
0.0
 27
1.0
 37
0.0
 76
     0
330
2
331
2D
1001
ACAD_PSEXT
1000
Bullzip PDF Printer.pc3
1000
Bullzip PDF Printer
1000
BULLZIP
1000
Bullzip PDF Printer 10.1.0.1871
1070
     0
  0
LAYOUT
  5
20
102
{ACAD_REACTORS
330
19
102
}
330
19
100
AcDbPlotSettings
  1

  2
RICOH imagio Neo 250 RP-GL/2
  4

  6

 40
0.0
 41
0.0
 42
0.0
 43
0.0
 44
0.0
 45
0.0
 46
0.0
 47
0.0
 48
0.0
 49
0.0
140
0.0
141
0.0
142
1.0
143
1.0
 70
   688
 72
     0
 73
     0
 74
     5
  7
monochrome.ctb
 75
    16
147
1.0
148
0.0
149
0.0
100
AcDbLayout
  1
レイアウト1
 70
     0
 71
     1
 10
0.0
 20
0.0
 11
12.0
 21
9.0
 12
0.0
 22
0.0
 32
0.0
 14
1.000000000000000E+20
 24
1.000000000000000E+20
 34
1.000000000000000E+20
 15
-1.000000000000000E+20
 25
-1.000000000000000E+20
 35
-1.000000000000000E+20
146
0.0
 13
0.0
 23
0.0
 33
0.0
 16
1.0
 26
0.0
 36
0.0
 17
0.0
 27
1.0
 37
0.0
 76
     0
330
1B
  0
MATERIAL
  5
42
102
{ACAD_REACTORS
330
E
102
}
102
{ACAD_XDICTIONARY
360
584
102
}
330
E
100
AcDbMaterial
  1
ByBlock
 72
     0
 73
     2
 43
0.0208333333333333
 43
0.0
 43
0.0
 43
0.0
 43
0.0
 43
0.0208333333333333
 43
0.0
 43
0.0
 43
0.0
 43
0.0
 43
1.0
 43
0.0
 43
0.0
 43
0.0
 43
0.0
 43
1.0
 77
     0
 78
     2
 47
0.0208333333333333
 47
0.0
 47
0.0
 47
0.0
 47
0.0
 47
0.0208333333333333
 47
0.0
 47
0.0
 47
0.0
 47
0.0
 47
1.0
 47
0.0
 47
0.0
 47
0.0
 47
0.0
 47
1.0
171
     0
172
     2
 49
0.0208333333333333
 49
0.0
 49
0.0
 49
0.0
 49
0.0
 49
0.0208333333333333
 49
0.0
 49
0.0
 49
0.0
 49
0.0
 49
1.0
 49
0.0
 49
0.0
 49
0.0
 49
0.0
 49
1.0
175
     0
176
     2
142
0.0208333333333333
142
0.0
142
0.0
142
0.0
142
0.0
142
0.0208333333333333
142
0.0
142
0.0
142
0.0
142
0.0
142
1.0
142
0.0
142
0.0
142
0.0
142
0.0
142
1.0
179
     0
270
     2
144
0.0208333333333333
144
0.0
144
0.0
144
0.0
144
0.0
144
0.0208333333333333
144
0.0
144
0.0
144
0.0
144
0.0
144
1.0
144
0.0
144
0.0
144
0.0
144
0.0
144
1.0
274
     2
147
0.0208333333333333
147
0.0
147
0.0
147
0.0
147
0.0
147
0.0208333333333333
147
0.0
147
0.0
147
0.0
147
0.0
147
1.0
147
0.0
147
0.0
147
0.0
147
0.0
147
1.0
  0
MATERIAL
  5
3A
102
{ACAD_REACTORS
330
E
102
}
102
{ACAD_XDICTIONARY
360
586
102
}
330
E
100
AcDbMaterial
  1
ByLayer
 72
     0
 73
     2
 43
0.0208333333333333
 43
0.0
 43
0.0
 43
0.0
 43
0.0
 43
0.0208333333333333
 43
0.0
 43
0.0
 43
0.0
 43
0.0
 43
1.0
 43
0.0
 43
0.0
 43
0.0
 43
0.0
 43
1.0
 77
     0
 78
     2
 47
0.0208333333333333
 47
0.0
 47
0.0
 47
0.0
 47
0.0
 47
0.0208333333333333
 47
0.0
 47
0.0
 47
0.0
 47
0.0
 47
1.0
 47
0.0
 47
0.0
 47
0.0
 47
0.0
 47
1.0
171
     0
172
     2
 49
0.0208333333333333
 49
0.0
 49
0.0
 49
0.0
 49
0.0
 49
0.0208333333333333
 49
0.0
 49
0.0
 49
0.0
 49
0.0
 49
1.0
 49
0.0
 49
0.0
 49
0.0
 49
0.0
 49
1.0
175
     0
176
     2
142
0.0208333333333333
142
0.0
142
0.0
142
0.0
142
0.0
142
0.0208333333333333
142
0.0
142
0.0
142
0.0
142
0.0
142
1.0
142
0.0
142
0.0
142
0.0
142
0.0
142
1.0
179
     0
270
     2
144
0.0208333333333333
144
0.0
144
0.0
144
0.0
144
0.0
144
0.0208333333333333
144
0.0
144
0.0
144
0.0
144
0.0
144
1.0
144
0.0
144
0.0
144
0.0
144
0.0
144
1.0
274
     2
147
0.0208333333333333
147
0.0
147
0.0
147
0.0
147
0.0
147
0.0208333333333333
147
0.0
147
0.0
147
0.0
147
0.0
147
1.0
147
0.0
147
0.0
147
0.0
147
0.0
147
1.0
  0
MATERIAL
  5
D
102
{ACAD_REACTORS
330
E
102
}
102
{ACAD_XDICTIONARY
360
588
102
}
330
E
100
AcDbMaterial
  1
Global
 72
     0
 73
     2
 43
0.0208333333333333
 43
0.0
 43
0.0
 43
0.0
 43
0.0
 43
0.0208333333333333
 43
0.0
 43
0.0
 43
0.0
 43
0.0
 43
1.0
 43
0.0
 43
0.0
 43
0.0
 43
0.0
 43
1.0
 77
     0
 78
     2
 47
0.0208333333333333
 47
0.0
 47
0.0
 47
0.0
 47
0.0
 47
0.0208333333333333
 47
0.0
 47
0.0
 47
0.0
 47
0.0
 47
1.0
 47
0.0
 47
0.0
 47
0.0
 47
0.0
 47
1.0
171
     0
172
     2
 49
0.0208333333333333
 49
0.0
 49
0.0
 49
0.0
 49
0.0
 49
0.0208333333333333
 49
0.0
 49
0.0
 49
0.0
 49
0.0
 49
1.0
 49
0.0
 49
0.0
 49
0.0
 49
0.0
 49
1.0
175
     0
176
     2
142
0.0208333333333333
142
0.0
142
0.0
142
0.0
142
0.0
142
0.0208333333333333
142
0.0
142
0.0
142
0.0
142
0.0
142
1.0
142
0.0
142
0.0
142
0.0
142
0.0
142
1.0
179
     0
270
     2
144
0.0208333333333333
144
0.0
144
0.0
144
0.0
144
0.0
144
0.0208333333333333
144
0.0
144
0.0
144
0.0
144
0.0
144
1.0
144
0.0
144
0.0
144
0.0
144
0.0
144
1.0
274
     2
147
0.0208333333333333
147
0.0
147
0.0
147
0.0
147
0.0
147
0.0208333333333333
147
0.0
147
0.0
147
0.0
147
0.0
147
1.0
147
0.0
147
0.0
147
0.0
147
0.0
147
1.0
1001
ACAD
1070
    -1
1070
     3
1070
     0
1000

1071
        0
  0
MLEADERSTYLE
  5
4F1
102
{ACAD_REACTORS
330
4D
102
}
102
{ACAD_XDICTIONARY
360
58A
102
}
330
4D
100
AcDbMLeaderStyle
170
     2
171
     1
172
     0
 90
        2
 40
0.0
 41
0.0
173
     1
 91
-1056964608
340
28
 92
       -2
290
     1
 42
0.09
291
     1
 43
0.36
  3
Standard
341
0
 44
0.18
300

342
25
174
     1
178
     6
175
     1
176
     0
 93
-1056964608
 45
0.18
292
     0
297
     0
 46
0.18
343
0
 94
-1056964608
 47
1.0
 49
1.0
140
1.0
293
     1
141
0.0
294
     1
177
     0
142
1.0
295
     1
296
     0
143
0.125
1001
ACAD_MLEADERVER
1070
     2
  0
MLINESTYLE
  5
52
102
{ACAD_REACTORS
330
38
102
}
330
38
100
AcDbMlineStyle
  2
STANDARD
 70
     0
  3

 62
     0
 51
90.0
 52
90.0
 71
     2
 49
0.5
 62
   256
  6
BYLAYER
 49
-0.5
 62
   256
  6
BYLAYER
  0
ACDBPLACEHOLDER
  5
A
102
{ACAD_REACTORS
330
B
102
}
330
B
  0
SCALE
  5
56
102
{ACAD_REACTORS
330
4B
102
}
330
4B
100
AcDbScale
 70
     0
300
1:1
140
1.0
141
1.0
290
     1
  0
SCALE
  5
57
102
{ACAD_REACTORS
330
4B
102
}
330
4B
100
AcDbScale
 70
     0
300
1/128" = 1'-0"
140
0.0078125
141
12.0
290
     0
  0
SCALE
  5
58
102
{ACAD_REACTORS
330
4B
102
}
330
4B
100
AcDbScale
 70
     0
300
1/64" = 1'-0"
140
0.015625
141
12.0
290
     0
  0
SCALE
  5
59
102
{ACAD_REACTORS
330
4B
102
}
330
4B
100
AcDbScale
 70
     0
300
1/32" = 1'-0"
140
0.03125
141
12.0
290
     0
  0
SCALE
  5
5A
102
{ACAD_REACTORS
330
4B
102
}
330
4B
100
AcDbScale
 70
     0
300
1/16" = 1'-0"
140
0.0625
141
12.0
290
     0
  0
SCALE
  5
5B
102
{ACAD_REACTORS
330
4B
102
}
330
4B
100
AcDbScale
 70
     0
300
3/32" = 1'-0"
140
0.09375
141
12.0
290
     0
  0
SCALE
  5
5C
102
{ACAD_REACTORS
330
4B
102
}
330
4B
100
AcDbScale
 70
     0
300
1/8" = 1'-0"
140
0.125
141
12.0
290
     0
  0
SCALE
  5
5D
102
{ACAD_REACTORS
330
4B
102
}
330
4B
100
AcDbScale
 70
     0
300
3/16" = 1'-0"
140
0.1875
141
12.0
290
     0
  0
SCALE
  5
5E
102
{ACAD_REACTORS
330
4B
102
}
330
4B
100
AcDbScale
 70
     0
300
1/4" = 1'-0"
140
0.25
141
12.0
290
     0
  0
SCALE
  5
5F
102
{ACAD_REACTORS
330
4B
102
}
330
4B
100
AcDbScale
 70
     0
300
3/8" = 1'-0"
140
0.375
141
12.0
290
     0
  0
SCALE
  5
60
102
{ACAD_REACTORS
330
4B
102
}
330
4B
100
AcDbScale
 70
     0
300
1/2" = 1'-0"
140
0.5
141
12.0
290
     0
  0
SCALE
  5
61
102
{ACAD_REACTORS
330
4B
102
}
330
4B
100
AcDbScale
 70
     0
300
3/4" = 1'-0"
140
0.75
141
12.0
290
     0
  0
SCALE
  5
62
102
{ACAD_REACTORS
330
4B
102
}
330
4B
100
AcDbScale
 70
     0
300
1" = 1'-0"
140
1.0
141
12.0
290
     0
  0
SCALE
  5
63
102
{ACAD_REACTORS
330
4B
102
}
330
4B
100
AcDbScale
 70
     0
300
1-1/2" = 1'-0"
140
1.5
141
12.0
290
     0
  0
SCALE
  5
64
102
{ACAD_REACTORS
330
4B
102
}
330
4B
100
AcDbScale
 70
     0
300
3" = 1'-0"
140
3.0
141
12.0
290
     0
  0
SCALE
  5
65
102
{ACAD_REACTORS
330
4B
102
}
330
4B
100
AcDbScale
 70
     0
300
6" = 1'-0"
140
6.0
141
12.0
290
     0
  0
SCALE
  5
66
102
{ACAD_REACTORS
330
4B
102
}
330
4B
100
AcDbScale
 70
     0
300
1'-0" = 1'-0"
140
12.0
141
12.0
290
     0
  0
ACDBSECTIONVIEWSTYLE
  5
4F3
102
{ACAD_REACTORS
330
4F2
102
}
102
{ACAD_XDICTIONARY
360
50A
102
}
330
4F2
100
AcDbModelDocViewStyle
 70
     0
  3
Imperial24
290
     0
100
AcDbSectionViewStyle
 70
     0
 71
     0
 90
       78
 71
     1
340
25
 40
0.24
340
0
340
0
 40
0.24
300
I, O, Q, S, X, Z
 40
0.48
 90
        3
 40
0.18
 90
        1
 71
     2
340
16
 90
       25
340
16
 90
       50
 40
0.24
 40
0.0
 40
0.24
 71
     3
340
25
 40
0.24
 90
        1
 40
0.75
 90
        1
300
%<\AcVar ViewType \f "%tc1">% %<\AcVar ViewSectionStartId>%-%<\AcVar ViewSectionEndId>%\PSCALE %<\AcVar ViewScale \f "%sn">%
 71
     4
300
ANSI31
 40
1.0
 90
        0
290
     0
290
     0
 90
        6
 40
0.0
 40
1.570796326794897
 40
0.2617993877991494
 40
1.308996938995747
 40
-0.2617993877991494
 40
1.832595714594046
  0
TABLESTYLE
  5
53
102
{ACAD_REACTORS
330
4C
102
}
330
4C
100
AcDbTableStyle
  3
Standard
 70
     0
 71
     0
 40
0.06
 41
0.06
280
     0
281
     0
  7
STANDARD
140
0.18
170
     2
 62
     0
 63
   257
283
     0
274
    -2
284
     1
 64
     0
275
    -2
285
     1
 65
     0
276
    -2
286
     1
 66
     0
277
    -2
287
     1
 67
     0
278
    -2
288
     1
 68
     0
279
    -2
289
     1
 69
     0
  7
STANDARD
140
0.25
170
     5
 62
     0
 63
   257
283
     0
274
    -2
284
     1
 64
     0
275
    -2
285
     1
 65
     0
276
    -2
286
     1
 66
     0
277
    -2
287
     1
 67
     0
278
    -2
288
     1
 68
     0
279
    -2
289
     1
 69
     0
  7
STANDARD
140
0.18
170
     5
 62
     0
 63
   257
283
     0
274
    -2
284
     1
 64
     0
275
    -2
285
     1
 65
     0
276
    -2
286
     1
 66
     0
277
    -2
287
     1
 67
     0
278
    -2
288
     1
 68
     0
279
    -2
289
     1
 69
     0
  0
VISUALSTYLE
  5
2E
102
{ACAD_REACTORS
330
2F
102
}
102
{ACAD_XDICTIONARY
360
58D
102
}
330
2F
100
AcDbVisualStyle
  2
2dWireframe
 70
     4
 71
     0
 72
     2
 73
     0
 90
        0
 40
0.6
 41
30.0
 62
     5
 63
     7
 74
     1
 91
        4
 64
     7
 65
   257
 75
     1
175
     1
 42
1.0
 92
        0
 66
   257
 43
1.0
 76
     1
 77
     6
 78
     2
 67
     7
 79
     5
170
     0
171
     0
290
     0
174
     0
 93
        1
 44
0.0
173
     0
291
     0
 45
0.0
1001
ACAD
1000
AcDbSavedByObjectVersion
1070
     0
  0
VISUALSTYLE
  5
4E0
102
{ACAD_REACTORS
330
2F
102
}
102
{ACAD_XDICTIONARY
360
58F
102
}
330
2F
100
AcDbVisualStyle
  2
Basic
 70
     7
 71
     1
 72
     0
 73
     1
 90
        0
 40
0.6
 41
30.0
 62
     5
 63
     7
 74
     0
 91
        4
 64
     7
 65
   257
 75
     1
175
     1
 42
1.0
 92
        8
 66
     7
 43
1.0
 76
     1
 77
     6
 78
     2
 67
     7
 79
     5
170
     0
171
     0
290
     0
174
     0
 93
        1
 44
0.0
173
     0
291
     1
 45
0.0
1001
ACAD
1000
AcDbSavedByObjectVersion
1070
     0
  0
VISUALSTYLE
  5
4E4
102
{ACAD_REACTORS
330
2F
102
}
102
{ACAD_XDICTIONARY
360
591
102
}
330
2F
100
AcDbVisualStyle
  2
Brighten
 70
    12
 71
     2
 72
     2
 73
     0
 90
        0
 40
0.6
 41
30.0
 62
     5
 63
     7
 74
     1
 91
        4
 64
     7
 65
   257
 75
     1
175
     1
 42
1.0
 92
        8
 66
     7
 43
1.0
 76
     1
 77
     6
 78
     2
 67
     7
 79
     5
170
     0
171
     0
290
     0
174
     0
 93
        1
 44
50.0
173
     0
291
     1
 45
0.0
1001
ACAD
1000
AcDbSavedByObjectVersion
1070
     0
  0
VISUALSTYLE
  5
4E8
102
{ACAD_REACTORS
330
2F
102
}
102
{ACAD_XDICTIONARY
360
593
102
}
330
2F
100
AcDbVisualStyle
  2
ColorChange
 70
    16
 71
     2
 72
     2
 73
     3
 90
        0
 40
0.6
 41
30.0
 62
     5
 63
     8
 74
     1
 91
        4
 64
     7
 65
   257
 75
     1
175
     1
 42
1.0
 92
        8
 66
     8
 43
1.0
 76
     1
 77
     6
 78
     2
 67
     7
 79
     5
170
     0
171
     0
290
     0
174
     0
 93
        1
 44
0.0
173
     0
291
     1
 45
0.0
1001
ACAD
1000
AcDbSavedByObjectVersion
1070
     0
  0
VISUALSTYLE
  5
4E2
102
{ACAD_REACTORS
330
2F
102
}
102
{ACAD_XDICTIONARY
360
595
102
}
330
2F
100
AcDbVisualStyle
  2
Conceptual
 70
     9
 71
     3
 72
     2
 73
     0
 90
        0
 40
0.6
 41
30.0
 62
     5
 63
     7
 74
     2
 91
        2
 64
     7
 65
   257
 75
     1
175
     1
 42
179.0
 92
        8
 66
     7
 43
1.0
 76
     1
 77
     6
 78
     2
 67
     7
 79
     3
170
     0
171
     0
290
     0
174
     0
 93
        1
 44
0.0
173
     0
291
     0
 45
0.0
1001
ACAD
1000
AcDbSavedByObjectVersion
1070
     0
  0
VISUALSTYLE
  5
4E3
102
{ACAD_REACTORS
330
2F
102
}
102
{ACAD_XDICTIONARY
360
597
102
}
330
2F
100
AcDbVisualStyle
  2
Dim
 70
    11
 71
     2
 72
     2
 73
     0
 90
        0
 40
0.6
 41
30.0
 62
     5
 63
     7
 74
     1
 91
        4
 64
     7
 65
   257
 75
     1
175
     1
 42
1.0
 92
        8
 66
     7
 43
1.0
 76
     1
 77
     6
 78
     2
 67
     7
 79
     5
170
     0
171
     0
290
     0
174
     0
 93
        1
 44
-50.0
173
     0
291
     1
 45
0.0
1001
ACAD
1000
AcDbSavedByObjectVersion
1070
     0
  0
VISUALSTYLE
  5
4F0
102
{ACAD_REACTORS
330
2F
102
}
102
{ACAD_XDICTIONARY
360
599
102
}
330
2F
100
AcDbVisualStyle
  2
EdgeColorOff
 70
    22
 71
     2
 72
     2
 73
     0
 90
        0
 40
0.6
 41
30.0
 62
     5
 63
     7
 74
     1
 91
        4
 64
     7
 65
   257
 75
     1
175
     1
 42
1.0
 92
        8
 66
     7
 43
1.0
 76
     1
 77
     6
 78
     2
 67
     7
 79
     5
170
     0
171
     0
290
     0
174
     0
 93
        1
 44
0.0
173
     0
291
     1
 45
0.0
1001
ACAD
1000
AcDbSavedByObjectVersion
1070
     0
  0
VISUALSTYLE
  5
4E7
102
{ACAD_REACTORS
330
2F
102
}
102
{ACAD_XDICTIONARY
360
59B
102
}
330
2F
100
AcDbVisualStyle
  2
Facepattern
 70
    15
 71
     2
 72
     2
 73
     0
 90
        0
 40
0.6
 41
30.0
 62
     5
 63
     7
 74
     1
 91
        4
 64
     7
 65
   257
 75
     1
175
     1
 42
1.0
 92
        8
 66
     7
 43
1.0
 76
     1
 77
     6
 78
     2
 67
     7
 79
     5
170
     0
171
     0
290
     0
174
     0
 93
        1
 44
0.0
173
     0
291
     1
 45
0.0
1001
ACAD
1000
AcDbSavedByObjectVersion
1070
     0
  0
VISUALSTYLE
  5
4DC
102
{ACAD_REACTORS
330
2F
102
}
102
{ACAD_XDICTIONARY
360
59D
102
}
330
2F
100
AcDbVisualStyle
  2
Flat
 70
     0
 71
     2
 72
     1
 73
     1
 90
        2
 40
0.6
 41
30.0
 62
     5
 63
     7
 74
     0
 91
        0
 64
     7
 65
   257
 75
     1
175
     1
 42
1.0
 92
        8
 66
     7
 43
1.0
 76
     1
 77
     6
 78
     2
 67
     7
 79
     5
170
     0
171
     0
290
     0
174
     0
 93
       13
 44
0.0
173
     0
291
     1
 45
0.0
1001
ACAD
1000
AcDbSavedByObjectVersion
1070
     0
  0
VISUALSTYLE
  5
4DD
102
{ACAD_REACTORS
330
2F
102
}
102
{ACAD_XDICTIONARY
360
59F
102
}
330
2F
100
AcDbVisualStyle
  2
FlatWithEdges
 70
     1
 71
     2
 72
     1
 73
     1
 90
        2
 40
0.6
 41
30.0
 62
     5
 63
     7
 74
     1
 91
        0
 64
     7
 65
   257
 75
     1
175
     1
 42
1.0
 92
        0
 66
   257
 43
1.0
 76
     1
 77
     6
 78
     2
 67
     7
 79
     5
170
     0
171
     0
290
     0
174
     0
 93
       13
 44
0.0
173
     0
291
     1
 45
0.0
1001
ACAD
1000
AcDbSavedByObjectVersion
1070
     0
  0
VISUALSTYLE
  5
4DE
102
{ACAD_REACTORS
330
2F
102
}
102
{ACAD_XDICTIONARY
360
5A1
102
}
330
2F
100
AcDbVisualStyle
  2
Gouraud
 70
     2
 71
     2
 72
     2
 73
     1
 90
        2
 40
0.6
 41
30.0
 62
     5
 63
     7
 74
     0
 91
        0
 64
     7
 65
   257
 75
     1
175
     1
 42
1.0
 92
        0
 66
     7
 43
1.0
 76
     1
 77
     6
 78
     2
 67
     7
 79
     5
170
     0
171
     0
290
     0
174
     0
 93
       13
 44
0.0
173
     0
291
     1
 45
0.0
1001
ACAD
1000
AcDbSavedByObjectVersion
1070
     0
  0
VISUALSTYLE
  5
4DF
102
{ACAD_REACTORS
330
2F
102
}
102
{ACAD_XDICTIONARY
360
5A3
102
}
330
2F
100
AcDbVisualStyle
  2
GouraudWithEdges
 70
     3
 71
     2
 72
     2
 73
     1
 90
        2
 40
0.6
 41
30.0
 62
     5
 63
     7
 74
     1
 91
        0
 64
     7
 65
   257
 75
     1
175
     1
 42
1.0
 92
        0
 66
   257
 43
1.0
 76
     1
 77
     6
 78
     2
 67
     7
 79
     5
170
     0
171
     0
290
     0
174
     0
 93
       13
 44
0.0
173
     0
291
     1
 45
0.0
1001
ACAD
1000
AcDbSavedByObjectVersion
1070
     0
  0
VISUALSTYLE
  5
4E1
102
{ACAD_REACTORS
330
2F
102
}
102
{ACAD_XDICTIONARY
360
5A5
102
}
330
2F
100
AcDbVisualStyle
  2
Hidden
 70
     6
 71
     1
 72
     2
 73
     2
 90
        0
 40
0.6
 41
30.0
 62
     5
 63
     7
 74
     2
 91
        2
 64
     7
 65
   257
 75
     2
175
     1
 42
40.0
 92
        0
 66
   257
 43
1.0
 76
     1
 77
     6
 78
     2
 67
     7
 79
     3
170
     0
171
     0
290
     0
174
     0
 93
        1
 44
0.0
173
     0
291
     0
 45
0.0
1001
ACAD
1000
AcDbSavedByObjectVersion
1070
     0
  0
VISUALSTYLE
  5
4EE
102
{ACAD_REACTORS
330
2F
102
}
102
{ACAD_XDICTIONARY
360
5A7
102
}
330
2F
100
AcDbVisualStyle
  2
JitterOff
 70
    20
 71
     2
 72
     2
 73
     0
 90
        0
 40
0.6
 41
30.0
 62
     5
 63
     7
 74
     1
 91
        4
 64
     7
 65
   257
 75
     1
175
     1
 42
1.0
 92
       10
 66
     7
 43
1.0
 76
     1
 77
     6
 78
     2
 67
     7
 79
     5
170
     0
171
     0
290
     0
174
     0
 93
        1
 44
0.0
173
     0
291
     1
 45
0.0
1001
ACAD
1000
AcDbSavedByObjectVersion
1070
     0
  0
VISUALSTYLE
  5
4E6
102
{ACAD_REACTORS
330
2F
102
}
102
{ACAD_XDICTIONARY
360
5A9
102
}
330
2F
100
AcDbVisualStyle
  2
Linepattern
 70
    14
 71
     2
 72
     2
 73
     0
 90
        0
 40
0.6
 41
30.0
 62
     5
 63
     7
 74
     1
 91
        4
 64
     7
 65
   257
 75
     7
175
     7
 42
1.0
 92
        8
 66
     7
 43
1.0
 76
     1
 77
     6
 78
     2
 67
     7
 79
     5
170
     0
171
     0
290
     0
174
     0
 93
        1
 44
0.0
173
     0
291
     1
 45
0.0
1001
ACAD
1000
AcDbSavedByObjectVersion
1070
     0
  0
VISUALSTYLE
  5
4EF
102
{ACAD_REACTORS
330
2F
102
}
102
{ACAD_XDICTIONARY
360
5AB
102
}
330
2F
100
AcDbVisualStyle
  2
OverhangOff
 70
    21
 71
     2
 72
     2
 73
     0
 90
        0
 40
0.6
 41
30.0
 62
     5
 63
     7
 74
     1
 91
        4
 64
     7
 65
   257
 75
     1
175
     1
 42
1.0
 92
        9
 66
     7
 43
1.0
 76
     1
 77
     6
 78
     2
 67
     7
 79
     5
170
     0
171
     0
290
     0
174
     0
 93
        1
 44
0.0
173
     0
291
     1
 45
0.0
1001
ACAD
1000
AcDbSavedByObjectVersion
1070
     0
  0
VISUALSTYLE
  5
54
102
{ACAD_REACTORS
330
2F
102
}
102
{ACAD_XDICTIONARY
360
5AD
102
}
330
2F
100
AcDbVisualStyle
  2
Realistic
 70
     8
 71
     2
 72
     3
 73
     0
 90
        2
 40
0.6
 41
30.0
 62
     5
 63
     7
 74
     0
 91
        0
 64
     7
 65
   257
 75
     1
175
     1
 42
1.0
 92
        8
 66
   257
 43
1.0
 76
     1
 77
     6
 78
     2
 67
     7
 79
     3
170
     0
171
     0
290
     0
174
     0
 93
       13
 44
0.0
173
     0
291
     0
 45
0.0
1001
ACAD
1000
AcDbSavedByObjectVersion
1070
     0
  0
VISUALSTYLE
  5
4ED
102
{ACAD_REACTORS
330
2F
102
}
102
{ACAD_XDICTIONARY
360
5AF
102
}
330
2F
100
AcDbVisualStyle
  2
Shaded
 70
    27
 71
     2
 72
     2
 73
     1
 90
        2
 40
0.6
 41
30.0
 62
     5
 63
     7
 74
     0
 91
        4
 64
     7
 65
   257
 75
     1
175
     1
 42
1.0
 92
        8
 66
   257
 43
1.0
 76
     1
 77
     6
 78
     2
 67
     8
 79
     3
170
     0
171
     0
290
     0
174
     0
 93
        5
 44
0.0
173
     0
291
     0
 45
0.0
1001
ACAD
1000
AcDbSavedByObjectVersion
1070
     0
  0
VISUALSTYLE
  5
4EC
102
{ACAD_REACTORS
330
2F
102
}
102
{ACAD_XDICTIONARY
360
5B1
102
}
330
2F
100
AcDbVisualStyle
  2
Shaded with edges
 70
    26
 71
     2
 72
     2
 73
     1
 90
        2
 40
0.6
 41
30.0
 62
     5
 63
     7
 74
     1
 91
       10
 64
     7
 65
   257
 75
     2
175
     1
 42
1.0
 92
        8
 66
   257
 43
1.0
 76
     1
 77
     6
 78
     2
 67
     7
 79
     3
170
     0
171
     0
290
     0
174
     0
 93
        5
 44
0.0
173
     0
291
     0
 45
0.0
1001
ACAD
1000
AcDbSavedByObjectVersion
1070
     0
  0
VISUALSTYLE
  5
4E9
102
{ACAD_REACTORS
330
2F
102
}
102
{ACAD_XDICTIONARY
360
5B3
102
}
330
2F
100
AcDbVisualStyle
  2
Shades of Gray
 70
    23
 71
     2
 72
     2
 73
     3
 90
        0
 40
0.6
 41
30.0
 62
     5
 63
     7
 74
     2
 91
        2
 64
     7
 65
     7
 75
     1
175
     1
 42
40.0
 92
        8
 66
     7
 43
1.0
 76
     1
 77
     6
 78
     2
 67
     7
 79
     3
170
     0
171
     0
290
     0
174
     0
 93
        1
 44
0.0
173
     0
291
     0
 45
0.0
1001
ACAD
1000
AcDbSavedByObjectVersion
1070
     0
  0
VISUALSTYLE
  5
4EA
102
{ACAD_REACTORS
330
2F
102
}
102
{ACAD_XDICTIONARY
360
5B5
102
}
330
2F
100
AcDbVisualStyle
  2
Sketchy
 70
    24
 71
     1
 72
     2
 73
     2
 90
        0
 40
0.6
 41
30.0
 62
     5
 63
     7
 74
     2
 91
        2
 64
     7
 65
     7
 75
     1
175
     1
 42
40.0
 92
       11
 66
     7
 43
1.0
 76
     1
 77
     6
 78
     2
 67
     7
 79
     6
170
     0
171
     0
290
     0
174
     0
 93
        1
 44
0.0
173
     0
291
     0
 45
0.0
1001
ACAD
1000
AcDbSavedByObjectVersion
1070
     0
  0
VISUALSTYLE
  5
4E5
102
{ACAD_REACTORS
330
2F
102
}
102
{ACAD_XDICTIONARY
360
5B7
102
}
330
2F
100
AcDbVisualStyle
  2
Thicken
 70
    13
 71
     2
 72
     2
 73
     0
 90
        0
 40
0.6
 41
30.0
 62
     5
 63
     7
 74
     1
 91
        4
 64
     7
 65
   257
 75
     1
175
     1
 42
1.0
 92
       12
 66
     7
 43
1.0
 76
     1
 77
     6
 78
     2
 67
     7
 79
     5
170
     0
171
     0
290
     0
174
     0
 93
        1
 44
0.0
173
     0
291
     1
 45
0.0
1001
ACAD
1000
AcDbSavedByObjectVersion
1070
     0
  0
VISUALSTYLE
  5
55
102
{ACAD_REACTORS
330
2F
102
}
102
{ACAD_XDICTIONARY
360
5B9
102
}
330
2F
100
AcDbVisualStyle
  2
Wireframe
 70
     5
 71
     0
 72
     2
 73
     0
 90
        0
 40
0.6
 41
30.0
 62
     5
 63
     7
 74
     1
 91
        4
 64
     7
 65
   257
 75
     1
175
     1
 42
1.0
 92
        0
 66
   257
 43
1.0
 76
     1
 77
     6
 78
     2
 67
     7
 79
     3
170
     0
171
     0
290
     0
174
     0
 93
        1
 44
0.0
173
     0
291
     0
 45
0.0
1001
ACAD
1000
AcDbSavedByObjectVersion
1070
     0
  0
VISUALSTYLE
  5
4EB
102
{ACAD_REACTORS
330
2F
102
}
102
{ACAD_XDICTIONARY
360
5BB
102
}
330
2F
100
AcDbVisualStyle
  2
X-Ray
 70
    25
 71
     2
 72
     2
 73
     1
 90
        1
 40
0.5
 41
30.0
 62
     5
 63
     7
 74
     1
 91
        0
 64
     7
 65
   257
 75
     1
175
     1
 42
1.0
 92
        8
 66
     7
 43
1.0
 76
     1
 77
     6
 78
     2
 67
     7
 79
     3
170
     0
171
     0
290
     0
174
     0
 93
       13
 44
0.0
173
     0
291
     0
 45
0.0
1001
ACAD
1000
AcDbSavedByObjectVersion
1070
     0
  0
XRECORD
  5
57F
102
{ACAD_REACTORS
330
57E
102
}
330
57E
100
AcDbXrecord
280
     1
340
4A
  0
XRECORD
  5
580
102
{ACAD_REACTORS
330
57E
102
}
330
57E
100
AcDbXrecord
280
     1
340
E
  0
DICTIONARYVAR
  5
4D7
102
{ACAD_REACTORS
330
4D1
102
}
330
4D1
100
DictionaryVariables
280
     0
  1
1:1
  0
DICTIONARYVAR
  5
4D3
102
{ACAD_REACTORS
330
4D1
102
}
330
4D1
100
DictionaryVariables
280
     0
  1
Standard
  0
DICTIONARYVAR
  5
4D2
102
{ACAD_REACTORS
330
4D1
102
}
330
4D1
100
DictionaryVariables
280
     0
  1
Standard
  0
DICTIONARYVAR
  5
4D4
102
{ACAD_REACTORS
330
4D1
102
}
330
4D1
100
DictionaryVariables
280
     0
  1
Imperial24
  0
DICTIONARYVAR
  5
4D5
102
{ACAD_REACTORS
330
4D1
102
}
330
4D1
100
DictionaryVariables
280
     0
  1
Imperial24
  0
DICTIONARYVAR
  5
57C
102
{ACAD_REACTORS
330
4D1
102
}
330
4D1
100
DictionaryVariables
280
     0
  1
0
  0
DICTIONARYVAR
  5
57D
102
{ACAD_REACTORS
330
4D1
102
}
330
4D1
100
DictionaryVariables
280
     0
  1
1
  0
DICTIONARYVAR
  5
4D9
102
{ACAD_REACTORS
330
4D1
102
}
330
4D1
100
DictionaryVariables
280
     0
  1
1
  0
DICTIONARYVAR
  5
4DA
102
{ACAD_REACTORS
330
4D1
102
}
330
4D1
100
DictionaryVariables
280
     0
  1
15
  0
DICTIONARYVAR
  5
4D8
102
{ACAD_REACTORS
330
4D1
102
}
330
4D1
100
DictionaryVariables
280
     0
  1
0
  0
DICTIONARYVAR
  5
4D6
102
{ACAD_REACTORS
330
4D1
102
}
330
4D1
100
DictionaryVariables
280
     0
  1
0
  0
DICTIONARYVAR
  5
55E
102
{ACAD_REACTORS
330
4D1
102
}
330
4D1
100
DictionaryVariables
280
     0
  1
0
  0
DICTIONARY
  5
50C
330
4F5
100
AcDbDictionary
280
     1
281
     1
  3
ACAD_XREC_ROUNDTRIP
360
583
  0
DICTIONARY
  5
584
330
42
100
AcDbDictionary
280
     1
281
     1
  3
ACAD_XREC_ROUNDTRIP
360
585
  0
DICTIONARY
  5
586
330
3A
100
AcDbDictionary
280
     1
281
     1
  3
ACAD_XREC_ROUNDTRIP
360
587
  0
DICTIONARY
  5
588
330
D
100
AcDbDictionary
280
     1
281
     1
  3
ACAD_XREC_ROUNDTRIP
360
589
  0
DICTIONARY
  5
58A
330
4F1
100
AcDbDictionary
280
     1
281
     1
  3
ACAD_XREC_ROUNDTRIP
360
58B
  0
DICTIONARY
  5
50A
330
4F3
100
AcDbDictionary
280
     1
281
     1
  3
ACAD_XREC_ROUNDTRIP
360
58C
  0
DICTIONARY
  5
58D
330
2E
100
AcDbDictionary
280
     1
281
     1
  3
ACAD_XREC_ROUNDTRIP
360
58E
  0
DICTIONARY
  5
58F
330
4E0
100
AcDbDictionary
280
     1
281
     1
  3
ACAD_XREC_ROUNDTRIP
360
590
  0
DICTIONARY
  5
591
330
4E4
100
AcDbDictionary
280
     1
281
     1
  3
ACAD_XREC_ROUNDTRIP
360
592
  0
DICTIONARY
  5
593
330
4E8
100
AcDbDictionary
280
     1
281
     1
  3
ACAD_XREC_ROUNDTRIP
360
594
  0
DICTIONARY
  5
595
330
4E2
100
AcDbDictionary
280
     1
281
     1
  3
ACAD_XREC_ROUNDTRIP
360
596
  0
DICTIONARY
  5
597
330
4E3
100
AcDbDictionary
280
     1
281
     1
  3
ACAD_XREC_ROUNDTRIP
360
598
  0
DICTIONARY
  5
599
330
4F0
100
AcDbDictionary
280
     1
281
     1
  3
ACAD_XREC_ROUNDTRIP
360
59A
  0
DICTIONARY
  5
59B
330
4E7
100
AcDbDictionary
280
     1
281
     1
  3
ACAD_XREC_ROUNDTRIP
360
59C
  0
DICTIONARY
  5
59D
330
4DC
100
AcDbDictionary
280
     1
281
     1
  3
ACAD_XREC_ROUNDTRIP
360
59E
  0
DICTIONARY
  5
59F
330
4DD
100
AcDbDictionary
280
     1
281
     1
  3
ACAD_XREC_ROUNDTRIP
360
5A0
  0
DICTIONARY
  5
5A1
330
4DE
100
AcDbDictionary
280
     1
281
     1
  3
ACAD_XREC_ROUNDTRIP
360
5A2
  0
DICTIONARY
  5
5A3
330
4DF
100
AcDbDictionary
280
     1
281
     1
  3
ACAD_XREC_ROUNDTRIP
360
5A4
  0
DICTIONARY
  5
5A5
330
4E1
100
AcDbDictionary
280
     1
281
     1
  3
ACAD_XREC_ROUNDTRIP
360
5A6
  0
DICTIONARY
  5
5A7
330
4EE
100
AcDbDictionary
280
     1
281
     1
  3
ACAD_XREC_ROUNDTRIP
360
5A8
  0
DICTIONARY
  5
5A9
330
4E6
100
AcDbDictionary
280
     1
281
     1
  3
ACAD_XREC_ROUNDTRIP
360
5AA
  0
DICTIONARY
  5
5AB
330
4EF
100
AcDbDictionary
280
     1
281
     1
  3
ACAD_XREC_ROUNDTRIP
360
5AC
  0
DICTIONARY
  5
5AD
330
54
100
AcDbDictionary
280
     1
281
     1
  3
ACAD_XREC_ROUNDTRIP
360
5AE
  0
DICTIONARY
  5
5AF
330
4ED
100
AcDbDictionary
280
     1
281
     1
  3
ACAD_XREC_ROUNDTRIP
360
5B0
  0
DICTIONARY
  5
5B1
330
4EC
100
AcDbDictionary
280
     1
281
     1
  3
ACAD_XREC_ROUNDTRIP
360
5B2
  0
DICTIONARY
  5
5B3
330
4E9
100
AcDbDictionary
280
     1
281
     1
  3
ACAD_XREC_ROUNDTRIP
360
5B4
  0
DICTIONARY
  5
5B5
330
4EA
100
AcDbDictionary
280
     1
281
     1
  3
ACAD_XREC_ROUNDTRIP
360
5B6
  0
DICTIONARY
  5
5B7
330
4E5
100
AcDbDictionary
280
     1
281
     1
  3
ACAD_XREC_ROUNDTRIP
360
5B8
  0
DICTIONARY
  5
5B9
330
55
100
AcDbDictionary
280
     1
281
     1
  3
ACAD_XREC_ROUNDTRIP
360
5BA
  0
DICTIONARY
  5
5BB
330
4EB
100
AcDbDictionary
280
     1
281
     1
  3
ACAD_XREC_ROUNDTRIP
360
5BC
  0
XRECORD
  5
583
102
{ACAD_REACTORS
330
50C
102
}
330
50C
100
AcDbXrecord
280
     1
102
DISPLAYNAME
  1
Imperial24
102
FLAGS
 90
        0
  0
XRECORD
  5
585
102
{ACAD_REACTORS
330
584
102
}
330
584
100
AcDbXrecord
280
     1
102
MATERIAL
148
0.0
149
0.0
149
0.0
 93
        0
 94
      127
282
     0
 72
     0
 77
     0
171
     0
175
     0
179
     0
273
     0
  0
XRECORD
  5
587
102
{ACAD_REACTORS
330
586
102
}
330
586
100
AcDbXrecord
280
     1
102
MATERIAL
148
0.0
149
0.0
149
0.0
 93
        0
 94
      127
282
     0
 72
     0
 77
     0
171
     0
175
     0
179
     0
273
     0
  0
XRECORD
  5
589
102
{ACAD_REACTORS
330
588
102
}
330
588
100
AcDbXrecord
280
     1
102
MATERIAL
148
0.0
149
0.0
149
0.0
 93
        0
 94
      127
282
     0
 72
     0
 77
     0
171
     0
175
     0
179
     0
273
     0
  0
XRECORD
  5
58B
102
{ACAD_REACTORS
330
58A
102
}
330
58A
100
AcDbXrecord
280
     1
102
ACAD_ROUNDTRIP_2012_MLEADER_STYLE
298
     1
  0
XRECORD
  5
58C
102
{ACAD_REACTORS
330
50A
102
}
330
50A
100
AcDbXrecord
280
     1
102
DISPLAYNAME
  1
Imperial24
102
FLAGS
 90
        0
  0
XRECORD
  5
58E
102
{ACAD_REACTORS
330
58D
102
}
330
58D
100
AcDbXrecord
280
     1
102
RTVSPropertyOp0
 70
     1
102
RTVSPropertyOp1
 70
     1
102
RTVSPropertyOp2
 70
     1
102
RTVSPropertyOp3
 70
     1
102
RTVSPropertyOp4
 70
     1
102
RTVSPropertyOp5
 70
     1
102
RTVSPropertyOp6
 70
     1
102
RTVSPropertyOp7
 70
     1
102
RTVSPropertyOp8
 70
     1
102
RTVSPropertyOp9
 70
     1
102
RTVSPropertyOp10
 70
     1
102
RTVSPropertyOp11
 70
     1
102
RTVSPropertyOp12
 70
     1
102
RTVSPropertyOp13
 70
     1
102
RTVSPropertyOp14
 70
     1
102
RTVSPropertyOp15
 70
     1
102
RTVSPropertyOp16
 70
     1
102
RTVSPropertyOp17
 70
     1
102
RTVSPropertyOp18
 70
     1
102
RTVSPropertyOp19
 70
     1
102
RTVSPropertyOp20
 70
     1
102
RTVSPropertyOp21
 70
     1
102
RTVSPropertyOp22
 70
     1
102
RTVSPropertyOp23
 70
     1
102
RTVSPropertyOp24
 70
     1
102
RTVSPropertyOp25
 70
     1
102
RTVSPropertyOp26
 70
     1
102
RTVSPropertyOp27
 70
     1
102
RTVSPropertyOp28
 70
     1
102
RTVSPropertyOp29
 70
     1
102
RTVSPropertyOp30
 70
     1
102
RTVSPropertyOp31
 70
     1
102
RTVSPropertyOp32
 70
     1
102
RTVSPropertyOp33
 70
     1
102
RTVSPropertyOp34
 70
     1
102
RTVSPropertyOp35
 70
     1
102
RTVSPropertyOp36
 70
     1
102
RTVSPropertyOp37
 70
     1
102
RTVSPropertyOp38
 70
     1
102
RTVSPropertyOp39
 70
     1
102
RTVSPropertyOp40
 70
     1
102
RTVSPropertyOp41
 70
     1
102
RTVSPropertyOp42
 70
     1
102
RTVSPropertyOp43
 70
     1
102
RTVSPropertyOp44
 70
     1
102
RTVSPropertyOp45
 70
     1
102
RTVSPropertyOp46
 70
     1
102
RTVSPropertyOp47
 70
     1
102
RTVSPropertyOp48
 70
     1
102
RTVSPropertyOp49
 70
     1
102
RTVSPropertyOp50
 70
     1
102
RTVSPropertyOp51
 70
     0
102
RTVSPropertyOp52
 70
     0
102
RTVSPropertyOp53
 70
     1
102
RTVSPropertyOp54
 70
     1
102
RTVSPropertyOp55
 70
     1
102
RTVSPropertyOp56
 70
     1
102
RTVSPropertyOp57
 70
     1
102
RTVSPost2010Prop28
280
     1
102
RTVSPost2010PropOp28
 70
     1
102
RTVSPost2010Prop29
280
     1
102
RTVSPost2010PropOp29
 70
     1
102
RTVSPost2010Prop30
280
     0
102
RTVSPost2010PropOp30
 70
     1
102
RTVSPost2010Prop31
280
     0
102
RTVSPost2010PropOp31
 70
     1
102
RTVSPost2010Prop32
280
     0
102
RTVSPost2010PropOp32
 70
     1
102
RTVSPost2010Prop33
280
     0
102
RTVSPost2010PropOp33
 70
     1
102
RTVSPost2010Prop34
280
     0
102
RTVSPost2010PropOp34
 70
     1
102
RTVSPost2010Prop35
280
     0
102
RTVSPost2010PropOp35
 70
     1
102
RTVSPost2010Prop36
280
     0
102
RTVSPost2010PropOp36
 70
     1
102
RTVSPost2010Prop37
 90
       50
102
RTVSPost2010PropOp37
 70
     1
102
RTVSPost2010Prop38
140
0.0
102
RTVSPost2010PropOp38
 70
     1
102
RTVSPost2010Prop39
140
1.0
102
RTVSPost2010PropOp39
 70
     1
102
RTVSPost2010Prop40
 90
        0
102
RTVSPost2010PropOp40
 70
     1
102
RTVSPost2010Prop41ColorIndex
 90
       18
102
RTVSPost2010Prop41ColorRGB
 90
        0
102
RTVSPost2010PropOp41
 70
     1
102
RTVSPost2010Prop42
 90
       50
102
RTVSPost2010PropOp42
 70
     1
102
RTVSPost2010Prop43
 90
        3
102
RTVSPost2010PropOp43
 70
     1
102
RTVSPost2010Prop44ColorIndex
 90
        5
102
RTVSPost2010Prop44ColorRGB
 90
      255
102
RTVSPost2010PropOp44
 70
     1
102
RTVSPost2010Prop45
280
     0
102
RTVSPost2010PropOp45
 70
     1
102
RTVSPost2010Prop46
 90
       50
102
RTVSPost2010PropOp46
 70
     1
102
RTVSPost2010Prop47
 90
       50
102
RTVSPost2010PropOp47
 70
     1
102
RTVSPost2010Prop48
 90
       50
102
RTVSPost2010PropOp48
 70
     1
102
RTVSPost2010Prop49
280
     0
102
RTVSPost2010PropOp49
 70
     1
102
RTVSPost2010Prop50
 90
       50
102
RTVSPost2010PropOp50
 70
     1
102
RTVSPost2010Prop51ColorIndex
 90
      256
102
RTVSPost2010Prop51ColorRGB
 90
-16777216
102
RTVSPost2010PropOp51
 70
     0
102
RTVSPost2010Prop52
140
1.0
102
RTVSPost2010PropOp52
 70
     0
102
RTVSPost2010Prop53
 90
        2
102
RTVSPost2010PropOp53
 70
     1
102
RTVSPost2010Prop54
  1
strokes_ogs.tif
102
RTVSPost2010PropOp54
 70
     1
102
RTVSPost2010Prop55
280
     0
102
RTVSPost2010PropOp55
 70
     1
102
RTVSPost2010Prop56
140
1.0
102
RTVSPost2010PropOp56
 70
     1
102
RTVSPost2010Prop57
140
1.0
102
RTVSPost2010PropOp57
 70
     1
  0
XRECORD
  5
590
102
{ACAD_REACTORS
330
58F
102
}
330
58F
100
AcDbXrecord
280
     1
102
RTVSPropertyOp0
 70
     1
102
RTVSPropertyOp1
 70
     1
102
RTVSPropertyOp2
 70
     1
102
RTVSPropertyOp3
 70
     1
102
RTVSPropertyOp4
 70
     1
102
RTVSPropertyOp5
 70
     1
102
RTVSPropertyOp6
 70
     1
102
RTVSPropertyOp7
 70
     1
102
RTVSPropertyOp8
 70
     1
102
RTVSPropertyOp9
 70
     1
102
RTVSPropertyOp10
 70
     1
102
RTVSPropertyOp11
 70
     1
102
RTVSPropertyOp12
 70
     1
102
RTVSPropertyOp13
 70
     1
102
RTVSPropertyOp14
 70
     1
102
RTVSPropertyOp15
 70
     1
102
RTVSPropertyOp16
 70
     1
102
RTVSPropertyOp17
 70
     1
102
RTVSPropertyOp18
 70
     1
102
RTVSPropertyOp19
 70
     1
102
RTVSPropertyOp20
 70
     1
102
RTVSPropertyOp21
 70
     1
102
RTVSPropertyOp22
 70
     1
102
RTVSPropertyOp23
 70
     1
102
RTVSPropertyOp24
 70
     1
102
RTVSPropertyOp25
 70
     1
102
RTVSPropertyOp26
 70
     1
102
RTVSPropertyOp27
 70
     1
102
RTVSPropertyOp28
 70
     1
102
RTVSPropertyOp29
 70
     1
102
RTVSPropertyOp30
 70
     1
102
RTVSPropertyOp31
 70
     1
102
RTVSPropertyOp32
 70
     1
102
RTVSPropertyOp33
 70
     1
102
RTVSPropertyOp34
 70
     1
102
RTVSPropertyOp35
 70
     1
102
RTVSPropertyOp36
 70
     1
102
RTVSPropertyOp37
 70
     1
102
RTVSPropertyOp38
 70
     1
102
RTVSPropertyOp39
 70
     1
102
RTVSPropertyOp40
 70
     1
102
RTVSPropertyOp41
 70
     1
102
RTVSPropertyOp42
 70
     1
102
RTVSPropertyOp43
 70
     1
102
RTVSPropertyOp44
 70
     1
102
RTVSPropertyOp45
 70
     1
102
RTVSPropertyOp46
 70
     1
102
RTVSPropertyOp47
 70
     1
102
RTVSPropertyOp48
 70
     1
102
RTVSPropertyOp49
 70
     1
102
RTVSPropertyOp50
 70
     1
102
RTVSPropertyOp51
 70
     0
102
RTVSPropertyOp52
 70
     0
102
RTVSPropertyOp53
 70
     1
102
RTVSPropertyOp54
 70
     1
102
RTVSPropertyOp55
 70
     1
102
RTVSPropertyOp56
 70
     1
102
RTVSPropertyOp57
 70
     1
102
RTVSPost2010Prop28
280
     0
102
RTVSPost2010PropOp28
 70
     1
102
RTVSPost2010Prop29
280
     1
102
RTVSPost2010PropOp29
 70
     1
102
RTVSPost2010Prop30
280
     1
102
RTVSPost2010PropOp30
 70
     1
102
RTVSPost2010Prop31
280
     0
102
RTVSPost2010PropOp31
 70
     1
102
RTVSPost2010Prop32
280
     0
102
RTVSPost2010PropOp32
 70
     1
102
RTVSPost2010Prop33
280
     0
102
RTVSPost2010PropOp33
 70
     1
102
RTVSPost2010Prop34
280
     0
102
RTVSPost2010PropOp34
 70
     1
102
RTVSPost2010Prop35
280
     0
102
RTVSPost2010PropOp35
 70
     1
102
RTVSPost2010Prop36
280
     0
102
RTVSPost2010PropOp36
 70
     1
102
RTVSPost2010Prop37
 90
       50
102
RTVSPost2010PropOp37
 70
     1
102
RTVSPost2010Prop38
140
0.0
102
RTVSPost2010PropOp38
 70
     1
102
RTVSPost2010Prop39
140
1.0
102
RTVSPost2010PropOp39
 70
     1
102
RTVSPost2010Prop40
 90
        0
102
RTVSPost2010PropOp40
 70
     1
102
RTVSPost2010Prop41ColorIndex
 90
       18
102
RTVSPost2010Prop41ColorRGB
 90
        0
102
RTVSPost2010PropOp41
 70
     1
102
RTVSPost2010Prop42
 90
       50
102
RTVSPost2010PropOp42
 70
     1
102
RTVSPost2010Prop43
 90
        3
102
RTVSPost2010PropOp43
 70
     1
102
RTVSPost2010Prop44ColorIndex
 90
        5
102
RTVSPost2010Prop44ColorRGB
 90
      255
102
RTVSPost2010PropOp44
 70
     1
102
RTVSPost2010Prop45
280
     0
102
RTVSPost2010PropOp45
 70
     1
102
RTVSPost2010Prop46
 90
       50
102
RTVSPost2010PropOp46
 70
     1
102
RTVSPost2010Prop47
 90
       50
102
RTVSPost2010PropOp47
 70
     1
102
RTVSPost2010Prop48
 90
       50
102
RTVSPost2010PropOp48
 70
     1
102
RTVSPost2010Prop49
280
     0
102
RTVSPost2010PropOp49
 70
     1
102
RTVSPost2010Prop50
 90
       50
102
RTVSPost2010PropOp50
 70
     1
102
RTVSPost2010Prop51ColorIndex
 90
      256
102
RTVSPost2010Prop51ColorRGB
 90
-16777216
102
RTVSPost2010PropOp51
 70
     0
102
RTVSPost2010Prop52
140
1.0
102
RTVSPost2010PropOp52
 70
     0
102
RTVSPost2010Prop53
 90
        2
102
RTVSPost2010PropOp53
 70
     1
102
RTVSPost2010Prop54
  1
strokes_ogs.tif
102
RTVSPost2010PropOp54
 70
     1
102
RTVSPost2010Prop55
280
     0
102
RTVSPost2010PropOp55
 70
     1
102
RTVSPost2010Prop56
140
1.0
102
RTVSPost2010PropOp56
 70
     1
102
RTVSPost2010Prop57
140
1.0
102
RTVSPost2010PropOp57
 70
     1
  0
XRECORD
  5
592
102
{ACAD_REACTORS
330
591
102
}
330
591
100
AcDbXrecord
280
     1
102
RTVSPropertyOp0
 70
     1
102
RTVSPropertyOp1
 70
     1
102
RTVSPropertyOp2
 70
     1
102
RTVSPropertyOp3
 70
     1
102
RTVSPropertyOp4
 70
     1
102
RTVSPropertyOp5
 70
     1
102
RTVSPropertyOp6
 70
     1
102
RTVSPropertyOp7
 70
     1
102
RTVSPropertyOp8
 70
     1
102
RTVSPropertyOp9
 70
     1
102
RTVSPropertyOp10
 70
     1
102
RTVSPropertyOp11
 70
     1
102
RTVSPropertyOp12
 70
     1
102
RTVSPropertyOp13
 70
     1
102
RTVSPropertyOp14
 70
     1
102
RTVSPropertyOp15
 70
     1
102
RTVSPropertyOp16
 70
     1
102
RTVSPropertyOp17
 70
     1
102
RTVSPropertyOp18
 70
     1
102
RTVSPropertyOp19
 70
     1
102
RTVSPropertyOp20
 70
     1
102
RTVSPropertyOp21
 70
     1
102
RTVSPropertyOp22
 70
     1
102
RTVSPropertyOp23
 70
     1
102
RTVSPropertyOp24
 70
     1
102
RTVSPropertyOp25
 70
     1
102
RTVSPropertyOp26
 70
     1
102
RTVSPropertyOp27
 70
     1
102
RTVSPropertyOp28
 70
     1
102
RTVSPropertyOp29
 70
     1
102
RTVSPropertyOp30
 70
     1
102
RTVSPropertyOp31
 70
     1
102
RTVSPropertyOp32
 70
     1
102
RTVSPropertyOp33
 70
     1
102
RTVSPropertyOp34
 70
     1
102
RTVSPropertyOp35
 70
     1
102
RTVSPropertyOp36
 70
     1
102
RTVSPropertyOp37
 70
     1
102
RTVSPropertyOp38
 70
     1
102
RTVSPropertyOp39
 70
     1
102
RTVSPropertyOp40
 70
     1
102
RTVSPropertyOp41
 70
     1
102
RTVSPropertyOp42
 70
     1
102
RTVSPropertyOp43
 70
     1
102
RTVSPropertyOp44
 70
     1
102
RTVSPropertyOp45
 70
     1
102
RTVSPropertyOp46
 70
     1
102
RTVSPropertyOp47
 70
     1
102
RTVSPropertyOp48
 70
     1
102
RTVSPropertyOp49
 70
     1
102
RTVSPropertyOp50
 70
     1
102
RTVSPropertyOp51
 70
     0
102
RTVSPropertyOp52
 70
     0
102
RTVSPropertyOp53
 70
     1
102
RTVSPropertyOp54
 70
     1
102
RTVSPropertyOp55
 70
     1
102
RTVSPropertyOp56
 70
     1
102
RTVSPropertyOp57
 70
     1
102
RTVSPost2010Prop28
280
     0
102
RTVSPost2010PropOp28
 70
     1
102
RTVSPost2010Prop29
280
     1
102
RTVSPost2010PropOp29
 70
     1
102
RTVSPost2010Prop30
280
     1
102
RTVSPost2010PropOp30
 70
     1
102
RTVSPost2010Prop31
280
     0
102
RTVSPost2010PropOp31
 70
     1
102
RTVSPost2010Prop32
280
     0
102
RTVSPost2010PropOp32
 70
     1
102
RTVSPost2010Prop33
280
     0
102
RTVSPost2010PropOp33
 70
     1
102
RTVSPost2010Prop34
280
     0
102
RTVSPost2010PropOp34
 70
     1
102
RTVSPost2010Prop35
280
     0
102
RTVSPost2010PropOp35
 70
     1
102
RTVSPost2010Prop36
280
     0
102
RTVSPost2010PropOp36
 70
     1
102
RTVSPost2010Prop37
 90
       50
102
RTVSPost2010PropOp37
 70
     1
102
RTVSPost2010Prop38
140
0.0
102
RTVSPost2010PropOp38
 70
     1
102
RTVSPost2010Prop39
140
1.0
102
RTVSPost2010PropOp39
 70
     1
102
RTVSPost2010Prop40
 90
        0
102
RTVSPost2010PropOp40
 70
     1
102
RTVSPost2010Prop41ColorIndex
 90
       18
102
RTVSPost2010Prop41ColorRGB
 90
        0
102
RTVSPost2010PropOp41
 70
     1
102
RTVSPost2010Prop42
 90
       50
102
RTVSPost2010PropOp42
 70
     1
102
RTVSPost2010Prop43
 90
        3
102
RTVSPost2010PropOp43
 70
     1
102
RTVSPost2010Prop44ColorIndex
 90
        5
102
RTVSPost2010Prop44ColorRGB
 90
      255
102
RTVSPost2010PropOp44
 70
     1
102
RTVSPost2010Prop45
280
     0
102
RTVSPost2010PropOp45
 70
     1
102
RTVSPost2010Prop46
 90
       50
102
RTVSPost2010PropOp46
 70
     1
102
RTVSPost2010Prop47
 90
       50
102
RTVSPost2010PropOp47
 70
     1
102
RTVSPost2010Prop48
 90
       50
102
RTVSPost2010PropOp48
 70
     1
102
RTVSPost2010Prop49
280
     0
102
RTVSPost2010PropOp49
 70
     1
102
RTVSPost2010Prop50
 90
       50
102
RTVSPost2010PropOp50
 70
     1
102
RTVSPost2010Prop51ColorIndex
 90
      256
102
RTVSPost2010Prop51ColorRGB
 90
-16777216
102
RTVSPost2010PropOp51
 70
     0
102
RTVSPost2010Prop52
140
1.0
102
RTVSPost2010PropOp52
 70
     0
102
RTVSPost2010Prop53
 90
        2
102
RTVSPost2010PropOp53
 70
     1
102
RTVSPost2010Prop54
  1
strokes_ogs.tif
102
RTVSPost2010PropOp54
 70
     1
102
RTVSPost2010Prop55
280
     0
102
RTVSPost2010PropOp55
 70
     1
102
RTVSPost2010Prop56
140
1.0
102
RTVSPost2010PropOp56
 70
     1
102
RTVSPost2010Prop57
140
1.0
102
RTVSPost2010PropOp57
 70
     1
  0
XRECORD
  5
594
102
{ACAD_REACTORS
330
593
102
}
330
593
100
AcDbXrecord
280
     1
102
RTVSPropertyOp0
 70
     1
102
RTVSPropertyOp1
 70
     1
102
RTVSPropertyOp2
 70
     1
102
RTVSPropertyOp3
 70
     1
102
RTVSPropertyOp4
 70
     1
102
RTVSPropertyOp5
 70
     1
102
RTVSPropertyOp6
 70
     1
102
RTVSPropertyOp7
 70
     1
102
RTVSPropertyOp8
 70
     1
102
RTVSPropertyOp9
 70
     1
102
RTVSPropertyOp10
 70
     1
102
RTVSPropertyOp11
 70
     1
102
RTVSPropertyOp12
 70
     1
102
RTVSPropertyOp13
 70
     1
102
RTVSPropertyOp14
 70
     1
102
RTVSPropertyOp15
 70
     1
102
RTVSPropertyOp16
 70
     1
102
RTVSPropertyOp17
 70
     1
102
RTVSPropertyOp18
 70
     1
102
RTVSPropertyOp19
 70
     1
102
RTVSPropertyOp20
 70
     1
102
RTVSPropertyOp21
 70
     1
102
RTVSPropertyOp22
 70
     1
102
RTVSPropertyOp23
 70
     1
102
RTVSPropertyOp24
 70
     1
102
RTVSPropertyOp25
 70
     1
102
RTVSPropertyOp26
 70
     1
102
RTVSPropertyOp27
 70
     1
102
RTVSPropertyOp28
 70
     1
102
RTVSPropertyOp29
 70
     1
102
RTVSPropertyOp30
 70
     1
102
RTVSPropertyOp31
 70
     1
102
RTVSPropertyOp32
 70
     1
102
RTVSPropertyOp33
 70
     1
102
RTVSPropertyOp34
 70
     1
102
RTVSPropertyOp35
 70
     1
102
RTVSPropertyOp36
 70
     1
102
RTVSPropertyOp37
 70
     1
102
RTVSPropertyOp38
 70
     1
102
RTVSPropertyOp39
 70
     1
102
RTVSPropertyOp40
 70
     1
102
RTVSPropertyOp41
 70
     1
102
RTVSPropertyOp42
 70
     1
102
RTVSPropertyOp43
 70
     1
102
RTVSPropertyOp44
 70
     1
102
RTVSPropertyOp45
 70
     1
102
RTVSPropertyOp46
 70
     1
102
RTVSPropertyOp47
 70
     1
102
RTVSPropertyOp48
 70
     1
102
RTVSPropertyOp49
 70
     1
102
RTVSPropertyOp50
 70
     1
102
RTVSPropertyOp51
 70
     0
102
RTVSPropertyOp52
 70
     0
102
RTVSPropertyOp53
 70
     1
102
RTVSPropertyOp54
 70
     1
102
RTVSPropertyOp55
 70
     1
102
RTVSPropertyOp56
 70
     1
102
RTVSPropertyOp57
 70
     1
102
RTVSPost2010Prop28
280
     0
102
RTVSPost2010PropOp28
 70
     1
102
RTVSPost2010Prop29
280
     1
102
RTVSPost2010PropOp29
 70
     1
102
RTVSPost2010Prop30
280
     1
102
RTVSPost2010PropOp30
 70
     1
102
RTVSPost2010Prop31
280
     0
102
RTVSPost2010PropOp31
 70
     1
102
RTVSPost2010Prop32
280
     0
102
RTVSPost2010PropOp32
 70
     1
102
RTVSPost2010Prop33
280
     0
102
RTVSPost2010PropOp33
 70
     1
102
RTVSPost2010Prop34
280
     0
102
RTVSPost2010PropOp34
 70
     1
102
RTVSPost2010Prop35
280
     0
102
RTVSPost2010PropOp35
 70
     1
102
RTVSPost2010Prop36
280
     0
102
RTVSPost2010PropOp36
 70
     1
102
RTVSPost2010Prop37
 90
       50
102
RTVSPost2010PropOp37
 70
     1
102
RTVSPost2010Prop38
140
0.0
102
RTVSPost2010PropOp38
 70
     1
102
RTVSPost2010Prop39
140
1.0
102
RTVSPost2010PropOp39
 70
     1
102
RTVSPost2010Prop40
 90
        0
102
RTVSPost2010PropOp40
 70
     1
102
RTVSPost2010Prop41ColorIndex
 90
       18
102
RTVSPost2010Prop41ColorRGB
 90
        0
102
RTVSPost2010PropOp41
 70
     1
102
RTVSPost2010Prop42
 90
       50
102
RTVSPost2010PropOp42
 70
     1
102
RTVSPost2010Prop43
 90
        3
102
RTVSPost2010PropOp43
 70
     1
102
RTVSPost2010Prop44ColorIndex
 90
        5
102
RTVSPost2010Prop44ColorRGB
 90
      255
102
RTVSPost2010PropOp44
 70
     1
102
RTVSPost2010Prop45
280
     0
102
RTVSPost2010PropOp45
 70
     1
102
RTVSPost2010Prop46
 90
       50
102
RTVSPost2010PropOp46
 70
     1
102
RTVSPost2010Prop47
 90
       50
102
RTVSPost2010PropOp47
 70
     1
102
RTVSPost2010Prop48
 90
       50
102
RTVSPost2010PropOp48
 70
     1
102
RTVSPost2010Prop49
280
     0
102
RTVSPost2010PropOp49
 70
     1
102
RTVSPost2010Prop50
 90
       50
102
RTVSPost2010PropOp50
 70
     1
102
RTVSPost2010Prop51ColorIndex
 90
      256
102
RTVSPost2010Prop51ColorRGB
 90
-16777216
102
RTVSPost2010PropOp51
 70
     0
102
RTVSPost2010Prop52
140
1.0
102
RTVSPost2010PropOp52
 70
     0
102
RTVSPost2010Prop53
 90
        2
102
RTVSPost2010PropOp53
 70
     1
102
RTVSPost2010Prop54
  1
strokes_ogs.tif
102
RTVSPost2010PropOp54
 70
     1
102
RTVSPost2010Prop55
280
     0
102
RTVSPost2010PropOp55
 70
     1
102
RTVSPost2010Prop56
140
1.0
102
RTVSPost2010PropOp56
 70
     1
102
RTVSPost2010Prop57
140
1.0
102
RTVSPost2010PropOp57
 70
     1
  0
XRECORD
  5
596
102
{ACAD_REACTORS
330
595
102
}
330
595
100
AcDbXrecord
280
     1
102
RTVSPropertyOp0
 70
     1
102
RTVSPropertyOp1
 70
     1
102
RTVSPropertyOp2
 70
     1
102
RTVSPropertyOp3
 70
     1
102
RTVSPropertyOp4
 70
     1
102
RTVSPropertyOp5
 70
     1
102
RTVSPropertyOp6
 70
     1
102
RTVSPropertyOp7
 70
     1
102
RTVSPropertyOp8
 70
     1
102
RTVSPropertyOp9
 70
     1
102
RTVSPropertyOp10
 70
     1
102
RTVSPropertyOp11
 70
     1
102
RTVSPropertyOp12
 70
     1
102
RTVSPropertyOp13
 70
     1
102
RTVSPropertyOp14
 70
     1
102
RTVSPropertyOp15
 70
     1
102
RTVSPropertyOp16
 70
     1
102
RTVSPropertyOp17
 70
     1
102
RTVSPropertyOp18
 70
     1
102
RTVSPropertyOp19
 70
     1
102
RTVSPropertyOp20
 70
     1
102
RTVSPropertyOp21
 70
     1
102
RTVSPropertyOp22
 70
     1
102
RTVSPropertyOp23
 70
     1
102
RTVSPropertyOp24
 70
     1
102
RTVSPropertyOp25
 70
     1
102
RTVSPropertyOp26
 70
     1
102
RTVSPropertyOp27
 70
     1
102
RTVSPropertyOp28
 70
     1
102
RTVSPropertyOp29
 70
     1
102
RTVSPropertyOp30
 70
     1
102
RTVSPropertyOp31
 70
     1
102
RTVSPropertyOp32
 70
     1
102
RTVSPropertyOp33
 70
     1
102
RTVSPropertyOp34
 70
     1
102
RTVSPropertyOp35
 70
     1
102
RTVSPropertyOp36
 70
     1
102
RTVSPropertyOp37
 70
     1
102
RTVSPropertyOp38
 70
     1
102
RTVSPropertyOp39
 70
     1
102
RTVSPropertyOp40
 70
     1
102
RTVSPropertyOp41
 70
     1
102
RTVSPropertyOp42
 70
     1
102
RTVSPropertyOp43
 70
     1
102
RTVSPropertyOp44
 70
     1
102
RTVSPropertyOp45
 70
     1
102
RTVSPropertyOp46
 70
     1
102
RTVSPropertyOp47
 70
     1
102
RTVSPropertyOp48
 70
     1
102
RTVSPropertyOp49
 70
     1
102
RTVSPropertyOp50
 70
     1
102
RTVSPropertyOp51
 70
     0
102
RTVSPropertyOp52
 70
     0
102
RTVSPropertyOp53
 70
     1
102
RTVSPropertyOp54
 70
     1
102
RTVSPropertyOp55
 70
     1
102
RTVSPropertyOp56
 70
     1
102
RTVSPropertyOp57
 70
     1
102
RTVSPost2010Prop28
280
     0
102
RTVSPost2010PropOp28
 70
     1
102
RTVSPost2010Prop29
280
     1
102
RTVSPost2010PropOp29
 70
     1
102
RTVSPost2010Prop30
280
     1
102
RTVSPost2010PropOp30
 70
     1
102
RTVSPost2010Prop31
280
     0
102
RTVSPost2010PropOp31
 70
     1
102
RTVSPost2010Prop32
280
     0
102
RTVSPost2010PropOp32
 70
     1
102
RTVSPost2010Prop33
280
     0
102
RTVSPost2010PropOp33
 70
     1
102
RTVSPost2010Prop34
280
     0
102
RTVSPost2010PropOp34
 70
     1
102
RTVSPost2010Prop35
280
     0
102
RTVSPost2010PropOp35
 70
     1
102
RTVSPost2010Prop36
280
     0
102
RTVSPost2010PropOp36
 70
     1
102
RTVSPost2010Prop37
 90
       50
102
RTVSPost2010PropOp37
 70
     1
102
RTVSPost2010Prop38
140
0.0
102
RTVSPost2010PropOp38
 70
     1
102
RTVSPost2010Prop39
140
1.0
102
RTVSPost2010PropOp39
 70
     1
102
RTVSPost2010Prop40
 90
        0
102
RTVSPost2010PropOp40
 70
     1
102
RTVSPost2010Prop41ColorIndex
 90
       18
102
RTVSPost2010Prop41ColorRGB
 90
        0
102
RTVSPost2010PropOp41
 70
     1
102
RTVSPost2010Prop42
 90
       50
102
RTVSPost2010PropOp42
 70
     1
102
RTVSPost2010Prop43
 90
        3
102
RTVSPost2010PropOp43
 70
     1
102
RTVSPost2010Prop44ColorIndex
 90
        5
102
RTVSPost2010Prop44ColorRGB
 90
      255
102
RTVSPost2010PropOp44
 70
     1
102
RTVSPost2010Prop45
280
     0
102
RTVSPost2010PropOp45
 70
     1
102
RTVSPost2010Prop46
 90
       50
102
RTVSPost2010PropOp46
 70
     1
102
RTVSPost2010Prop47
 90
       50
102
RTVSPost2010PropOp47
 70
     1
102
RTVSPost2010Prop48
 90
       50
102
RTVSPost2010PropOp48
 70
     1
102
RTVSPost2010Prop49
280
     0
102
RTVSPost2010PropOp49
 70
     1
102
RTVSPost2010Prop50
 90
       50
102
RTVSPost2010PropOp50
 70
     1
102
RTVSPost2010Prop51ColorIndex
 90
      256
102
RTVSPost2010Prop51ColorRGB
 90
-16777216
102
RTVSPost2010PropOp51
 70
     0
102
RTVSPost2010Prop52
140
1.0
102
RTVSPost2010PropOp52
 70
     0
102
RTVSPost2010Prop53
 90
        2
102
RTVSPost2010PropOp53
 70
     1
102
RTVSPost2010Prop54
  1
strokes_ogs.tif
102
RTVSPost2010PropOp54
 70
     1
102
RTVSPost2010Prop55
280
     0
102
RTVSPost2010PropOp55
 70
     1
102
RTVSPost2010Prop56
140
1.0
102
RTVSPost2010PropOp56
 70
     1
102
RTVSPost2010Prop57
140
1.0
102
RTVSPost2010PropOp57
 70
     1
  0
XRECORD
  5
598
102
{ACAD_REACTORS
330
597
102
}
330
597
100
AcDbXrecord
280
     1
102
RTVSPropertyOp0
 70
     1
102
RTVSPropertyOp1
 70
     1
102
RTVSPropertyOp2
 70
     1
102
RTVSPropertyOp3
 70
     1
102
RTVSPropertyOp4
 70
     1
102
RTVSPropertyOp5
 70
     1
102
RTVSPropertyOp6
 70
     1
102
RTVSPropertyOp7
 70
     1
102
RTVSPropertyOp8
 70
     1
102
RTVSPropertyOp9
 70
     1
102
RTVSPropertyOp10
 70
     1
102
RTVSPropertyOp11
 70
     1
102
RTVSPropertyOp12
 70
     1
102
RTVSPropertyOp13
 70
     1
102
RTVSPropertyOp14
 70
     1
102
RTVSPropertyOp15
 70
     1
102
RTVSPropertyOp16
 70
     1
102
RTVSPropertyOp17
 70
     1
102
RTVSPropertyOp18
 70
     1
102
RTVSPropertyOp19
 70
     1
102
RTVSPropertyOp20
 70
     1
102
RTVSPropertyOp21
 70
     1
102
RTVSPropertyOp22
 70
     1
102
RTVSPropertyOp23
 70
     1
102
RTVSPropertyOp24
 70
     1
102
RTVSPropertyOp25
 70
     1
102
RTVSPropertyOp26
 70
     1
102
RTVSPropertyOp27
 70
     1
102
RTVSPropertyOp28
 70
     1
102
RTVSPropertyOp29
 70
     1
102
RTVSPropertyOp30
 70
     1
102
RTVSPropertyOp31
 70
     1
102
RTVSPropertyOp32
 70
     1
102
RTVSPropertyOp33
 70
     1
102
RTVSPropertyOp34
 70
     1
102
RTVSPropertyOp35
 70
     1
102
RTVSPropertyOp36
 70
     1
102
RTVSPropertyOp37
 70
     1
102
RTVSPropertyOp38
 70
     1
102
RTVSPropertyOp39
 70
     1
102
RTVSPropertyOp40
 70
     1
102
RTVSPropertyOp41
 70
     1
102
RTVSPropertyOp42
 70
     1
102
RTVSPropertyOp43
 70
     1
102
RTVSPropertyOp44
 70
     1
102
RTVSPropertyOp45
 70
     1
102
RTVSPropertyOp46
 70
     1
102
RTVSPropertyOp47
 70
     1
102
RTVSPropertyOp48
 70
     1
102
RTVSPropertyOp49
 70
     1
102
RTVSPropertyOp50
 70
     1
102
RTVSPropertyOp51
 70
     0
102
RTVSPropertyOp52
 70
     0
102
RTVSPropertyOp53
 70
     1
102
RTVSPropertyOp54
 70
     1
102
RTVSPropertyOp55
 70
     1
102
RTVSPropertyOp56
 70
     1
102
RTVSPropertyOp57
 70
     1
102
RTVSPost2010Prop28
280
     0
102
RTVSPost2010PropOp28
 70
     1
102
RTVSPost2010Prop29
280
     1
102
RTVSPost2010PropOp29
 70
     1
102
RTVSPost2010Prop30
280
     1
102
RTVSPost2010PropOp30
 70
     1
102
RTVSPost2010Prop31
280
     0
102
RTVSPost2010PropOp31
 70
     1
102
RTVSPost2010Prop32
280
     0
102
RTVSPost2010PropOp32
 70
     1
102
RTVSPost2010Prop33
280
     0
102
RTVSPost2010PropOp33
 70
     1
102
RTVSPost2010Prop34
280
     0
102
RTVSPost2010PropOp34
 70
     1
102
RTVSPost2010Prop35
280
     0
102
RTVSPost2010PropOp35
 70
     1
102
RTVSPost2010Prop36
280
     0
102
RTVSPost2010PropOp36
 70
     1
102
RTVSPost2010Prop37
 90
       50
102
RTVSPost2010PropOp37
 70
     1
102
RTVSPost2010Prop38
140
0.0
102
RTVSPost2010PropOp38
 70
     1
102
RTVSPost2010Prop39
140
1.0
102
RTVSPost2010PropOp39
 70
     1
102
RTVSPost2010Prop40
 90
        0
102
RTVSPost2010PropOp40
 70
     1
102
RTVSPost2010Prop41ColorIndex
 90
       18
102
RTVSPost2010Prop41ColorRGB
 90
        0
102
RTVSPost2010PropOp41
 70
     1
102
RTVSPost2010Prop42
 90
       50
102
RTVSPost2010PropOp42
 70
     1
102
RTVSPost2010Prop43
 90
        3
102
RTVSPost2010PropOp43
 70
     1
102
RTVSPost2010Prop44ColorIndex
 90
        5
102
RTVSPost2010Prop44ColorRGB
 90
      255
102
RTVSPost2010PropOp44
 70
     1
102
RTVSPost2010Prop45
280
     0
102
RTVSPost2010PropOp45
 70
     1
102
RTVSPost2010Prop46
 90
       50
102
RTVSPost2010PropOp46
 70
     1
102
RTVSPost2010Prop47
 90
       50
102
RTVSPost2010PropOp47
 70
     1
102
RTVSPost2010Prop48
 90
       50
102
RTVSPost2010PropOp48
 70
     1
102
RTVSPost2010Prop49
280
     0
102
RTVSPost2010PropOp49
 70
     1
102
RTVSPost2010Prop50
 90
       50
102
RTVSPost2010PropOp50
 70
     1
102
RTVSPost2010Prop51ColorIndex
 90
      256
102
RTVSPost2010Prop51ColorRGB
 90
-16777216
102
RTVSPost2010PropOp51
 70
     0
102
RTVSPost2010Prop52
140
1.0
102
RTVSPost2010PropOp52
 70
     0
102
RTVSPost2010Prop53
 90
        2
102
RTVSPost2010PropOp53
 70
     1
102
RTVSPost2010Prop54
  1
strokes_ogs.tif
102
RTVSPost2010PropOp54
 70
     1
102
RTVSPost2010Prop55
280
     0
102
RTVSPost2010PropOp55
 70
     1
102
RTVSPost2010Prop56
140
1.0
102
RTVSPost2010PropOp56
 70
     1
102
RTVSPost2010Prop57
140
1.0
102
RTVSPost2010PropOp57
 70
     1
  0
XRECORD
  5
59A
102
{ACAD_REACTORS
330
599
102
}
330
599
100
AcDbXrecord
280
     1
102
RTVSPropertyOp0
 70
     0
102
RTVSPropertyOp1
 70
     0
102
RTVSPropertyOp2
 70
     0
102
RTVSPropertyOp3
 70
     0
102
RTVSPropertyOp4
 70
     0
102
RTVSPropertyOp5
 70
     0
102
RTVSPropertyOp6
 70
     0
102
RTVSPropertyOp7
 70
     0
102
RTVSPropertyOp8
 70
     0
102
RTVSPropertyOp9
 70
     0
102
RTVSPropertyOp10
 70
     0
102
RTVSPropertyOp11
 70
     0
102
RTVSPropertyOp12
 70
     0
102
RTVSPropertyOp13
 70
     0
102
RTVSPropertyOp14
 70
     2
102
RTVSPropertyOp15
 70
     0
102
RTVSPropertyOp16
 70
     0
102
RTVSPropertyOp17
 70
     0
102
RTVSPropertyOp18
 70
     0
102
RTVSPropertyOp19
 70
     0
102
RTVSPropertyOp20
 70
     0
102
RTVSPropertyOp21
 70
     0
102
RTVSPropertyOp22
 70
     0
102
RTVSPropertyOp23
 70
     0
102
RTVSPropertyOp24
 70
     0
102
RTVSPropertyOp25
 70
     0
102
RTVSPropertyOp26
 70
     0
102
RTVSPropertyOp27
 70
     0
102
RTVSPropertyOp28
 70
     0
102
RTVSPropertyOp29
 70
     0
102
RTVSPropertyOp30
 70
     0
102
RTVSPropertyOp31
 70
     0
102
RTVSPropertyOp32
 70
     0
102
RTVSPropertyOp33
 70
     0
102
RTVSPropertyOp34
 70
     0
102
RTVSPropertyOp35
 70
     0
102
RTVSPropertyOp36
 70
     0
102
RTVSPropertyOp37
 70
     0
102
RTVSPropertyOp38
 70
     0
102
RTVSPropertyOp39
 70
     0
102
RTVSPropertyOp40
 70
     0
102
RTVSPropertyOp41
 70
     0
102
RTVSPropertyOp42
 70
     0
102
RTVSPropertyOp43
 70
     0
102
RTVSPropertyOp44
 70
     0
102
RTVSPropertyOp45
 70
     0
102
RTVSPropertyOp46
 70
     0
102
RTVSPropertyOp47
 70
     0
102
RTVSPropertyOp48
 70
     0
102
RTVSPropertyOp49
 70
     0
102
RTVSPropertyOp50
 70
     0
102
RTVSPropertyOp51
 70
     0
102
RTVSPropertyOp52
 70
     0
102
RTVSPropertyOp53
 70
     0
102
RTVSPropertyOp54
 70
     0
102
RTVSPropertyOp55
 70
     0
102
RTVSPropertyOp56
 70
     0
102
RTVSPropertyOp57
 70
     0
102
RTVSPost2010Prop28
280
     0
102
RTVSPost2010PropOp28
 70
     0
102
RTVSPost2010Prop29
280
     1
102
RTVSPost2010PropOp29
 70
     0
102
RTVSPost2010Prop30
280
     1
102
RTVSPost2010PropOp30
 70
     0
102
RTVSPost2010Prop31
280
     0
102
RTVSPost2010PropOp31
 70
     0
102
RTVSPost2010Prop32
280
     0
102
RTVSPost2010PropOp32
 70
     0
102
RTVSPost2010Prop33
280
     0
102
RTVSPost2010PropOp33
 70
     0
102
RTVSPost2010Prop34
280
     0
102
RTVSPost2010PropOp34
 70
     0
102
RTVSPost2010Prop35
280
     0
102
RTVSPost2010PropOp35
 70
     0
102
RTVSPost2010Prop36
280
     0
102
RTVSPost2010PropOp36
 70
     0
102
RTVSPost2010Prop37
 90
       50
102
RTVSPost2010PropOp37
 70
     0
102
RTVSPost2010Prop38
140
0.0
102
RTVSPost2010PropOp38
 70
     0
102
RTVSPost2010Prop39
140
1.0
102
RTVSPost2010PropOp39
 70
     0
102
RTVSPost2010Prop40
 90
        0
102
RTVSPost2010PropOp40
 70
     0
102
RTVSPost2010Prop41ColorIndex
 90
       18
102
RTVSPost2010Prop41ColorRGB
 90
        0
102
RTVSPost2010PropOp41
 70
     0
102
RTVSPost2010Prop42
 90
       50
102
RTVSPost2010PropOp42
 70
     0
102
RTVSPost2010Prop43
 90
        3
102
RTVSPost2010PropOp43
 70
     0
102
RTVSPost2010Prop44ColorIndex
 90
        5
102
RTVSPost2010Prop44ColorRGB
 90
      255
102
RTVSPost2010PropOp44
 70
     0
102
RTVSPost2010Prop45
280
     0
102
RTVSPost2010PropOp45
 70
     0
102
RTVSPost2010Prop46
 90
       50
102
RTVSPost2010PropOp46
 70
     0
102
RTVSPost2010Prop47
 90
       50
102
RTVSPost2010PropOp47
 70
     0
102
RTVSPost2010Prop48
 90
       50
102
RTVSPost2010PropOp48
 70
     0
102
RTVSPost2010Prop49
280
     0
102
RTVSPost2010PropOp49
 70
     0
102
RTVSPost2010Prop50
 90
       50
102
RTVSPost2010PropOp50
 70
     0
102
RTVSPost2010Prop51ColorIndex
 90
      256
102
RTVSPost2010Prop51ColorRGB
 90
-16777216
102
RTVSPost2010PropOp51
 70
     0
102
RTVSPost2010Prop52
140
1.0
102
RTVSPost2010PropOp52
 70
     0
102
RTVSPost2010Prop53
 90
        2
102
RTVSPost2010PropOp53
 70
     0
102
RTVSPost2010Prop54
  1
strokes_ogs.tif
102
RTVSPost2010PropOp54
 70
     0
102
RTVSPost2010Prop55
280
     0
102
RTVSPost2010PropOp55
 70
     0
102
RTVSPost2010Prop56
140
1.0
102
RTVSPost2010PropOp56
 70
     0
102
RTVSPost2010Prop57
140
1.0
102
RTVSPost2010PropOp57
 70
     0
  0
XRECORD
  5
59C
102
{ACAD_REACTORS
330
59B
102
}
330
59B
100
AcDbXrecord
280
     1
102
RTVSPropertyOp0
 70
     1
102
RTVSPropertyOp1
 70
     1
102
RTVSPropertyOp2
 70
     1
102
RTVSPropertyOp3
 70
     1
102
RTVSPropertyOp4
 70
     1
102
RTVSPropertyOp5
 70
     1
102
RTVSPropertyOp6
 70
     1
102
RTVSPropertyOp7
 70
     1
102
RTVSPropertyOp8
 70
     1
102
RTVSPropertyOp9
 70
     1
102
RTVSPropertyOp10
 70
     1
102
RTVSPropertyOp11
 70
     1
102
RTVSPropertyOp12
 70
     1
102
RTVSPropertyOp13
 70
     1
102
RTVSPropertyOp14
 70
     1
102
RTVSPropertyOp15
 70
     1
102
RTVSPropertyOp16
 70
     1
102
RTVSPropertyOp17
 70
     1
102
RTVSPropertyOp18
 70
     1
102
RTVSPropertyOp19
 70
     1
102
RTVSPropertyOp20
 70
     1
102
RTVSPropertyOp21
 70
     1
102
RTVSPropertyOp22
 70
     1
102
RTVSPropertyOp23
 70
     1
102
RTVSPropertyOp24
 70
     1
102
RTVSPropertyOp25
 70
     1
102
RTVSPropertyOp26
 70
     1
102
RTVSPropertyOp27
 70
     1
102
RTVSPropertyOp28
 70
     1
102
RTVSPropertyOp29
 70
     1
102
RTVSPropertyOp30
 70
     1
102
RTVSPropertyOp31
 70
     1
102
RTVSPropertyOp32
 70
     1
102
RTVSPropertyOp33
 70
     1
102
RTVSPropertyOp34
 70
     1
102
RTVSPropertyOp35
 70
     1
102
RTVSPropertyOp36
 70
     1
102
RTVSPropertyOp37
 70
     1
102
RTVSPropertyOp38
 70
     1
102
RTVSPropertyOp39
 70
     1
102
RTVSPropertyOp40
 70
     1
102
RTVSPropertyOp41
 70
     1
102
RTVSPropertyOp42
 70
     1
102
RTVSPropertyOp43
 70
     1
102
RTVSPropertyOp44
 70
     1
102
RTVSPropertyOp45
 70
     1
102
RTVSPropertyOp46
 70
     1
102
RTVSPropertyOp47
 70
     1
102
RTVSPropertyOp48
 70
     1
102
RTVSPropertyOp49
 70
     1
102
RTVSPropertyOp50
 70
     1
102
RTVSPropertyOp51
 70
     0
102
RTVSPropertyOp52
 70
     0
102
RTVSPropertyOp53
 70
     1
102
RTVSPropertyOp54
 70
     1
102
RTVSPropertyOp55
 70
     1
102
RTVSPropertyOp56
 70
     1
102
RTVSPropertyOp57
 70
     1
102
RTVSPost2010Prop28
280
     0
102
RTVSPost2010PropOp28
 70
     1
102
RTVSPost2010Prop29
280
     1
102
RTVSPost2010PropOp29
 70
     1
102
RTVSPost2010Prop30
280
     1
102
RTVSPost2010PropOp30
 70
     1
102
RTVSPost2010Prop31
280
     0
102
RTVSPost2010PropOp31
 70
     1
102
RTVSPost2010Prop32
280
     0
102
RTVSPost2010PropOp32
 70
     1
102
RTVSPost2010Prop33
280
     0
102
RTVSPost2010PropOp33
 70
     1
102
RTVSPost2010Prop34
280
     0
102
RTVSPost2010PropOp34
 70
     1
102
RTVSPost2010Prop35
280
     0
102
RTVSPost2010PropOp35
 70
     1
102
RTVSPost2010Prop36
280
     0
102
RTVSPost2010PropOp36
 70
     1
102
RTVSPost2010Prop37
 90
       50
102
RTVSPost2010PropOp37
 70
     1
102
RTVSPost2010Prop38
140
0.0
102
RTVSPost2010PropOp38
 70
     1
102
RTVSPost2010Prop39
140
1.0
102
RTVSPost2010PropOp39
 70
     1
102
RTVSPost2010Prop40
 90
        0
102
RTVSPost2010PropOp40
 70
     1
102
RTVSPost2010Prop41ColorIndex
 90
       18
102
RTVSPost2010Prop41ColorRGB
 90
        0
102
RTVSPost2010PropOp41
 70
     1
102
RTVSPost2010Prop42
 90
       50
102
RTVSPost2010PropOp42
 70
     1
102
RTVSPost2010Prop43
 90
        3
102
RTVSPost2010PropOp43
 70
     1
102
RTVSPost2010Prop44ColorIndex
 90
        5
102
RTVSPost2010Prop44ColorRGB
 90
      255
102
RTVSPost2010PropOp44
 70
     1
102
RTVSPost2010Prop45
280
     0
102
RTVSPost2010PropOp45
 70
     1
102
RTVSPost2010Prop46
 90
       50
102
RTVSPost2010PropOp46
 70
     1
102
RTVSPost2010Prop47
 90
       50
102
RTVSPost2010PropOp47
 70
     1
102
RTVSPost2010Prop48
 90
       50
102
RTVSPost2010PropOp48
 70
     1
102
RTVSPost2010Prop49
280
     0
102
RTVSPost2010PropOp49
 70
     1
102
RTVSPost2010Prop50
 90
       50
102
RTVSPost2010PropOp50
 70
     1
102
RTVSPost2010Prop51ColorIndex
 90
      256
102
RTVSPost2010Prop51ColorRGB
 90
-16777216
102
RTVSPost2010PropOp51
 70
     0
102
RTVSPost2010Prop52
140
1.0
102
RTVSPost2010PropOp52
 70
     0
102
RTVSPost2010Prop53
 90
        2
102
RTVSPost2010PropOp53
 70
     1
102
RTVSPost2010Prop54
  1
strokes_ogs.tif
102
RTVSPost2010PropOp54
 70
     1
102
RTVSPost2010Prop55
280
     0
102
RTVSPost2010PropOp55
 70
     1
102
RTVSPost2010Prop56
140
1.0
102
RTVSPost2010PropOp56
 70
     1
102
RTVSPost2010Prop57
140
1.0
102
RTVSPost2010PropOp57
 70
     1
  0
XRECORD
  5
59E
102
{ACAD_REACTORS
330
59D
102
}
330
59D
100
AcDbXrecord
280
     1
102
RTVSPropertyOp0
 70
     1
102
RTVSPropertyOp1
 70
     1
102
RTVSPropertyOp2
 70
     1
102
RTVSPropertyOp3
 70
     1
102
RTVSPropertyOp4
 70
     1
102
RTVSPropertyOp5
 70
     1
102
RTVSPropertyOp6
 70
     1
102
RTVSPropertyOp7
 70
     1
102
RTVSPropertyOp8
 70
     1
102
RTVSPropertyOp9
 70
     1
102
RTVSPropertyOp10
 70
     1
102
RTVSPropertyOp11
 70
     1
102
RTVSPropertyOp12
 70
     1
102
RTVSPropertyOp13
 70
     1
102
RTVSPropertyOp14
 70
     1
102
RTVSPropertyOp15
 70
     1
102
RTVSPropertyOp16
 70
     1
102
RTVSPropertyOp17
 70
     1
102
RTVSPropertyOp18
 70
     1
102
RTVSPropertyOp19
 70
     1
102
RTVSPropertyOp20
 70
     1
102
RTVSPropertyOp21
 70
     1
102
RTVSPropertyOp22
 70
     1
102
RTVSPropertyOp23
 70
     1
102
RTVSPropertyOp24
 70
     1
102
RTVSPropertyOp25
 70
     1
102
RTVSPropertyOp26
 70
     1
102
RTVSPropertyOp27
 70
     1
102
RTVSPropertyOp28
 70
     1
102
RTVSPropertyOp29
 70
     1
102
RTVSPropertyOp30
 70
     1
102
RTVSPropertyOp31
 70
     1
102
RTVSPropertyOp32
 70
     1
102
RTVSPropertyOp33
 70
     1
102
RTVSPropertyOp34
 70
     1
102
RTVSPropertyOp35
 70
     1
102
RTVSPropertyOp36
 70
     1
102
RTVSPropertyOp37
 70
     1
102
RTVSPropertyOp38
 70
     1
102
RTVSPropertyOp39
 70
     1
102
RTVSPropertyOp40
 70
     1
102
RTVSPropertyOp41
 70
     1
102
RTVSPropertyOp42
 70
     1
102
RTVSPropertyOp43
 70
     1
102
RTVSPropertyOp44
 70
     1
102
RTVSPropertyOp45
 70
     1
102
RTVSPropertyOp46
 70
     1
102
RTVSPropertyOp47
 70
     1
102
RTVSPropertyOp48
 70
     1
102
RTVSPropertyOp49
 70
     1
102
RTVSPropertyOp50
 70
     1
102
RTVSPropertyOp51
 70
     0
102
RTVSPropertyOp52
 70
     0
102
RTVSPropertyOp53
 70
     1
102
RTVSPropertyOp54
 70
     1
102
RTVSPropertyOp55
 70
     1
102
RTVSPropertyOp56
 70
     1
102
RTVSPropertyOp57
 70
     1
102
RTVSPost2010Prop28
280
     0
102
RTVSPost2010PropOp28
 70
     1
102
RTVSPost2010Prop29
280
     1
102
RTVSPost2010PropOp29
 70
     1
102
RTVSPost2010Prop30
280
     1
102
RTVSPost2010PropOp30
 70
     1
102
RTVSPost2010Prop31
280
     0
102
RTVSPost2010PropOp31
 70
     1
102
RTVSPost2010Prop32
280
     0
102
RTVSPost2010PropOp32
 70
     1
102
RTVSPost2010Prop33
280
     0
102
RTVSPost2010PropOp33
 70
     1
102
RTVSPost2010Prop34
280
     0
102
RTVSPost2010PropOp34
 70
     1
102
RTVSPost2010Prop35
280
     0
102
RTVSPost2010PropOp35
 70
     1
102
RTVSPost2010Prop36
280
     0
102
RTVSPost2010PropOp36
 70
     1
102
RTVSPost2010Prop37
 90
       50
102
RTVSPost2010PropOp37
 70
     1
102
RTVSPost2010Prop38
140
0.0
102
RTVSPost2010PropOp38
 70
     1
102
RTVSPost2010Prop39
140
1.0
102
RTVSPost2010PropOp39
 70
     1
102
RTVSPost2010Prop40
 90
        0
102
RTVSPost2010PropOp40
 70
     1
102
RTVSPost2010Prop41ColorIndex
 90
       18
102
RTVSPost2010Prop41ColorRGB
 90
        0
102
RTVSPost2010PropOp41
 70
     1
102
RTVSPost2010Prop42
 90
       50
102
RTVSPost2010PropOp42
 70
     1
102
RTVSPost2010Prop43
 90
        3
102
RTVSPost2010PropOp43
 70
     1
102
RTVSPost2010Prop44ColorIndex
 90
        5
102
RTVSPost2010Prop44ColorRGB
 90
      255
102
RTVSPost2010PropOp44
 70
     1
102
RTVSPost2010Prop45
280
     0
102
RTVSPost2010PropOp45
 70
     1
102
RTVSPost2010Prop46
 90
       50
102
RTVSPost2010PropOp46
 70
     1
102
RTVSPost2010Prop47
 90
       50
102
RTVSPost2010PropOp47
 70
     1
102
RTVSPost2010Prop48
 90
       50
102
RTVSPost2010PropOp48
 70
     1
102
RTVSPost2010Prop49
280
     0
102
RTVSPost2010PropOp49
 70
     1
102
RTVSPost2010Prop50
 90
       50
102
RTVSPost2010PropOp50
 70
     1
102
RTVSPost2010Prop51ColorIndex
 90
      256
102
RTVSPost2010Prop51ColorRGB
 90
-16777216
102
RTVSPost2010PropOp51
 70
     0
102
RTVSPost2010Prop52
140
1.0
102
RTVSPost2010PropOp52
 70
     0
102
RTVSPost2010Prop53
 90
        2
102
RTVSPost2010PropOp53
 70
     1
102
RTVSPost2010Prop54
  1
strokes_ogs.tif
102
RTVSPost2010PropOp54
 70
     1
102
RTVSPost2010Prop55
280
     0
102
RTVSPost2010PropOp55
 70
     1
102
RTVSPost2010Prop56
140
1.0
102
RTVSPost2010PropOp56
 70
     1
102
RTVSPost2010Prop57
140
1.0
102
RTVSPost2010PropOp57
 70
     1
  0
XRECORD
  5
5A0
102
{ACAD_REACTORS
330
59F
102
}
330
59F
100
AcDbXrecord
280
     1
102
RTVSPropertyOp0
 70
     1
102
RTVSPropertyOp1
 70
     1
102
RTVSPropertyOp2
 70
     1
102
RTVSPropertyOp3
 70
     1
102
RTVSPropertyOp4
 70
     1
102
RTVSPropertyOp5
 70
     1
102
RTVSPropertyOp6
 70
     1
102
RTVSPropertyOp7
 70
     1
102
RTVSPropertyOp8
 70
     1
102
RTVSPropertyOp9
 70
     1
102
RTVSPropertyOp10
 70
     1
102
RTVSPropertyOp11
 70
     1
102
RTVSPropertyOp12
 70
     1
102
RTVSPropertyOp13
 70
     1
102
RTVSPropertyOp14
 70
     1
102
RTVSPropertyOp15
 70
     1
102
RTVSPropertyOp16
 70
     1
102
RTVSPropertyOp17
 70
     1
102
RTVSPropertyOp18
 70
     1
102
RTVSPropertyOp19
 70
     1
102
RTVSPropertyOp20
 70
     1
102
RTVSPropertyOp21
 70
     1
102
RTVSPropertyOp22
 70
     1
102
RTVSPropertyOp23
 70
     1
102
RTVSPropertyOp24
 70
     1
102
RTVSPropertyOp25
 70
     1
102
RTVSPropertyOp26
 70
     1
102
RTVSPropertyOp27
 70
     1
102
RTVSPropertyOp28
 70
     1
102
RTVSPropertyOp29
 70
     1
102
RTVSPropertyOp30
 70
     1
102
RTVSPropertyOp31
 70
     1
102
RTVSPropertyOp32
 70
     1
102
RTVSPropertyOp33
 70
     1
102
RTVSPropertyOp34
 70
     1
102
RTVSPropertyOp35
 70
     1
102
RTVSPropertyOp36
 70
     1
102
RTVSPropertyOp37
 70
     1
102
RTVSPropertyOp38
 70
     1
102
RTVSPropertyOp39
 70
     1
102
RTVSPropertyOp40
 70
     1
102
RTVSPropertyOp41
 70
     1
102
RTVSPropertyOp42
 70
     1
102
RTVSPropertyOp43
 70
     1
102
RTVSPropertyOp44
 70
     1
102
RTVSPropertyOp45
 70
     1
102
RTVSPropertyOp46
 70
     1
102
RTVSPropertyOp47
 70
     1
102
RTVSPropertyOp48
 70
     1
102
RTVSPropertyOp49
 70
     1
102
RTVSPropertyOp50
 70
     1
102
RTVSPropertyOp51
 70
     0
102
RTVSPropertyOp52
 70
     0
102
RTVSPropertyOp53
 70
     1
102
RTVSPropertyOp54
 70
     1
102
RTVSPropertyOp55
 70
     1
102
RTVSPropertyOp56
 70
     1
102
RTVSPropertyOp57
 70
     1
102
RTVSPost2010Prop28
280
     0
102
RTVSPost2010PropOp28
 70
     1
102
RTVSPost2010Prop29
280
     1
102
RTVSPost2010PropOp29
 70
     1
102
RTVSPost2010Prop30
280
     1
102
RTVSPost2010PropOp30
 70
     1
102
RTVSPost2010Prop31
280
     0
102
RTVSPost2010PropOp31
 70
     1
102
RTVSPost2010Prop32
280
     0
102
RTVSPost2010PropOp32
 70
     1
102
RTVSPost2010Prop33
280
     0
102
RTVSPost2010PropOp33
 70
     1
102
RTVSPost2010Prop34
280
     0
102
RTVSPost2010PropOp34
 70
     1
102
RTVSPost2010Prop35
280
     0
102
RTVSPost2010PropOp35
 70
     1
102
RTVSPost2010Prop36
280
     0
102
RTVSPost2010PropOp36
 70
     1
102
RTVSPost2010Prop37
 90
       50
102
RTVSPost2010PropOp37
 70
     1
102
RTVSPost2010Prop38
140
0.0
102
RTVSPost2010PropOp38
 70
     1
102
RTVSPost2010Prop39
140
1.0
102
RTVSPost2010PropOp39
 70
     1
102
RTVSPost2010Prop40
 90
        0
102
RTVSPost2010PropOp40
 70
     1
102
RTVSPost2010Prop41ColorIndex
 90
       18
102
RTVSPost2010Prop41ColorRGB
 90
        0
102
RTVSPost2010PropOp41
 70
     1
102
RTVSPost2010Prop42
 90
       50
102
RTVSPost2010PropOp42
 70
     1
102
RTVSPost2010Prop43
 90
        3
102
RTVSPost2010PropOp43
 70
     1
102
RTVSPost2010Prop44ColorIndex
 90
        5
102
RTVSPost2010Prop44ColorRGB
 90
      255
102
RTVSPost2010PropOp44
 70
     1
102
RTVSPost2010Prop45
280
     0
102
RTVSPost2010PropOp45
 70
     1
102
RTVSPost2010Prop46
 90
       50
102
RTVSPost2010PropOp46
 70
     1
102
RTVSPost2010Prop47
 90
       50
102
RTVSPost2010PropOp47
 70
     1
102
RTVSPost2010Prop48
 90
       50
102
RTVSPost2010PropOp48
 70
     1
102
RTVSPost2010Prop49
280
     0
102
RTVSPost2010PropOp49
 70
     1
102
RTVSPost2010Prop50
 90
       50
102
RTVSPost2010PropOp50
 70
     1
102
RTVSPost2010Prop51ColorIndex
 90
      256
102
RTVSPost2010Prop51ColorRGB
 90
-16777216
102
RTVSPost2010PropOp51
 70
     0
102
RTVSPost2010Prop52
140
1.0
102
RTVSPost2010PropOp52
 70
     0
102
RTVSPost2010Prop53
 90
        2
102
RTVSPost2010PropOp53
 70
     1
102
RTVSPost2010Prop54
  1
strokes_ogs.tif
102
RTVSPost2010PropOp54
 70
     1
102
RTVSPost2010Prop55
280
     0
102
RTVSPost2010PropOp55
 70
     1
102
RTVSPost2010Prop56
140
1.0
102
RTVSPost2010PropOp56
 70
     1
102
RTVSPost2010Prop57
140
1.0
102
RTVSPost2010PropOp57
 70
     1
  0
XRECORD
  5
5A2
102
{ACAD_REACTORS
330
5A1
102
}
330
5A1
100
AcDbXrecord
280
     1
102
RTVSPropertyOp0
 70
     1
102
RTVSPropertyOp1
 70
     1
102
RTVSPropertyOp2
 70
     1
102
RTVSPropertyOp3
 70
     1
102
RTVSPropertyOp4
 70
     1
102
RTVSPropertyOp5
 70
     1
102
RTVSPropertyOp6
 70
     1
102
RTVSPropertyOp7
 70
     1
102
RTVSPropertyOp8
 70
     1
102
RTVSPropertyOp9
 70
     1
102
RTVSPropertyOp10
 70
     1
102
RTVSPropertyOp11
 70
     1
102
RTVSPropertyOp12
 70
     1
102
RTVSPropertyOp13
 70
     1
102
RTVSPropertyOp14
 70
     1
102
RTVSPropertyOp15
 70
     1
102
RTVSPropertyOp16
 70
     1
102
RTVSPropertyOp17
 70
     1
102
RTVSPropertyOp18
 70
     1
102
RTVSPropertyOp19
 70
     1
102
RTVSPropertyOp20
 70
     1
102
RTVSPropertyOp21
 70
     1
102
RTVSPropertyOp22
 70
     1
102
RTVSPropertyOp23
 70
     1
102
RTVSPropertyOp24
 70
     1
102
RTVSPropertyOp25
 70
     1
102
RTVSPropertyOp26
 70
     1
102
RTVSPropertyOp27
 70
     1
102
RTVSPropertyOp28
 70
     1
102
RTVSPropertyOp29
 70
     1
102
RTVSPropertyOp30
 70
     1
102
RTVSPropertyOp31
 70
     1
102
RTVSPropertyOp32
 70
     1
102
RTVSPropertyOp33
 70
     1
102
RTVSPropertyOp34
 70
     1
102
RTVSPropertyOp35
 70
     1
102
RTVSPropertyOp36
 70
     1
102
RTVSPropertyOp37
 70
     1
102
RTVSPropertyOp38
 70
     1
102
RTVSPropertyOp39
 70
     1
102
RTVSPropertyOp40
 70
     1
102
RTVSPropertyOp41
 70
     1
102
RTVSPropertyOp42
 70
     1
102
RTVSPropertyOp43
 70
     1
102
RTVSPropertyOp44
 70
     1
102
RTVSPropertyOp45
 70
     1
102
RTVSPropertyOp46
 70
     1
102
RTVSPropertyOp47
 70
     1
102
RTVSPropertyOp48
 70
     1
102
RTVSPropertyOp49
 70
     1
102
RTVSPropertyOp50
 70
     1
102
RTVSPropertyOp51
 70
     0
102
RTVSPropertyOp52
 70
     0
102
RTVSPropertyOp53
 70
     1
102
RTVSPropertyOp54
 70
     1
102
RTVSPropertyOp55
 70
     1
102
RTVSPropertyOp56
 70
     1
102
RTVSPropertyOp57
 70
     1
102
RTVSPost2010Prop28
280
     0
102
RTVSPost2010PropOp28
 70
     1
102
RTVSPost2010Prop29
280
     1
102
RTVSPost2010PropOp29
 70
     1
102
RTVSPost2010Prop30
280
     1
102
RTVSPost2010PropOp30
 70
     1
102
RTVSPost2010Prop31
280
     0
102
RTVSPost2010PropOp31
 70
     1
102
RTVSPost2010Prop32
280
     0
102
RTVSPost2010PropOp32
 70
     1
102
RTVSPost2010Prop33
280
     0
102
RTVSPost2010PropOp33
 70
     1
102
RTVSPost2010Prop34
280
     0
102
RTVSPost2010PropOp34
 70
     1
102
RTVSPost2010Prop35
280
     0
102
RTVSPost2010PropOp35
 70
     1
102
RTVSPost2010Prop36
280
     0
102
RTVSPost2010PropOp36
 70
     1
102
RTVSPost2010Prop37
 90
       50
102
RTVSPost2010PropOp37
 70
     1
102
RTVSPost2010Prop38
140
0.0
102
RTVSPost2010PropOp38
 70
     1
102
RTVSPost2010Prop39
140
1.0
102
RTVSPost2010PropOp39
 70
     1
102
RTVSPost2010Prop40
 90
        0
102
RTVSPost2010PropOp40
 70
     1
102
RTVSPost2010Prop41ColorIndex
 90
       18
102
RTVSPost2010Prop41ColorRGB
 90
        0
102
RTVSPost2010PropOp41
 70
     1
102
RTVSPost2010Prop42
 90
       50
102
RTVSPost2010PropOp42
 70
     1
102
RTVSPost2010Prop43
 90
        3
102
RTVSPost2010PropOp43
 70
     1
102
RTVSPost2010Prop44ColorIndex
 90
        5
102
RTVSPost2010Prop44ColorRGB
 90
      255
102
RTVSPost2010PropOp44
 70
     1
102
RTVSPost2010Prop45
280
     0
102
RTVSPost2010PropOp45
 70
     1
102
RTVSPost2010Prop46
 90
       50
102
RTVSPost2010PropOp46
 70
     1
102
RTVSPost2010Prop47
 90
       50
102
RTVSPost2010PropOp47
 70
     1
102
RTVSPost2010Prop48
 90
       50
102
RTVSPost2010PropOp48
 70
     1
102
RTVSPost2010Prop49
280
     0
102
RTVSPost2010PropOp49
 70
     1
102
RTVSPost2010Prop50
 90
       50
102
RTVSPost2010PropOp50
 70
     1
102
RTVSPost2010Prop51ColorIndex
 90
      256
102
RTVSPost2010Prop51ColorRGB
 90
-16777216
102
RTVSPost2010PropOp51
 70
     0
102
RTVSPost2010Prop52
140
1.0
102
RTVSPost2010PropOp52
 70
     0
102
RTVSPost2010Prop53
 90
        2
102
RTVSPost2010PropOp53
 70
     1
102
RTVSPost2010Prop54
  1
strokes_ogs.tif
102
RTVSPost2010PropOp54
 70
     1
102
RTVSPost2010Prop55
280
     0
102
RTVSPost2010PropOp55
 70
     1
102
RTVSPost2010Prop56
140
1.0
102
RTVSPost2010PropOp56
 70
     1
102
RTVSPost2010Prop57
140
1.0
102
RTVSPost2010PropOp57
 70
     1
  0
XRECORD
  5
5A4
102
{ACAD_REACTORS
330
5A3
102
}
330
5A3
100
AcDbXrecord
280
     1
102
RTVSPropertyOp0
 70
     1
102
RTVSPropertyOp1
 70
     1
102
RTVSPropertyOp2
 70
     1
102
RTVSPropertyOp3
 70
     1
102
RTVSPropertyOp4
 70
     1
102
RTVSPropertyOp5
 70
     1
102
RTVSPropertyOp6
 70
     1
102
RTVSPropertyOp7
 70
     1
102
RTVSPropertyOp8
 70
     1
102
RTVSPropertyOp9
 70
     1
102
RTVSPropertyOp10
 70
     1
102
RTVSPropertyOp11
 70
     1
102
RTVSPropertyOp12
 70
     1
102
RTVSPropertyOp13
 70
     1
102
RTVSPropertyOp14
 70
     1
102
RTVSPropertyOp15
 70
     1
102
RTVSPropertyOp16
 70
     1
102
RTVSPropertyOp17
 70
     1
102
RTVSPropertyOp18
 70
     1
102
RTVSPropertyOp19
 70
     1
102
RTVSPropertyOp20
 70
     1
102
RTVSPropertyOp21
 70
     1
102
RTVSPropertyOp22
 70
     1
102
RTVSPropertyOp23
 70
     1
102
RTVSPropertyOp24
 70
     1
102
RTVSPropertyOp25
 70
     1
102
RTVSPropertyOp26
 70
     1
102
RTVSPropertyOp27
 70
     1
102
RTVSPropertyOp28
 70
     1
102
RTVSPropertyOp29
 70
     1
102
RTVSPropertyOp30
 70
     1
102
RTVSPropertyOp31
 70
     1
102
RTVSPropertyOp32
 70
     1
102
RTVSPropertyOp33
 70
     1
102
RTVSPropertyOp34
 70
     1
102
RTVSPropertyOp35
 70
     1
102
RTVSPropertyOp36
 70
     1
102
RTVSPropertyOp37
 70
     1
102
RTVSPropertyOp38
 70
     1
102
RTVSPropertyOp39
 70
     1
102
RTVSPropertyOp40
 70
     1
102
RTVSPropertyOp41
 70
     1
102
RTVSPropertyOp42
 70
     1
102
RTVSPropertyOp43
 70
     1
102
RTVSPropertyOp44
 70
     1
102
RTVSPropertyOp45
 70
     1
102
RTVSPropertyOp46
 70
     1
102
RTVSPropertyOp47
 70
     1
102
RTVSPropertyOp48
 70
     1
102
RTVSPropertyOp49
 70
     1
102
RTVSPropertyOp50
 70
     1
102
RTVSPropertyOp51
 70
     0
102
RTVSPropertyOp52
 70
     0
102
RTVSPropertyOp53
 70
     1
102
RTVSPropertyOp54
 70
     1
102
RTVSPropertyOp55
 70
     1
102
RTVSPropertyOp56
 70
     1
102
RTVSPropertyOp57
 70
     1
102
RTVSPost2010Prop28
280
     0
102
RTVSPost2010PropOp28
 70
     1
102
RTVSPost2010Prop29
280
     1
102
RTVSPost2010PropOp29
 70
     1
102
RTVSPost2010Prop30
280
     1
102
RTVSPost2010PropOp30
 70
     1
102
RTVSPost2010Prop31
280
     0
102
RTVSPost2010PropOp31
 70
     1
102
RTVSPost2010Prop32
280
     0
102
RTVSPost2010PropOp32
 70
     1
102
RTVSPost2010Prop33
280
     0
102
RTVSPost2010PropOp33
 70
     1
102
RTVSPost2010Prop34
280
     0
102
RTVSPost2010PropOp34
 70
     1
102
RTVSPost2010Prop35
280
     0
102
RTVSPost2010PropOp35
 70
     1
102
RTVSPost2010Prop36
280
     0
102
RTVSPost2010PropOp36
 70
     1
102
RTVSPost2010Prop37
 90
       50
102
RTVSPost2010PropOp37
 70
     1
102
RTVSPost2010Prop38
140
0.0
102
RTVSPost2010PropOp38
 70
     1
102
RTVSPost2010Prop39
140
1.0
102
RTVSPost2010PropOp39
 70
     1
102
RTVSPost2010Prop40
 90
        0
102
RTVSPost2010PropOp40
 70
     1
102
RTVSPost2010Prop41ColorIndex
 90
       18
102
RTVSPost2010Prop41ColorRGB
 90
        0
102
RTVSPost2010PropOp41
 70
     1
102
RTVSPost2010Prop42
 90
       50
102
RTVSPost2010PropOp42
 70
     1
102
RTVSPost2010Prop43
 90
        3
102
RTVSPost2010PropOp43
 70
     1
102
RTVSPost2010Prop44ColorIndex
 90
        5
102
RTVSPost2010Prop44ColorRGB
 90
      255
102
RTVSPost2010PropOp44
 70
     1
102
RTVSPost2010Prop45
280
     0
102
RTVSPost2010PropOp45
 70
     1
102
RTVSPost2010Prop46
 90
       50
102
RTVSPost2010PropOp46
 70
     1
102
RTVSPost2010Prop47
 90
       50
102
RTVSPost2010PropOp47
 70
     1
102
RTVSPost2010Prop48
 90
       50
102
RTVSPost2010PropOp48
 70
     1
102
RTVSPost2010Prop49
280
     0
102
RTVSPost2010PropOp49
 70
     1
102
RTVSPost2010Prop50
 90
       50
102
RTVSPost2010PropOp50
 70
     1
102
RTVSPost2010Prop51ColorIndex
 90
      256
102
RTVSPost2010Prop51ColorRGB
 90
-16777216
102
RTVSPost2010PropOp51
 70
     0
102
RTVSPost2010Prop52
140
1.0
102
RTVSPost2010PropOp52
 70
     0
102
RTVSPost2010Prop53
 90
        2
102
RTVSPost2010PropOp53
 70
     1
102
RTVSPost2010Prop54
  1
strokes_ogs.tif
102
RTVSPost2010PropOp54
 70
     1
102
RTVSPost2010Prop55
280
     0
102
RTVSPost2010PropOp55
 70
     1
102
RTVSPost2010Prop56
140
1.0
102
RTVSPost2010PropOp56
 70
     1
102
RTVSPost2010Prop57
140
1.0
102
RTVSPost2010PropOp57
 70
     1
  0
XRECORD
  5
5A6
102
{ACAD_REACTORS
330
5A5
102
}
330
5A5
100
AcDbXrecord
280
     1
102
RTVSPropertyOp0
 70
     1
102
RTVSPropertyOp1
 70
     1
102
RTVSPropertyOp2
 70
     1
102
RTVSPropertyOp3
 70
     1
102
RTVSPropertyOp4
 70
     1
102
RTVSPropertyOp5
 70
     1
102
RTVSPropertyOp6
 70
     1
102
RTVSPropertyOp7
 70
     1
102
RTVSPropertyOp8
 70
     1
102
RTVSPropertyOp9
 70
     1
102
RTVSPropertyOp10
 70
     1
102
RTVSPropertyOp11
 70
     1
102
RTVSPropertyOp12
 70
     1
102
RTVSPropertyOp13
 70
     1
102
RTVSPropertyOp14
 70
     1
102
RTVSPropertyOp15
 70
     1
102
RTVSPropertyOp16
 70
     1
102
RTVSPropertyOp17
 70
     1
102
RTVSPropertyOp18
 70
     1
102
RTVSPropertyOp19
 70
     1
102
RTVSPropertyOp20
 70
     1
102
RTVSPropertyOp21
 70
     1
102
RTVSPropertyOp22
 70
     1
102
RTVSPropertyOp23
 70
     1
102
RTVSPropertyOp24
 70
     1
102
RTVSPropertyOp25
 70
     1
102
RTVSPropertyOp26
 70
     1
102
RTVSPropertyOp27
 70
     1
102
RTVSPropertyOp28
 70
     1
102
RTVSPropertyOp29
 70
     1
102
RTVSPropertyOp30
 70
     1
102
RTVSPropertyOp31
 70
     1
102
RTVSPropertyOp32
 70
     1
102
RTVSPropertyOp33
 70
     1
102
RTVSPropertyOp34
 70
     1
102
RTVSPropertyOp35
 70
     1
102
RTVSPropertyOp36
 70
     1
102
RTVSPropertyOp37
 70
     1
102
RTVSPropertyOp38
 70
     1
102
RTVSPropertyOp39
 70
     1
102
RTVSPropertyOp40
 70
     1
102
RTVSPropertyOp41
 70
     1
102
RTVSPropertyOp42
 70
     1
102
RTVSPropertyOp43
 70
     1
102
RTVSPropertyOp44
 70
     1
102
RTVSPropertyOp45
 70
     1
102
RTVSPropertyOp46
 70
     1
102
RTVSPropertyOp47
 70
     1
102
RTVSPropertyOp48
 70
     1
102
RTVSPropertyOp49
 70
     1
102
RTVSPropertyOp50
 70
     1
102
RTVSPropertyOp51
 70
     0
102
RTVSPropertyOp52
 70
     0
102
RTVSPropertyOp53
 70
     1
102
RTVSPropertyOp54
 70
     1
102
RTVSPropertyOp55
 70
     1
102
RTVSPropertyOp56
 70
     1
102
RTVSPropertyOp57
 70
     1
102
RTVSPost2010Prop28
280
     0
102
RTVSPost2010PropOp28
 70
     1
102
RTVSPost2010Prop29
280
     1
102
RTVSPost2010PropOp29
 70
     1
102
RTVSPost2010Prop30
280
     1
102
RTVSPost2010PropOp30
 70
     1
102
RTVSPost2010Prop31
280
     0
102
RTVSPost2010PropOp31
 70
     1
102
RTVSPost2010Prop32
280
     0
102
RTVSPost2010PropOp32
 70
     1
102
RTVSPost2010Prop33
280
     0
102
RTVSPost2010PropOp33
 70
     1
102
RTVSPost2010Prop34
280
     0
102
RTVSPost2010PropOp34
 70
     1
102
RTVSPost2010Prop35
280
     0
102
RTVSPost2010PropOp35
 70
     1
102
RTVSPost2010Prop36
280
     0
102
RTVSPost2010PropOp36
 70
     1
102
RTVSPost2010Prop37
 90
       50
102
RTVSPost2010PropOp37
 70
     1
102
RTVSPost2010Prop38
140
0.0
102
RTVSPost2010PropOp38
 70
     1
102
RTVSPost2010Prop39
140
1.0
102
RTVSPost2010PropOp39
 70
     1
102
RTVSPost2010Prop40
 90
        0
102
RTVSPost2010PropOp40
 70
     1
102
RTVSPost2010Prop41ColorIndex
 90
       18
102
RTVSPost2010Prop41ColorRGB
 90
        0
102
RTVSPost2010PropOp41
 70
     1
102
RTVSPost2010Prop42
 90
       50
102
RTVSPost2010PropOp42
 70
     1
102
RTVSPost2010Prop43
 90
        3
102
RTVSPost2010PropOp43
 70
     1
102
RTVSPost2010Prop44ColorIndex
 90
        5
102
RTVSPost2010Prop44ColorRGB
 90
      255
102
RTVSPost2010PropOp44
 70
     1
102
RTVSPost2010Prop45
280
     0
102
RTVSPost2010PropOp45
 70
     1
102
RTVSPost2010Prop46
 90
       50
102
RTVSPost2010PropOp46
 70
     1
102
RTVSPost2010Prop47
 90
       50
102
RTVSPost2010PropOp47
 70
     1
102
RTVSPost2010Prop48
 90
       50
102
RTVSPost2010PropOp48
 70
     1
102
RTVSPost2010Prop49
280
     0
102
RTVSPost2010PropOp49
 70
     1
102
RTVSPost2010Prop50
 90
       50
102
RTVSPost2010PropOp50
 70
     1
102
RTVSPost2010Prop51ColorIndex
 90
      256
102
RTVSPost2010Prop51ColorRGB
 90
-16777216
102
RTVSPost2010PropOp51
 70
     0
102
RTVSPost2010Prop52
140
1.0
102
RTVSPost2010PropOp52
 70
     0
102
RTVSPost2010Prop53
 90
        2
102
RTVSPost2010PropOp53
 70
     1
102
RTVSPost2010Prop54
  1
strokes_ogs.tif
102
RTVSPost2010PropOp54
 70
     1
102
RTVSPost2010Prop55
280
     0
102
RTVSPost2010PropOp55
 70
     1
102
RTVSPost2010Prop56
140
1.0
102
RTVSPost2010PropOp56
 70
     1
102
RTVSPost2010Prop57
140
1.0
102
RTVSPost2010PropOp57
 70
     1
  0
XRECORD
  5
5A8
102
{ACAD_REACTORS
330
5A7
102
}
330
5A7
100
AcDbXrecord
280
     1
102
RTVSPropertyOp0
 70
     0
102
RTVSPropertyOp1
 70
     0
102
RTVSPropertyOp2
 70
     0
102
RTVSPropertyOp3
 70
     0
102
RTVSPropertyOp4
 70
     0
102
RTVSPropertyOp5
 70
     0
102
RTVSPropertyOp6
 70
     0
102
RTVSPropertyOp7
 70
     0
102
RTVSPropertyOp8
 70
     0
102
RTVSPropertyOp9
 70
     0
102
RTVSPropertyOp10
 70
     0
102
RTVSPropertyOp11
 70
     0
102
RTVSPropertyOp12
 70
     0
102
RTVSPropertyOp13
 70
     0
102
RTVSPropertyOp14
 70
     2
102
RTVSPropertyOp15
 70
     0
102
RTVSPropertyOp16
 70
     0
102
RTVSPropertyOp17
 70
     0
102
RTVSPropertyOp18
 70
     0
102
RTVSPropertyOp19
 70
     0
102
RTVSPropertyOp20
 70
     0
102
RTVSPropertyOp21
 70
     0
102
RTVSPropertyOp22
 70
     0
102
RTVSPropertyOp23
 70
     0
102
RTVSPropertyOp24
 70
     0
102
RTVSPropertyOp25
 70
     0
102
RTVSPropertyOp26
 70
     0
102
RTVSPropertyOp27
 70
     0
102
RTVSPropertyOp28
 70
     0
102
RTVSPropertyOp29
 70
     0
102
RTVSPropertyOp30
 70
     0
102
RTVSPropertyOp31
 70
     0
102
RTVSPropertyOp32
 70
     0
102
RTVSPropertyOp33
 70
     0
102
RTVSPropertyOp34
 70
     0
102
RTVSPropertyOp35
 70
     0
102
RTVSPropertyOp36
 70
     0
102
RTVSPropertyOp37
 70
     0
102
RTVSPropertyOp38
 70
     0
102
RTVSPropertyOp39
 70
     0
102
RTVSPropertyOp40
 70
     0
102
RTVSPropertyOp41
 70
     0
102
RTVSPropertyOp42
 70
     0
102
RTVSPropertyOp43
 70
     0
102
RTVSPropertyOp44
 70
     0
102
RTVSPropertyOp45
 70
     0
102
RTVSPropertyOp46
 70
     0
102
RTVSPropertyOp47
 70
     0
102
RTVSPropertyOp48
 70
     0
102
RTVSPropertyOp49
 70
     0
102
RTVSPropertyOp50
 70
     0
102
RTVSPropertyOp51
 70
     0
102
RTVSPropertyOp52
 70
     0
102
RTVSPropertyOp53
 70
     0
102
RTVSPropertyOp54
 70
     0
102
RTVSPropertyOp55
 70
     0
102
RTVSPropertyOp56
 70
     0
102
RTVSPropertyOp57
 70
     0
102
RTVSPost2010Prop28
280
     0
102
RTVSPost2010PropOp28
 70
     0
102
RTVSPost2010Prop29
280
     1
102
RTVSPost2010PropOp29
 70
     0
102
RTVSPost2010Prop30
280
     1
102
RTVSPost2010PropOp30
 70
     0
102
RTVSPost2010Prop31
280
     0
102
RTVSPost2010PropOp31
 70
     0
102
RTVSPost2010Prop32
280
     0
102
RTVSPost2010PropOp32
 70
     0
102
RTVSPost2010Prop33
280
     0
102
RTVSPost2010PropOp33
 70
     0
102
RTVSPost2010Prop34
280
     0
102
RTVSPost2010PropOp34
 70
     0
102
RTVSPost2010Prop35
280
     0
102
RTVSPost2010PropOp35
 70
     0
102
RTVSPost2010Prop36
280
     0
102
RTVSPost2010PropOp36
 70
     0
102
RTVSPost2010Prop37
 90
       50
102
RTVSPost2010PropOp37
 70
     0
102
RTVSPost2010Prop38
140
0.0
102
RTVSPost2010PropOp38
 70
     0
102
RTVSPost2010Prop39
140
1.0
102
RTVSPost2010PropOp39
 70
     0
102
RTVSPost2010Prop40
 90
        0
102
RTVSPost2010PropOp40
 70
     0
102
RTVSPost2010Prop41ColorIndex
 90
       18
102
RTVSPost2010Prop41ColorRGB
 90
        0
102
RTVSPost2010PropOp41
 70
     0
102
RTVSPost2010Prop42
 90
       50
102
RTVSPost2010PropOp42
 70
     0
102
RTVSPost2010Prop43
 90
        3
102
RTVSPost2010PropOp43
 70
     0
102
RTVSPost2010Prop44ColorIndex
 90
        5
102
RTVSPost2010Prop44ColorRGB
 90
      255
102
RTVSPost2010PropOp44
 70
     0
102
RTVSPost2010Prop45
280
     0
102
RTVSPost2010PropOp45
 70
     0
102
RTVSPost2010Prop46
 90
       50
102
RTVSPost2010PropOp46
 70
     0
102
RTVSPost2010Prop47
 90
       50
102
RTVSPost2010PropOp47
 70
     0
102
RTVSPost2010Prop48
 90
       50
102
RTVSPost2010PropOp48
 70
     0
102
RTVSPost2010Prop49
280
     0
102
RTVSPost2010PropOp49
 70
     0
102
RTVSPost2010Prop50
 90
       50
102
RTVSPost2010PropOp50
 70
     0
102
RTVSPost2010Prop51ColorIndex
 90
      256
102
RTVSPost2010Prop51ColorRGB
 90
-16777216
102
RTVSPost2010PropOp51
 70
     0
102
RTVSPost2010Prop52
140
1.0
102
RTVSPost2010PropOp52
 70
     0
102
RTVSPost2010Prop53
 90
        2
102
RTVSPost2010PropOp53
 70
     0
102
RTVSPost2010Prop54
  1
strokes_ogs.tif
102
RTVSPost2010PropOp54
 70
     0
102
RTVSPost2010Prop55
280
     0
102
RTVSPost2010PropOp55
 70
     0
102
RTVSPost2010Prop56
140
1.0
102
RTVSPost2010PropOp56
 70
     0
102
RTVSPost2010Prop57
140
1.0
102
RTVSPost2010PropOp57
 70
     0
  0
XRECORD
  5
5AA
102
{ACAD_REACTORS
330
5A9
102
}
330
5A9
100
AcDbXrecord
280
     1
102
RTVSPropertyOp0
 70
     1
102
RTVSPropertyOp1
 70
     1
102
RTVSPropertyOp2
 70
     1
102
RTVSPropertyOp3
 70
     1
102
RTVSPropertyOp4
 70
     1
102
RTVSPropertyOp5
 70
     1
102
RTVSPropertyOp6
 70
     1
102
RTVSPropertyOp7
 70
     1
102
RTVSPropertyOp8
 70
     1
102
RTVSPropertyOp9
 70
     1
102
RTVSPropertyOp10
 70
     1
102
RTVSPropertyOp11
 70
     1
102
RTVSPropertyOp12
 70
     1
102
RTVSPropertyOp13
 70
     1
102
RTVSPropertyOp14
 70
     1
102
RTVSPropertyOp15
 70
     1
102
RTVSPropertyOp16
 70
     1
102
RTVSPropertyOp17
 70
     1
102
RTVSPropertyOp18
 70
     1
102
RTVSPropertyOp19
 70
     1
102
RTVSPropertyOp20
 70
     1
102
RTVSPropertyOp21
 70
     1
102
RTVSPropertyOp22
 70
     1
102
RTVSPropertyOp23
 70
     1
102
RTVSPropertyOp24
 70
     1
102
RTVSPropertyOp25
 70
     1
102
RTVSPropertyOp26
 70
     1
102
RTVSPropertyOp27
 70
     1
102
RTVSPropertyOp28
 70
     1
102
RTVSPropertyOp29
 70
     1
102
RTVSPropertyOp30
 70
     1
102
RTVSPropertyOp31
 70
     1
102
RTVSPropertyOp32
 70
     1
102
RTVSPropertyOp33
 70
     1
102
RTVSPropertyOp34
 70
     1
102
RTVSPropertyOp35
 70
     1
102
RTVSPropertyOp36
 70
     1
102
RTVSPropertyOp37
 70
     1
102
RTVSPropertyOp38
 70
     1
102
RTVSPropertyOp39
 70
     1
102
RTVSPropertyOp40
 70
     1
102
RTVSPropertyOp41
 70
     1
102
RTVSPropertyOp42
 70
     1
102
RTVSPropertyOp43
 70
     1
102
RTVSPropertyOp44
 70
     1
102
RTVSPropertyOp45
 70
     1
102
RTVSPropertyOp46
 70
     1
102
RTVSPropertyOp47
 70
     1
102
RTVSPropertyOp48
 70
     1
102
RTVSPropertyOp49
 70
     1
102
RTVSPropertyOp50
 70
     1
102
RTVSPropertyOp51
 70
     0
102
RTVSPropertyOp52
 70
     0
102
RTVSPropertyOp53
 70
     1
102
RTVSPropertyOp54
 70
     1
102
RTVSPropertyOp55
 70
     1
102
RTVSPropertyOp56
 70
     1
102
RTVSPropertyOp57
 70
     1
102
RTVSPost2010Prop28
280
     0
102
RTVSPost2010PropOp28
 70
     1
102
RTVSPost2010Prop29
280
     1
102
RTVSPost2010PropOp29
 70
     1
102
RTVSPost2010Prop30
280
     1
102
RTVSPost2010PropOp30
 70
     1
102
RTVSPost2010Prop31
280
     0
102
RTVSPost2010PropOp31
 70
     1
102
RTVSPost2010Prop32
280
     0
102
RTVSPost2010PropOp32
 70
     1
102
RTVSPost2010Prop33
280
     0
102
RTVSPost2010PropOp33
 70
     1
102
RTVSPost2010Prop34
280
     0
102
RTVSPost2010PropOp34
 70
     1
102
RTVSPost2010Prop35
280
     0
102
RTVSPost2010PropOp35
 70
     1
102
RTVSPost2010Prop36
280
     0
102
RTVSPost2010PropOp36
 70
     1
102
RTVSPost2010Prop37
 90
       50
102
RTVSPost2010PropOp37
 70
     1
102
RTVSPost2010Prop38
140
0.0
102
RTVSPost2010PropOp38
 70
     1
102
RTVSPost2010Prop39
140
1.0
102
RTVSPost2010PropOp39
 70
     1
102
RTVSPost2010Prop40
 90
        0
102
RTVSPost2010PropOp40
 70
     1
102
RTVSPost2010Prop41ColorIndex
 90
       18
102
RTVSPost2010Prop41ColorRGB
 90
        0
102
RTVSPost2010PropOp41
 70
     1
102
RTVSPost2010Prop42
 90
       50
102
RTVSPost2010PropOp42
 70
     1
102
RTVSPost2010Prop43
 90
        3
102
RTVSPost2010PropOp43
 70
     1
102
RTVSPost2010Prop44ColorIndex
 90
        5
102
RTVSPost2010Prop44ColorRGB
 90
      255
102
RTVSPost2010PropOp44
 70
     1
102
RTVSPost2010Prop45
280
     0
102
RTVSPost2010PropOp45
 70
     1
102
RTVSPost2010Prop46
 90
       50
102
RTVSPost2010PropOp46
 70
     1
102
RTVSPost2010Prop47
 90
       50
102
RTVSPost2010PropOp47
 70
     1
102
RTVSPost2010Prop48
 90
       50
102
RTVSPost2010PropOp48
 70
     1
102
RTVSPost2010Prop49
280
     0
102
RTVSPost2010PropOp49
 70
     1
102
RTVSPost2010Prop50
 90
       50
102
RTVSPost2010PropOp50
 70
     1
102
RTVSPost2010Prop51ColorIndex
 90
      256
102
RTVSPost2010Prop51ColorRGB
 90
-16777216
102
RTVSPost2010PropOp51
 70
     0
102
RTVSPost2010Prop52
140
1.0
102
RTVSPost2010PropOp52
 70
     0
102
RTVSPost2010Prop53
 90
        2
102
RTVSPost2010PropOp53
 70
     1
102
RTVSPost2010Prop54
  1
strokes_ogs.tif
102
RTVSPost2010PropOp54
 70
     1
102
RTVSPost2010Prop55
280
     0
102
RTVSPost2010PropOp55
 70
     1
102
RTVSPost2010Prop56
140
1.0
102
RTVSPost2010PropOp56
 70
     1
102
RTVSPost2010Prop57
140
1.0
102
RTVSPost2010PropOp57
 70
     1
  0
XRECORD
  5
5AC
102
{ACAD_REACTORS
330
5AB
102
}
330
5AB
100
AcDbXrecord
280
     1
102
RTVSPropertyOp0
 70
     0
102
RTVSPropertyOp1
 70
     0
102
RTVSPropertyOp2
 70
     0
102
RTVSPropertyOp3
 70
     0
102
RTVSPropertyOp4
 70
     0
102
RTVSPropertyOp5
 70
     0
102
RTVSPropertyOp6
 70
     0
102
RTVSPropertyOp7
 70
     0
102
RTVSPropertyOp8
 70
     0
102
RTVSPropertyOp9
 70
     0
102
RTVSPropertyOp10
 70
     0
102
RTVSPropertyOp11
 70
     0
102
RTVSPropertyOp12
 70
     0
102
RTVSPropertyOp13
 70
     0
102
RTVSPropertyOp14
 70
     2
102
RTVSPropertyOp15
 70
     0
102
RTVSPropertyOp16
 70
     0
102
RTVSPropertyOp17
 70
     0
102
RTVSPropertyOp18
 70
     0
102
RTVSPropertyOp19
 70
     0
102
RTVSPropertyOp20
 70
     0
102
RTVSPropertyOp21
 70
     0
102
RTVSPropertyOp22
 70
     0
102
RTVSPropertyOp23
 70
     0
102
RTVSPropertyOp24
 70
     0
102
RTVSPropertyOp25
 70
     0
102
RTVSPropertyOp26
 70
     0
102
RTVSPropertyOp27
 70
     0
102
RTVSPropertyOp28
 70
     0
102
RTVSPropertyOp29
 70
     0
102
RTVSPropertyOp30
 70
     0
102
RTVSPropertyOp31
 70
     0
102
RTVSPropertyOp32
 70
     0
102
RTVSPropertyOp33
 70
     0
102
RTVSPropertyOp34
 70
     0
102
RTVSPropertyOp35
 70
     0
102
RTVSPropertyOp36
 70
     0
102
RTVSPropertyOp37
 70
     0
102
RTVSPropertyOp38
 70
     0
102
RTVSPropertyOp39
 70
     0
102
RTVSPropertyOp40
 70
     0
102
RTVSPropertyOp41
 70
     0
102
RTVSPropertyOp42
 70
     0
102
RTVSPropertyOp43
 70
     0
102
RTVSPropertyOp44
 70
     0
102
RTVSPropertyOp45
 70
     0
102
RTVSPropertyOp46
 70
     0
102
RTVSPropertyOp47
 70
     0
102
RTVSPropertyOp48
 70
     0
102
RTVSPropertyOp49
 70
     0
102
RTVSPropertyOp50
 70
     0
102
RTVSPropertyOp51
 70
     0
102
RTVSPropertyOp52
 70
     0
102
RTVSPropertyOp53
 70
     0
102
RTVSPropertyOp54
 70
     0
102
RTVSPropertyOp55
 70
     0
102
RTVSPropertyOp56
 70
     0
102
RTVSPropertyOp57
 70
     0
102
RTVSPost2010Prop28
280
     0
102
RTVSPost2010PropOp28
 70
     0
102
RTVSPost2010Prop29
280
     1
102
RTVSPost2010PropOp29
 70
     0
102
RTVSPost2010Prop30
280
     1
102
RTVSPost2010PropOp30
 70
     0
102
RTVSPost2010Prop31
280
     0
102
RTVSPost2010PropOp31
 70
     0
102
RTVSPost2010Prop32
280
     0
102
RTVSPost2010PropOp32
 70
     0
102
RTVSPost2010Prop33
280
     0
102
RTVSPost2010PropOp33
 70
     0
102
RTVSPost2010Prop34
280
     0
102
RTVSPost2010PropOp34
 70
     0
102
RTVSPost2010Prop35
280
     0
102
RTVSPost2010PropOp35
 70
     0
102
RTVSPost2010Prop36
280
     0
102
RTVSPost2010PropOp36
 70
     0
102
RTVSPost2010Prop37
 90
       50
102
RTVSPost2010PropOp37
 70
     0
102
RTVSPost2010Prop38
140
0.0
102
RTVSPost2010PropOp38
 70
     0
102
RTVSPost2010Prop39
140
1.0
102
RTVSPost2010PropOp39
 70
     0
102
RTVSPost2010Prop40
 90
        0
102
RTVSPost2010PropOp40
 70
     0
102
RTVSPost2010Prop41ColorIndex
 90
       18
102
RTVSPost2010Prop41ColorRGB
 90
        0
102
RTVSPost2010PropOp41
 70
     0
102
RTVSPost2010Prop42
 90
       50
102
RTVSPost2010PropOp42
 70
     0
102
RTVSPost2010Prop43
 90
        3
102
RTVSPost2010PropOp43
 70
     0
102
RTVSPost2010Prop44ColorIndex
 90
        5
102
RTVSPost2010Prop44ColorRGB
 90
      255
102
RTVSPost2010PropOp44
 70
     0
102
RTVSPost2010Prop45
280
     0
102
RTVSPost2010PropOp45
 70
     0
102
RTVSPost2010Prop46
 90
       50
102
RTVSPost2010PropOp46
 70
     0
102
RTVSPost2010Prop47
 90
       50
102
RTVSPost2010PropOp47
 70
     0
102
RTVSPost2010Prop48
 90
       50
102
RTVSPost2010PropOp48
 70
     0
102
RTVSPost2010Prop49
280
     0
102
RTVSPost2010PropOp49
 70
     0
102
RTVSPost2010Prop50
 90
       50
102
RTVSPost2010PropOp50
 70
     0
102
RTVSPost2010Prop51ColorIndex
 90
      256
102
RTVSPost2010Prop51ColorRGB
 90
-16777216
102
RTVSPost2010PropOp51
 70
     0
102
RTVSPost2010Prop52
140
1.0
102
RTVSPost2010PropOp52
 70
     0
102
RTVSPost2010Prop53
 90
        2
102
RTVSPost2010PropOp53
 70
     0
102
RTVSPost2010Prop54
  1
strokes_ogs.tif
102
RTVSPost2010PropOp54
 70
     0
102
RTVSPost2010Prop55
280
     0
102
RTVSPost2010PropOp55
 70
     0
102
RTVSPost2010Prop56
140
1.0
102
RTVSPost2010PropOp56
 70
     0
102
RTVSPost2010Prop57
140
1.0
102
RTVSPost2010PropOp57
 70
     0
  0
XRECORD
  5
5AE
102
{ACAD_REACTORS
330
5AD
102
}
330
5AD
100
AcDbXrecord
280
     1
102
RTVSPropertyOp0
 70
     1
102
RTVSPropertyOp1
 70
     1
102
RTVSPropertyOp2
 70
     1
102
RTVSPropertyOp3
 70
     1
102
RTVSPropertyOp4
 70
     1
102
RTVSPropertyOp5
 70
     1
102
RTVSPropertyOp6
 70
     1
102
RTVSPropertyOp7
 70
     1
102
RTVSPropertyOp8
 70
     1
102
RTVSPropertyOp9
 70
     1
102
RTVSPropertyOp10
 70
     1
102
RTVSPropertyOp11
 70
     1
102
RTVSPropertyOp12
 70
     1
102
RTVSPropertyOp13
 70
     1
102
RTVSPropertyOp14
 70
     1
102
RTVSPropertyOp15
 70
     1
102
RTVSPropertyOp16
 70
     1
102
RTVSPropertyOp17
 70
     1
102
RTVSPropertyOp18
 70
     1
102
RTVSPropertyOp19
 70
     1
102
RTVSPropertyOp20
 70
     1
102
RTVSPropertyOp21
 70
     1
102
RTVSPropertyOp22
 70
     1
102
RTVSPropertyOp23
 70
     1
102
RTVSPropertyOp24
 70
     1
102
RTVSPropertyOp25
 70
     1
102
RTVSPropertyOp26
 70
     1
102
RTVSPropertyOp27
 70
     1
102
RTVSPropertyOp28
 70
     1
102
RTVSPropertyOp29
 70
     1
102
RTVSPropertyOp30
 70
     1
102
RTVSPropertyOp31
 70
     1
102
RTVSPropertyOp32
 70
     1
102
RTVSPropertyOp33
 70
     1
102
RTVSPropertyOp34
 70
     1
102
RTVSPropertyOp35
 70
     1
102
RTVSPropertyOp36
 70
     1
102
RTVSPropertyOp37
 70
     1
102
RTVSPropertyOp38
 70
     1
102
RTVSPropertyOp39
 70
     1
102
RTVSPropertyOp40
 70
     1
102
RTVSPropertyOp41
 70
     1
102
RTVSPropertyOp42
 70
     1
102
RTVSPropertyOp43
 70
     1
102
RTVSPropertyOp44
 70
     1
102
RTVSPropertyOp45
 70
     1
102
RTVSPropertyOp46
 70
     1
102
RTVSPropertyOp47
 70
     1
102
RTVSPropertyOp48
 70
     1
102
RTVSPropertyOp49
 70
     1
102
RTVSPropertyOp50
 70
     1
102
RTVSPropertyOp51
 70
     0
102
RTVSPropertyOp52
 70
     0
102
RTVSPropertyOp53
 70
     1
102
RTVSPropertyOp54
 70
     1
102
RTVSPropertyOp55
 70
     1
102
RTVSPropertyOp56
 70
     1
102
RTVSPropertyOp57
 70
     1
102
RTVSPost2010Prop28
280
     0
102
RTVSPost2010PropOp28
 70
     1
102
RTVSPost2010Prop29
280
     1
102
RTVSPost2010PropOp29
 70
     1
102
RTVSPost2010Prop30
280
     1
102
RTVSPost2010PropOp30
 70
     1
102
RTVSPost2010Prop31
280
     0
102
RTVSPost2010PropOp31
 70
     1
102
RTVSPost2010Prop32
280
     0
102
RTVSPost2010PropOp32
 70
     1
102
RTVSPost2010Prop33
280
     0
102
RTVSPost2010PropOp33
 70
     1
102
RTVSPost2010Prop34
280
     0
102
RTVSPost2010PropOp34
 70
     1
102
RTVSPost2010Prop35
280
     0
102
RTVSPost2010PropOp35
 70
     1
102
RTVSPost2010Prop36
280
     0
102
RTVSPost2010PropOp36
 70
     1
102
RTVSPost2010Prop37
 90
       50
102
RTVSPost2010PropOp37
 70
     1
102
RTVSPost2010Prop38
140
0.0
102
RTVSPost2010PropOp38
 70
     1
102
RTVSPost2010Prop39
140
1.0
102
RTVSPost2010PropOp39
 70
     1
102
RTVSPost2010Prop40
 90
        0
102
RTVSPost2010PropOp40
 70
     1
102
RTVSPost2010Prop41ColorIndex
 90
       18
102
RTVSPost2010Prop41ColorRGB
 90
        0
102
RTVSPost2010PropOp41
 70
     1
102
RTVSPost2010Prop42
 90
       50
102
RTVSPost2010PropOp42
 70
     1
102
RTVSPost2010Prop43
 90
        3
102
RTVSPost2010PropOp43
 70
     1
102
RTVSPost2010Prop44ColorIndex
 90
        5
102
RTVSPost2010Prop44ColorRGB
 90
      255
102
RTVSPost2010PropOp44
 70
     1
102
RTVSPost2010Prop45
280
     0
102
RTVSPost2010PropOp45
 70
     1
102
RTVSPost2010Prop46
 90
       50
102
RTVSPost2010PropOp46
 70
     1
102
RTVSPost2010Prop47
 90
       50
102
RTVSPost2010PropOp47
 70
     1
102
RTVSPost2010Prop48
 90
       50
102
RTVSPost2010PropOp48
 70
     1
102
RTVSPost2010Prop49
280
     0
102
RTVSPost2010PropOp49
 70
     1
102
RTVSPost2010Prop50
 90
       50
102
RTVSPost2010PropOp50
 70
     1
102
RTVSPost2010Prop51ColorIndex
 90
      256
102
RTVSPost2010Prop51ColorRGB
 90
-16777216
102
RTVSPost2010PropOp51
 70
     0
102
RTVSPost2010Prop52
140
1.0
102
RTVSPost2010PropOp52
 70
     0
102
RTVSPost2010Prop53
 90
        2
102
RTVSPost2010PropOp53
 70
     1
102
RTVSPost2010Prop54
  1
strokes_ogs.tif
102
RTVSPost2010PropOp54
 70
     1
102
RTVSPost2010Prop55
280
     0
102
RTVSPost2010PropOp55
 70
     1
102
RTVSPost2010Prop56
140
1.0
102
RTVSPost2010PropOp56
 70
     1
102
RTVSPost2010Prop57
140
1.0
102
RTVSPost2010PropOp57
 70
     1
  0
XRECORD
  5
5B0
102
{ACAD_REACTORS
330
5AF
102
}
330
5AF
100
AcDbXrecord
280
     1
102
RTVSPropertyOp0
 70
     1
102
RTVSPropertyOp1
 70
     1
102
RTVSPropertyOp2
 70
     1
102
RTVSPropertyOp3
 70
     1
102
RTVSPropertyOp4
 70
     1
102
RTVSPropertyOp5
 70
     1
102
RTVSPropertyOp6
 70
     1
102
RTVSPropertyOp7
 70
     1
102
RTVSPropertyOp8
 70
     1
102
RTVSPropertyOp9
 70
     1
102
RTVSPropertyOp10
 70
     1
102
RTVSPropertyOp11
 70
     1
102
RTVSPropertyOp12
 70
     1
102
RTVSPropertyOp13
 70
     1
102
RTVSPropertyOp14
 70
     1
102
RTVSPropertyOp15
 70
     1
102
RTVSPropertyOp16
 70
     1
102
RTVSPropertyOp17
 70
     1
102
RTVSPropertyOp18
 70
     1
102
RTVSPropertyOp19
 70
     1
102
RTVSPropertyOp20
 70
     1
102
RTVSPropertyOp21
 70
     1
102
RTVSPropertyOp22
 70
     1
102
RTVSPropertyOp23
 70
     1
102
RTVSPropertyOp24
 70
     1
102
RTVSPropertyOp25
 70
     1
102
RTVSPropertyOp26
 70
     1
102
RTVSPropertyOp27
 70
     1
102
RTVSPropertyOp28
 70
     1
102
RTVSPropertyOp29
 70
     1
102
RTVSPropertyOp30
 70
     1
102
RTVSPropertyOp31
 70
     1
102
RTVSPropertyOp32
 70
     1
102
RTVSPropertyOp33
 70
     1
102
RTVSPropertyOp34
 70
     1
102
RTVSPropertyOp35
 70
     1
102
RTVSPropertyOp36
 70
     1
102
RTVSPropertyOp37
 70
     1
102
RTVSPropertyOp38
 70
     1
102
RTVSPropertyOp39
 70
     1
102
RTVSPropertyOp40
 70
     1
102
RTVSPropertyOp41
 70
     1
102
RTVSPropertyOp42
 70
     1
102
RTVSPropertyOp43
 70
     1
102
RTVSPropertyOp44
 70
     1
102
RTVSPropertyOp45
 70
     1
102
RTVSPropertyOp46
 70
     1
102
RTVSPropertyOp47
 70
     1
102
RTVSPropertyOp48
 70
     1
102
RTVSPropertyOp49
 70
     1
102
RTVSPropertyOp50
 70
     1
102
RTVSPropertyOp51
 70
     0
102
RTVSPropertyOp52
 70
     0
102
RTVSPropertyOp53
 70
     1
102
RTVSPropertyOp54
 70
     1
102
RTVSPropertyOp55
 70
     1
102
RTVSPropertyOp56
 70
     1
102
RTVSPropertyOp57
 70
     1
102
RTVSPost2010Prop28
280
     0
102
RTVSPost2010PropOp28
 70
     1
102
RTVSPost2010Prop29
280
     1
102
RTVSPost2010PropOp29
 70
     1
102
RTVSPost2010Prop30
280
     1
102
RTVSPost2010PropOp30
 70
     1
102
RTVSPost2010Prop31
280
     0
102
RTVSPost2010PropOp31
 70
     1
102
RTVSPost2010Prop32
280
     0
102
RTVSPost2010PropOp32
 70
     1
102
RTVSPost2010Prop33
280
     0
102
RTVSPost2010PropOp33
 70
     1
102
RTVSPost2010Prop34
280
     0
102
RTVSPost2010PropOp34
 70
     1
102
RTVSPost2010Prop35
280
     0
102
RTVSPost2010PropOp35
 70
     1
102
RTVSPost2010Prop36
280
     0
102
RTVSPost2010PropOp36
 70
     1
102
RTVSPost2010Prop37
 90
       50
102
RTVSPost2010PropOp37
 70
     1
102
RTVSPost2010Prop38
140
0.0
102
RTVSPost2010PropOp38
 70
     1
102
RTVSPost2010Prop39
140
1.0
102
RTVSPost2010PropOp39
 70
     1
102
RTVSPost2010Prop40
 90
        0
102
RTVSPost2010PropOp40
 70
     1
102
RTVSPost2010Prop41ColorIndex
 90
       18
102
RTVSPost2010Prop41ColorRGB
 90
        0
102
RTVSPost2010PropOp41
 70
     1
102
RTVSPost2010Prop42
 90
       50
102
RTVSPost2010PropOp42
 70
     1
102
RTVSPost2010Prop43
 90
        3
102
RTVSPost2010PropOp43
 70
     1
102
RTVSPost2010Prop44ColorIndex
 90
        5
102
RTVSPost2010Prop44ColorRGB
 90
      255
102
RTVSPost2010PropOp44
 70
     1
102
RTVSPost2010Prop45
280
     0
102
RTVSPost2010PropOp45
 70
     1
102
RTVSPost2010Prop46
 90
       50
102
RTVSPost2010PropOp46
 70
     1
102
RTVSPost2010Prop47
 90
       50
102
RTVSPost2010PropOp47
 70
     1
102
RTVSPost2010Prop48
 90
       50
102
RTVSPost2010PropOp48
 70
     1
102
RTVSPost2010Prop49
280
     0
102
RTVSPost2010PropOp49
 70
     1
102
RTVSPost2010Prop50
 90
       50
102
RTVSPost2010PropOp50
 70
     1
102
RTVSPost2010Prop51ColorIndex
 90
      256
102
RTVSPost2010Prop51ColorRGB
 90
-16777216
102
RTVSPost2010PropOp51
 70
     0
102
RTVSPost2010Prop52
140
1.0
102
RTVSPost2010PropOp52
 70
     0
102
RTVSPost2010Prop53
 90
        2
102
RTVSPost2010PropOp53
 70
     1
102
RTVSPost2010Prop54
  1
strokes_ogs.tif
102
RTVSPost2010PropOp54
 70
     1
102
RTVSPost2010Prop55
280
     0
102
RTVSPost2010PropOp55
 70
     1
102
RTVSPost2010Prop56
140
1.0
102
RTVSPost2010PropOp56
 70
     1
102
RTVSPost2010Prop57
140
1.0
102
RTVSPost2010PropOp57
 70
     1
  0
XRECORD
  5
5B2
102
{ACAD_REACTORS
330
5B1
102
}
330
5B1
100
AcDbXrecord
280
     1
102
RTVSPropertyOp0
 70
     1
102
RTVSPropertyOp1
 70
     1
102
RTVSPropertyOp2
 70
     1
102
RTVSPropertyOp3
 70
     1
102
RTVSPropertyOp4
 70
     1
102
RTVSPropertyOp5
 70
     1
102
RTVSPropertyOp6
 70
     1
102
RTVSPropertyOp7
 70
     1
102
RTVSPropertyOp8
 70
     1
102
RTVSPropertyOp9
 70
     1
102
RTVSPropertyOp10
 70
     1
102
RTVSPropertyOp11
 70
     1
102
RTVSPropertyOp12
 70
     1
102
RTVSPropertyOp13
 70
     1
102
RTVSPropertyOp14
 70
     1
102
RTVSPropertyOp15
 70
     1
102
RTVSPropertyOp16
 70
     1
102
RTVSPropertyOp17
 70
     1
102
RTVSPropertyOp18
 70
     1
102
RTVSPropertyOp19
 70
     1
102
RTVSPropertyOp20
 70
     1
102
RTVSPropertyOp21
 70
     1
102
RTVSPropertyOp22
 70
     1
102
RTVSPropertyOp23
 70
     1
102
RTVSPropertyOp24
 70
     1
102
RTVSPropertyOp25
 70
     1
102
RTVSPropertyOp26
 70
     1
102
RTVSPropertyOp27
 70
     1
102
RTVSPropertyOp28
 70
     1
102
RTVSPropertyOp29
 70
     1
102
RTVSPropertyOp30
 70
     1
102
RTVSPropertyOp31
 70
     1
102
RTVSPropertyOp32
 70
     1
102
RTVSPropertyOp33
 70
     1
102
RTVSPropertyOp34
 70
     1
102
RTVSPropertyOp35
 70
     1
102
RTVSPropertyOp36
 70
     1
102
RTVSPropertyOp37
 70
     1
102
RTVSPropertyOp38
 70
     1
102
RTVSPropertyOp39
 70
     1
102
RTVSPropertyOp40
 70
     1
102
RTVSPropertyOp41
 70
     1
102
RTVSPropertyOp42
 70
     1
102
RTVSPropertyOp43
 70
     1
102
RTVSPropertyOp44
 70
     1
102
RTVSPropertyOp45
 70
     1
102
RTVSPropertyOp46
 70
     1
102
RTVSPropertyOp47
 70
     1
102
RTVSPropertyOp48
 70
     1
102
RTVSPropertyOp49
 70
     1
102
RTVSPropertyOp50
 70
     1
102
RTVSPropertyOp51
 70
     0
102
RTVSPropertyOp52
 70
     0
102
RTVSPropertyOp53
 70
     1
102
RTVSPropertyOp54
 70
     1
102
RTVSPropertyOp55
 70
     1
102
RTVSPropertyOp56
 70
     1
102
RTVSPropertyOp57
 70
     1
102
RTVSPost2010Prop28
280
     0
102
RTVSPost2010PropOp28
 70
     1
102
RTVSPost2010Prop29
280
     1
102
RTVSPost2010PropOp29
 70
     1
102
RTVSPost2010Prop30
280
     1
102
RTVSPost2010PropOp30
 70
     1
102
RTVSPost2010Prop31
280
     0
102
RTVSPost2010PropOp31
 70
     1
102
RTVSPost2010Prop32
280
     0
102
RTVSPost2010PropOp32
 70
     1
102
RTVSPost2010Prop33
280
     0
102
RTVSPost2010PropOp33
 70
     1
102
RTVSPost2010Prop34
280
     0
102
RTVSPost2010PropOp34
 70
     1
102
RTVSPost2010Prop35
280
     0
102
RTVSPost2010PropOp35
 70
     1
102
RTVSPost2010Prop36
280
     0
102
RTVSPost2010PropOp36
 70
     1
102
RTVSPost2010Prop37
 90
       50
102
RTVSPost2010PropOp37
 70
     1
102
RTVSPost2010Prop38
140
0.0
102
RTVSPost2010PropOp38
 70
     1
102
RTVSPost2010Prop39
140
1.0
102
RTVSPost2010PropOp39
 70
     1
102
RTVSPost2010Prop40
 90
        0
102
RTVSPost2010PropOp40
 70
     1
102
RTVSPost2010Prop41ColorIndex
 90
       18
102
RTVSPost2010Prop41ColorRGB
 90
        0
102
RTVSPost2010PropOp41
 70
     1
102
RTVSPost2010Prop42
 90
       50
102
RTVSPost2010PropOp42
 70
     1
102
RTVSPost2010Prop43
 90
        3
102
RTVSPost2010PropOp43
 70
     1
102
RTVSPost2010Prop44ColorIndex
 90
        5
102
RTVSPost2010Prop44ColorRGB
 90
      255
102
RTVSPost2010PropOp44
 70
     1
102
RTVSPost2010Prop45
280
     0
102
RTVSPost2010PropOp45
 70
     1
102
RTVSPost2010Prop46
 90
       50
102
RTVSPost2010PropOp46
 70
     1
102
RTVSPost2010Prop47
 90
       50
102
RTVSPost2010PropOp47
 70
     1
102
RTVSPost2010Prop48
 90
       50
102
RTVSPost2010PropOp48
 70
     1
102
RTVSPost2010Prop49
280
     0
102
RTVSPost2010PropOp49
 70
     1
102
RTVSPost2010Prop50
 90
       50
102
RTVSPost2010PropOp50
 70
     1
102
RTVSPost2010Prop51ColorIndex
 90
      256
102
RTVSPost2010Prop51ColorRGB
 90
-16777216
102
RTVSPost2010PropOp51
 70
     0
102
RTVSPost2010Prop52
140
1.0
102
RTVSPost2010PropOp52
 70
     0
102
RTVSPost2010Prop53
 90
        2
102
RTVSPost2010PropOp53
 70
     1
102
RTVSPost2010Prop54
  1
strokes_ogs.tif
102
RTVSPost2010PropOp54
 70
     1
102
RTVSPost2010Prop55
280
     0
102
RTVSPost2010PropOp55
 70
     1
102
RTVSPost2010Prop56
140
1.0
102
RTVSPost2010PropOp56
 70
     1
102
RTVSPost2010Prop57
140
1.0
102
RTVSPost2010PropOp57
 70
     1
  0
XRECORD
  5
5B4
102
{ACAD_REACTORS
330
5B3
102
}
330
5B3
100
AcDbXrecord
280
     1
102
RTVSPropertyOp0
 70
     1
102
RTVSPropertyOp1
 70
     1
102
RTVSPropertyOp2
 70
     1
102
RTVSPropertyOp3
 70
     1
102
RTVSPropertyOp4
 70
     1
102
RTVSPropertyOp5
 70
     1
102
RTVSPropertyOp6
 70
     1
102
RTVSPropertyOp7
 70
     1
102
RTVSPropertyOp8
 70
     1
102
RTVSPropertyOp9
 70
     1
102
RTVSPropertyOp10
 70
     1
102
RTVSPropertyOp11
 70
     1
102
RTVSPropertyOp12
 70
     1
102
RTVSPropertyOp13
 70
     1
102
RTVSPropertyOp14
 70
     1
102
RTVSPropertyOp15
 70
     1
102
RTVSPropertyOp16
 70
     1
102
RTVSPropertyOp17
 70
     1
102
RTVSPropertyOp18
 70
     1
102
RTVSPropertyOp19
 70
     1
102
RTVSPropertyOp20
 70
     1
102
RTVSPropertyOp21
 70
     1
102
RTVSPropertyOp22
 70
     1
102
RTVSPropertyOp23
 70
     1
102
RTVSPropertyOp24
 70
     1
102
RTVSPropertyOp25
 70
     1
102
RTVSPropertyOp26
 70
     1
102
RTVSPropertyOp27
 70
     1
102
RTVSPropertyOp28
 70
     1
102
RTVSPropertyOp29
 70
     1
102
RTVSPropertyOp30
 70
     1
102
RTVSPropertyOp31
 70
     1
102
RTVSPropertyOp32
 70
     1
102
RTVSPropertyOp33
 70
     1
102
RTVSPropertyOp34
 70
     1
102
RTVSPropertyOp35
 70
     1
102
RTVSPropertyOp36
 70
     1
102
RTVSPropertyOp37
 70
     1
102
RTVSPropertyOp38
 70
     1
102
RTVSPropertyOp39
 70
     1
102
RTVSPropertyOp40
 70
     1
102
RTVSPropertyOp41
 70
     1
102
RTVSPropertyOp42
 70
     1
102
RTVSPropertyOp43
 70
     1
102
RTVSPropertyOp44
 70
     1
102
RTVSPropertyOp45
 70
     1
102
RTVSPropertyOp46
 70
     1
102
RTVSPropertyOp47
 70
     1
102
RTVSPropertyOp48
 70
     1
102
RTVSPropertyOp49
 70
     1
102
RTVSPropertyOp50
 70
     1
102
RTVSPropertyOp51
 70
     0
102
RTVSPropertyOp52
 70
     0
102
RTVSPropertyOp53
 70
     1
102
RTVSPropertyOp54
 70
     1
102
RTVSPropertyOp55
 70
     1
102
RTVSPropertyOp56
 70
     1
102
RTVSPropertyOp57
 70
     1
102
RTVSPost2010Prop28
280
     0
102
RTVSPost2010PropOp28
 70
     1
102
RTVSPost2010Prop29
280
     1
102
RTVSPost2010PropOp29
 70
     1
102
RTVSPost2010Prop30
280
     1
102
RTVSPost2010PropOp30
 70
     1
102
RTVSPost2010Prop31
280
     0
102
RTVSPost2010PropOp31
 70
     1
102
RTVSPost2010Prop32
280
     0
102
RTVSPost2010PropOp32
 70
     1
102
RTVSPost2010Prop33
280
     0
102
RTVSPost2010PropOp33
 70
     1
102
RTVSPost2010Prop34
280
     0
102
RTVSPost2010PropOp34
 70
     1
102
RTVSPost2010Prop35
280
     0
102
RTVSPost2010PropOp35
 70
     1
102
RTVSPost2010Prop36
280
     0
102
RTVSPost2010PropOp36
 70
     1
102
RTVSPost2010Prop37
 90
       50
102
RTVSPost2010PropOp37
 70
     1
102
RTVSPost2010Prop38
140
0.0
102
RTVSPost2010PropOp38
 70
     1
102
RTVSPost2010Prop39
140
1.0
102
RTVSPost2010PropOp39
 70
     1
102
RTVSPost2010Prop40
 90
        0
102
RTVSPost2010PropOp40
 70
     1
102
RTVSPost2010Prop41ColorIndex
 90
       18
102
RTVSPost2010Prop41ColorRGB
 90
        0
102
RTVSPost2010PropOp41
 70
     1
102
RTVSPost2010Prop42
 90
       50
102
RTVSPost2010PropOp42
 70
     1
102
RTVSPost2010Prop43
 90
        3
102
RTVSPost2010PropOp43
 70
     1
102
RTVSPost2010Prop44ColorIndex
 90
        5
102
RTVSPost2010Prop44ColorRGB
 90
      255
102
RTVSPost2010PropOp44
 70
     1
102
RTVSPost2010Prop45
280
     0
102
RTVSPost2010PropOp45
 70
     1
102
RTVSPost2010Prop46
 90
       50
102
RTVSPost2010PropOp46
 70
     1
102
RTVSPost2010Prop47
 90
       50
102
RTVSPost2010PropOp47
 70
     1
102
RTVSPost2010Prop48
 90
       50
102
RTVSPost2010PropOp48
 70
     1
102
RTVSPost2010Prop49
280
     0
102
RTVSPost2010PropOp49
 70
     1
102
RTVSPost2010Prop50
 90
       50
102
RTVSPost2010PropOp50
 70
     1
102
RTVSPost2010Prop51ColorIndex
 90
      256
102
RTVSPost2010Prop51ColorRGB
 90
-16777216
102
RTVSPost2010PropOp51
 70
     0
102
RTVSPost2010Prop52
140
1.0
102
RTVSPost2010PropOp52
 70
     0
102
RTVSPost2010Prop53
 90
        2
102
RTVSPost2010PropOp53
 70
     1
102
RTVSPost2010Prop54
  1
strokes_ogs.tif
102
RTVSPost2010PropOp54
 70
     1
102
RTVSPost2010Prop55
280
     0
102
RTVSPost2010PropOp55
 70
     1
102
RTVSPost2010Prop56
140
1.0
102
RTVSPost2010PropOp56
 70
     1
102
RTVSPost2010Prop57
140
1.0
102
RTVSPost2010PropOp57
 70
     1
  0
XRECORD
  5
5B6
102
{ACAD_REACTORS
330
5B5
102
}
330
5B5
100
AcDbXrecord
280
     1
102
RTVSPropertyOp0
 70
     1
102
RTVSPropertyOp1
 70
     1
102
RTVSPropertyOp2
 70
     1
102
RTVSPropertyOp3
 70
     1
102
RTVSPropertyOp4
 70
     1
102
RTVSPropertyOp5
 70
     1
102
RTVSPropertyOp6
 70
     1
102
RTVSPropertyOp7
 70
     1
102
RTVSPropertyOp8
 70
     1
102
RTVSPropertyOp9
 70
     1
102
RTVSPropertyOp10
 70
     1
102
RTVSPropertyOp11
 70
     1
102
RTVSPropertyOp12
 70
     1
102
RTVSPropertyOp13
 70
     1
102
RTVSPropertyOp14
 70
     1
102
RTVSPropertyOp15
 70
     1
102
RTVSPropertyOp16
 70
     1
102
RTVSPropertyOp17
 70
     1
102
RTVSPropertyOp18
 70
     1
102
RTVSPropertyOp19
 70
     1
102
RTVSPropertyOp20
 70
     1
102
RTVSPropertyOp21
 70
     1
102
RTVSPropertyOp22
 70
     1
102
RTVSPropertyOp23
 70
     1
102
RTVSPropertyOp24
 70
     1
102
RTVSPropertyOp25
 70
     1
102
RTVSPropertyOp26
 70
     1
102
RTVSPropertyOp27
 70
     1
102
RTVSPropertyOp28
 70
     1
102
RTVSPropertyOp29
 70
     1
102
RTVSPropertyOp30
 70
     1
102
RTVSPropertyOp31
 70
     1
102
RTVSPropertyOp32
 70
     1
102
RTVSPropertyOp33
 70
     1
102
RTVSPropertyOp34
 70
     1
102
RTVSPropertyOp35
 70
     1
102
RTVSPropertyOp36
 70
     1
102
RTVSPropertyOp37
 70
     1
102
RTVSPropertyOp38
 70
     1
102
RTVSPropertyOp39
 70
     1
102
RTVSPropertyOp40
 70
     1
102
RTVSPropertyOp41
 70
     1
102
RTVSPropertyOp42
 70
     1
102
RTVSPropertyOp43
 70
     1
102
RTVSPropertyOp44
 70
     1
102
RTVSPropertyOp45
 70
     1
102
RTVSPropertyOp46
 70
     1
102
RTVSPropertyOp47
 70
     1
102
RTVSPropertyOp48
 70
     1
102
RTVSPropertyOp49
 70
     1
102
RTVSPropertyOp50
 70
     1
102
RTVSPropertyOp51
 70
     0
102
RTVSPropertyOp52
 70
     0
102
RTVSPropertyOp53
 70
     1
102
RTVSPropertyOp54
 70
     1
102
RTVSPropertyOp55
 70
     1
102
RTVSPropertyOp56
 70
     1
102
RTVSPropertyOp57
 70
     1
102
RTVSPost2010Prop28
280
     0
102
RTVSPost2010PropOp28
 70
     1
102
RTVSPost2010Prop29
280
     1
102
RTVSPost2010PropOp29
 70
     1
102
RTVSPost2010Prop30
280
     1
102
RTVSPost2010PropOp30
 70
     1
102
RTVSPost2010Prop31
280
     0
102
RTVSPost2010PropOp31
 70
     1
102
RTVSPost2010Prop32
280
     0
102
RTVSPost2010PropOp32
 70
     1
102
RTVSPost2010Prop33
280
     0
102
RTVSPost2010PropOp33
 70
     1
102
RTVSPost2010Prop34
280
     0
102
RTVSPost2010PropOp34
 70
     1
102
RTVSPost2010Prop35
280
     0
102
RTVSPost2010PropOp35
 70
     1
102
RTVSPost2010Prop36
280
     0
102
RTVSPost2010PropOp36
 70
     1
102
RTVSPost2010Prop37
 90
       50
102
RTVSPost2010PropOp37
 70
     1
102
RTVSPost2010Prop38
140
0.0
102
RTVSPost2010PropOp38
 70
     1
102
RTVSPost2010Prop39
140
1.0
102
RTVSPost2010PropOp39
 70
     1
102
RTVSPost2010Prop40
 90
        0
102
RTVSPost2010PropOp40
 70
     1
102
RTVSPost2010Prop41ColorIndex
 90
       18
102
RTVSPost2010Prop41ColorRGB
 90
        0
102
RTVSPost2010PropOp41
 70
     1
102
RTVSPost2010Prop42
 90
       50
102
RTVSPost2010PropOp42
 70
     1
102
RTVSPost2010Prop43
 90
        3
102
RTVSPost2010PropOp43
 70
     1
102
RTVSPost2010Prop44ColorIndex
 90
        5
102
RTVSPost2010Prop44ColorRGB
 90
      255
102
RTVSPost2010PropOp44
 70
     1
102
RTVSPost2010Prop45
280
     0
102
RTVSPost2010PropOp45
 70
     1
102
RTVSPost2010Prop46
 90
       50
102
RTVSPost2010PropOp46
 70
     1
102
RTVSPost2010Prop47
 90
       50
102
RTVSPost2010PropOp47
 70
     1
102
RTVSPost2010Prop48
 90
       50
102
RTVSPost2010PropOp48
 70
     1
102
RTVSPost2010Prop49
280
     0
102
RTVSPost2010PropOp49
 70
     1
102
RTVSPost2010Prop50
 90
       50
102
RTVSPost2010PropOp50
 70
     1
102
RTVSPost2010Prop51ColorIndex
 90
      256
102
RTVSPost2010Prop51ColorRGB
 90
-16777216
102
RTVSPost2010PropOp51
 70
     0
102
RTVSPost2010Prop52
140
1.0
102
RTVSPost2010PropOp52
 70
     0
102
RTVSPost2010Prop53
 90
        2
102
RTVSPost2010PropOp53
 70
     1
102
RTVSPost2010Prop54
  1
strokes_ogs.tif
102
RTVSPost2010PropOp54
 70
     1
102
RTVSPost2010Prop55
280
     0
102
RTVSPost2010PropOp55
 70
     1
102
RTVSPost2010Prop56
140
1.0
102
RTVSPost2010PropOp56
 70
     1
102
RTVSPost2010Prop57
140
1.0
102
RTVSPost2010PropOp57
 70
     1
  0
XRECORD
  5
5B8
102
{ACAD_REACTORS
330
5B7
102
}
330
5B7
100
AcDbXrecord
280
     1
102
RTVSPropertyOp0
 70
     1
102
RTVSPropertyOp1
 70
     1
102
RTVSPropertyOp2
 70
     1
102
RTVSPropertyOp3
 70
     1
102
RTVSPropertyOp4
 70
     1
102
RTVSPropertyOp5
 70
     1
102
RTVSPropertyOp6
 70
     1
102
RTVSPropertyOp7
 70
     1
102
RTVSPropertyOp8
 70
     1
102
RTVSPropertyOp9
 70
     1
102
RTVSPropertyOp10
 70
     1
102
RTVSPropertyOp11
 70
     1
102
RTVSPropertyOp12
 70
     1
102
RTVSPropertyOp13
 70
     1
102
RTVSPropertyOp14
 70
     1
102
RTVSPropertyOp15
 70
     1
102
RTVSPropertyOp16
 70
     1
102
RTVSPropertyOp17
 70
     1
102
RTVSPropertyOp18
 70
     1
102
RTVSPropertyOp19
 70
     1
102
RTVSPropertyOp20
 70
     1
102
RTVSPropertyOp21
 70
     1
102
RTVSPropertyOp22
 70
     1
102
RTVSPropertyOp23
 70
     1
102
RTVSPropertyOp24
 70
     1
102
RTVSPropertyOp25
 70
     1
102
RTVSPropertyOp26
 70
     1
102
RTVSPropertyOp27
 70
     1
102
RTVSPropertyOp28
 70
     1
102
RTVSPropertyOp29
 70
     1
102
RTVSPropertyOp30
 70
     1
102
RTVSPropertyOp31
 70
     1
102
RTVSPropertyOp32
 70
     1
102
RTVSPropertyOp33
 70
     1
102
RTVSPropertyOp34
 70
     1
102
RTVSPropertyOp35
 70
     1
102
RTVSPropertyOp36
 70
     1
102
RTVSPropertyOp37
 70
     1
102
RTVSPropertyOp38
 70
     1
102
RTVSPropertyOp39
 70
     1
102
RTVSPropertyOp40
 70
     1
102
RTVSPropertyOp41
 70
     1
102
RTVSPropertyOp42
 70
     1
102
RTVSPropertyOp43
 70
     1
102
RTVSPropertyOp44
 70
     1
102
RTVSPropertyOp45
 70
     1
102
RTVSPropertyOp46
 70
     1
102
RTVSPropertyOp47
 70
     1
102
RTVSPropertyOp48
 70
     1
102
RTVSPropertyOp49
 70
     1
102
RTVSPropertyOp50
 70
     1
102
RTVSPropertyOp51
 70
     0
102
RTVSPropertyOp52
 70
     0
102
RTVSPropertyOp53
 70
     1
102
RTVSPropertyOp54
 70
     1
102
RTVSPropertyOp55
 70
     1
102
RTVSPropertyOp56
 70
     1
102
RTVSPropertyOp57
 70
     1
102
RTVSPost2010Prop28
280
     0
102
RTVSPost2010PropOp28
 70
     1
102
RTVSPost2010Prop29
280
     1
102
RTVSPost2010PropOp29
 70
     1
102
RTVSPost2010Prop30
280
     1
102
RTVSPost2010PropOp30
 70
     1
102
RTVSPost2010Prop31
280
     0
102
RTVSPost2010PropOp31
 70
     1
102
RTVSPost2010Prop32
280
     0
102
RTVSPost2010PropOp32
 70
     1
102
RTVSPost2010Prop33
280
     0
102
RTVSPost2010PropOp33
 70
     1
102
RTVSPost2010Prop34
280
     0
102
RTVSPost2010PropOp34
 70
     1
102
RTVSPost2010Prop35
280
     0
102
RTVSPost2010PropOp35
 70
     1
102
RTVSPost2010Prop36
280
     0
102
RTVSPost2010PropOp36
 70
     1
102
RTVSPost2010Prop37
 90
       50
102
RTVSPost2010PropOp37
 70
     1
102
RTVSPost2010Prop38
140
0.0
102
RTVSPost2010PropOp38
 70
     1
102
RTVSPost2010Prop39
140
1.0
102
RTVSPost2010PropOp39
 70
     1
102
RTVSPost2010Prop40
 90
        0
102
RTVSPost2010PropOp40
 70
     1
102
RTVSPost2010Prop41ColorIndex
 90
       18
102
RTVSPost2010Prop41ColorRGB
 90
        0
102
RTVSPost2010PropOp41
 70
     1
102
RTVSPost2010Prop42
 90
       50
102
RTVSPost2010PropOp42
 70
     1
102
RTVSPost2010Prop43
 90
        3
102
RTVSPost2010PropOp43
 70
     1
102
RTVSPost2010Prop44ColorIndex
 90
        5
102
RTVSPost2010Prop44ColorRGB
 90
      255
102
RTVSPost2010PropOp44
 70
     1
102
RTVSPost2010Prop45
280
     0
102
RTVSPost2010PropOp45
 70
     1
102
RTVSPost2010Prop46
 90
       50
102
RTVSPost2010PropOp46
 70
     1
102
RTVSPost2010Prop47
 90
       50
102
RTVSPost2010PropOp47
 70
     1
102
RTVSPost2010Prop48
 90
       50
102
RTVSPost2010PropOp48
 70
     1
102
RTVSPost2010Prop49
280
     0
102
RTVSPost2010PropOp49
 70
     1
102
RTVSPost2010Prop50
 90
       50
102
RTVSPost2010PropOp50
 70
     1
102
RTVSPost2010Prop51ColorIndex
 90
      256
102
RTVSPost2010Prop51ColorRGB
 90
-16777216
102
RTVSPost2010PropOp51
 70
     0
102
RTVSPost2010Prop52
140
1.0
102
RTVSPost2010PropOp52
 70
     0
102
RTVSPost2010Prop53
 90
        2
102
RTVSPost2010PropOp53
 70
     1
102
RTVSPost2010Prop54
  1
strokes_ogs.tif
102
RTVSPost2010PropOp54
 70
     1
102
RTVSPost2010Prop55
280
     0
102
RTVSPost2010PropOp55
 70
     1
102
RTVSPost2010Prop56
140
1.0
102
RTVSPost2010PropOp56
 70
     1
102
RTVSPost2010Prop57
140
1.0
102
RTVSPost2010PropOp57
 70
     1
  0
XRECORD
  5
5BA
102
{ACAD_REACTORS
330
5B9
102
}
330
5B9
100
AcDbXrecord
280
     1
102
RTVSPropertyOp0
 70
     1
102
RTVSPropertyOp1
 70
     1
102
RTVSPropertyOp2
 70
     1
102
RTVSPropertyOp3
 70
     1
102
RTVSPropertyOp4
 70
     1
102
RTVSPropertyOp5
 70
     1
102
RTVSPropertyOp6
 70
     1
102
RTVSPropertyOp7
 70
     1
102
RTVSPropertyOp8
 70
     1
102
RTVSPropertyOp9
 70
     1
102
RTVSPropertyOp10
 70
     1
102
RTVSPropertyOp11
 70
     1
102
RTVSPropertyOp12
 70
     1
102
RTVSPropertyOp13
 70
     1
102
RTVSPropertyOp14
 70
     1
102
RTVSPropertyOp15
 70
     1
102
RTVSPropertyOp16
 70
     1
102
RTVSPropertyOp17
 70
     1
102
RTVSPropertyOp18
 70
     1
102
RTVSPropertyOp19
 70
     1
102
RTVSPropertyOp20
 70
     1
102
RTVSPropertyOp21
 70
     1
102
RTVSPropertyOp22
 70
     1
102
RTVSPropertyOp23
 70
     1
102
RTVSPropertyOp24
 70
     1
102
RTVSPropertyOp25
 70
     1
102
RTVSPropertyOp26
 70
     1
102
RTVSPropertyOp27
 70
     1
102
RTVSPropertyOp28
 70
     1
102
RTVSPropertyOp29
 70
     1
102
RTVSPropertyOp30
 70
     1
102
RTVSPropertyOp31
 70
     1
102
RTVSPropertyOp32
 70
     1
102
RTVSPropertyOp33
 70
     1
102
RTVSPropertyOp34
 70
     1
102
RTVSPropertyOp35
 70
     1
102
RTVSPropertyOp36
 70
     1
102
RTVSPropertyOp37
 70
     1
102
RTVSPropertyOp38
 70
     1
102
RTVSPropertyOp39
 70
     1
102
RTVSPropertyOp40
 70
     1
102
RTVSPropertyOp41
 70
     1
102
RTVSPropertyOp42
 70
     1
102
RTVSPropertyOp43
 70
     1
102
RTVSPropertyOp44
 70
     1
102
RTVSPropertyOp45
 70
     1
102
RTVSPropertyOp46
 70
     1
102
RTVSPropertyOp47
 70
     1
102
RTVSPropertyOp48
 70
     1
102
RTVSPropertyOp49
 70
     1
102
RTVSPropertyOp50
 70
     1
102
RTVSPropertyOp51
 70
     0
102
RTVSPropertyOp52
 70
     0
102
RTVSPropertyOp53
 70
     1
102
RTVSPropertyOp54
 70
     1
102
RTVSPropertyOp55
 70
     1
102
RTVSPropertyOp56
 70
     1
102
RTVSPropertyOp57
 70
     1
102
RTVSPost2010Prop28
280
     0
102
RTVSPost2010PropOp28
 70
     1
102
RTVSPost2010Prop29
280
     1
102
RTVSPost2010PropOp29
 70
     1
102
RTVSPost2010Prop30
280
     1
102
RTVSPost2010PropOp30
 70
     1
102
RTVSPost2010Prop31
280
     0
102
RTVSPost2010PropOp31
 70
     1
102
RTVSPost2010Prop32
280
     0
102
RTVSPost2010PropOp32
 70
     1
102
RTVSPost2010Prop33
280
     0
102
RTVSPost2010PropOp33
 70
     1
102
RTVSPost2010Prop34
280
     0
102
RTVSPost2010PropOp34
 70
     1
102
RTVSPost2010Prop35
280
     0
102
RTVSPost2010PropOp35
 70
     1
102
RTVSPost2010Prop36
280
     0
102
RTVSPost2010PropOp36
 70
     1
102
RTVSPost2010Prop37
 90
       50
102
RTVSPost2010PropOp37
 70
     1
102
RTVSPost2010Prop38
140
0.0
102
RTVSPost2010PropOp38
 70
     1
102
RTVSPost2010Prop39
140
1.0
102
RTVSPost2010PropOp39
 70
     1
102
RTVSPost2010Prop40
 90
        0
102
RTVSPost2010PropOp40
 70
     1
102
RTVSPost2010Prop41ColorIndex
 90
       18
102
RTVSPost2010Prop41ColorRGB
 90
        0
102
RTVSPost2010PropOp41
 70
     1
102
RTVSPost2010Prop42
 90
       50
102
RTVSPost2010PropOp42
 70
     1
102
RTVSPost2010Prop43
 90
        3
102
RTVSPost2010PropOp43
 70
     1
102
RTVSPost2010Prop44ColorIndex
 90
        5
102
RTVSPost2010Prop44ColorRGB
 90
      255
102
RTVSPost2010PropOp44
 70
     1
102
RTVSPost2010Prop45
280
     0
102
RTVSPost2010PropOp45
 70
     1
102
RTVSPost2010Prop46
 90
       50
102
RTVSPost2010PropOp46
 70
     1
102
RTVSPost2010Prop47
 90
       50
102
RTVSPost2010PropOp47
 70
     1
102
RTVSPost2010Prop48
 90
       50
102
RTVSPost2010PropOp48
 70
     1
102
RTVSPost2010Prop49
280
     0
102
RTVSPost2010PropOp49
 70
     1
102
RTVSPost2010Prop50
 90
       50
102
RTVSPost2010PropOp50
 70
     1
102
RTVSPost2010Prop51ColorIndex
 90
      256
102
RTVSPost2010Prop51ColorRGB
 90
-16777216
102
RTVSPost2010PropOp51
 70
     0
102
RTVSPost2010Prop52
140
1.0
102
RTVSPost2010PropOp52
 70
     0
102
RTVSPost2010Prop53
 90
        2
102
RTVSPost2010PropOp53
 70
     1
102
RTVSPost2010Prop54
  1
strokes_ogs.tif
102
RTVSPost2010PropOp54
 70
     1
102
RTVSPost2010Prop55
280
     0
102
RTVSPost2010PropOp55
 70
     1
102
RTVSPost2010Prop56
140
1.0
102
RTVSPost2010PropOp56
 70
     1
102
RTVSPost2010Prop57
140
1.0
102
RTVSPost2010PropOp57
 70
     1
  0
XRECORD
  5
5BC
102
{ACAD_REACTORS
330
5BB
102
}
330
5BB
100
AcDbXrecord
280
     1
102
RTVSPropertyOp0
 70
     1
102
RTVSPropertyOp1
 70
     1
102
RTVSPropertyOp2
 70
     1
102
RTVSPropertyOp3
 70
     1
102
RTVSPropertyOp4
 70
     1
102
RTVSPropertyOp5
 70
     1
102
RTVSPropertyOp6
 70
     1
102
RTVSPropertyOp7
 70
     1
102
RTVSPropertyOp8
 70
     1
102
RTVSPropertyOp9
 70
     1
102
RTVSPropertyOp10
 70
     1
102
RTVSPropertyOp11
 70
     1
102
RTVSPropertyOp12
 70
     1
102
RTVSPropertyOp13
 70
     1
102
RTVSPropertyOp14
 70
     1
102
RTVSPropertyOp15
 70
     1
102
RTVSPropertyOp16
 70
     1
102
RTVSPropertyOp17
 70
     1
102
RTVSPropertyOp18
 70
     1
102
RTVSPropertyOp19
 70
     1
102
RTVSPropertyOp20
 70
     1
102
RTVSPropertyOp21
 70
     1
102
RTVSPropertyOp22
 70
     1
102
RTVSPropertyOp23
 70
     1
102
RTVSPropertyOp24
 70
     1
102
RTVSPropertyOp25
 70
     1
102
RTVSPropertyOp26
 70
     1
102
RTVSPropertyOp27
 70
     1
102
RTVSPropertyOp28
 70
     1
102
RTVSPropertyOp29
 70
     1
102
RTVSPropertyOp30
 70
     1
102
RTVSPropertyOp31
 70
     1
102
RTVSPropertyOp32
 70
     1
102
RTVSPropertyOp33
 70
     1
102
RTVSPropertyOp34
 70
     1
102
RTVSPropertyOp35
 70
     1
102
RTVSPropertyOp36
 70
     1
102
RTVSPropertyOp37
 70
     1
102
RTVSPropertyOp38
 70
     1
102
RTVSPropertyOp39
 70
     1
102
RTVSPropertyOp40
 70
     1
102
RTVSPropertyOp41
 70
     1
102
RTVSPropertyOp42
 70
     1
102
RTVSPropertyOp43
 70
     1
102
RTVSPropertyOp44
 70
     1
102
RTVSPropertyOp45
 70
     1
102
RTVSPropertyOp46
 70
     1
102
RTVSPropertyOp47
 70
     1
102
RTVSPropertyOp48
 70
     1
102
RTVSPropertyOp49
 70
     1
102
RTVSPropertyOp50
 70
     1
102
RTVSPropertyOp51
 70
     0
102
RTVSPropertyOp52
 70
     0
102
RTVSPropertyOp53
 70
     1
102
RTVSPropertyOp54
 70
     1
102
RTVSPropertyOp55
 70
     1
102
RTVSPropertyOp56
 70
     1
102
RTVSPropertyOp57
 70
     1
102
RTVSPost2010Prop28
280
     0
102
RTVSPost2010PropOp28
 70
     1
102
RTVSPost2010Prop29
280
     1
102
RTVSPost2010PropOp29
 70
     1
102
RTVSPost2010Prop30
280
     1
102
RTVSPost2010PropOp30
 70
     1
102
RTVSPost2010Prop31
280
     0
102
RTVSPost2010PropOp31
 70
     1
102
RTVSPost2010Prop32
280
     0
102
RTVSPost2010PropOp32
 70
     1
102
RTVSPost2010Prop33
280
     0
102
RTVSPost2010PropOp33
 70
     1
102
RTVSPost2010Prop34
280
     0
102
RTVSPost2010PropOp34
 70
     1
102
RTVSPost2010Prop35
280
     0
102
RTVSPost2010PropOp35
 70
     1
102
RTVSPost2010Prop36
280
     0
102
RTVSPost2010PropOp36
 70
     1
102
RTVSPost2010Prop37
 90
       50
102
RTVSPost2010PropOp37
 70
     1
102
RTVSPost2010Prop38
140
0.0
102
RTVSPost2010PropOp38
 70
     1
102
RTVSPost2010Prop39
140
1.0
102
RTVSPost2010PropOp39
 70
     1
102
RTVSPost2010Prop40
 90
        0
102
RTVSPost2010PropOp40
 70
     1
102
RTVSPost2010Prop41ColorIndex
 90
       18
102
RTVSPost2010Prop41ColorRGB
 90
        0
102
RTVSPost2010PropOp41
 70
     1
102
RTVSPost2010Prop42
 90
       50
102
RTVSPost2010PropOp42
 70
     1
102
RTVSPost2010Prop43
 90
        3
102
RTVSPost2010PropOp43
 70
     1
102
RTVSPost2010Prop44ColorIndex
 90
        5
102
RTVSPost2010Prop44ColorRGB
 90
      255
102
RTVSPost2010PropOp44
 70
     1
102
RTVSPost2010Prop45
280
     0
102
RTVSPost2010PropOp45
 70
     1
102
RTVSPost2010Prop46
 90
       50
102
RTVSPost2010PropOp46
 70
     1
102
RTVSPost2010Prop47
 90
       50
102
RTVSPost2010PropOp47
 70
     1
102
RTVSPost2010Prop48
 90
       50
102
RTVSPost2010PropOp48
 70
     1
102
RTVSPost2010Prop49
280
     0
102
RTVSPost2010PropOp49
 70
     1
102
RTVSPost2010Prop50
 90
       50
102
RTVSPost2010PropOp50
 70
     1
102
RTVSPost2010Prop51ColorIndex
 90
      256
102
RTVSPost2010Prop51ColorRGB
 90
-16777216
102
RTVSPost2010PropOp51
 70
     0
102
RTVSPost2010Prop52
140
1.0
102
RTVSPost2010PropOp52
 70
     0
102
RTVSPost2010Prop53
 90
        2
102
RTVSPost2010PropOp53
 70
     1
102
RTVSPost2010Prop54
  1
strokes_ogs.tif
102
RTVSPost2010PropOp54
 70
     1
102
RTVSPost2010Prop55
280
     0
102
RTVSPost2010PropOp55
 70
     1
102
RTVSPost2010Prop56
140
1.0
102
RTVSPost2010PropOp56
 70
     1
102
RTVSPost2010Prop57
140
1.0
102
RTVSPost2010PropOp57
 70
     1
  0
ENDSEC
  0
EOF
