  0
SECTION
  2
HEADER
  9
$ACADVER
  1
AC1015
  9
$ACADMAINTVER
 70
     6
  9
$DWGCODEPAGE
  3
ANSI_932
  9
$INSBASE
 10
3758.638861446825
 20
1348.172587671936
 30
0.0
  9
$EXTMIN
 10
218.2280011494172
 20
61.08253722567599
 30
0.0
  9
$EXTMAX
 10
1935.695394188921
 20
1670.345538647902
 30
0.0
  9
$LIMMIN
 10
0.0
 20
0.0
  9
$LIMMAX
 10
816.5000000000001
 20
565.0
  9
$ORTHOMODE
 70
     0
  9
$REGENMODE
 70
     1
  9
$FILLMODE
 70
     1
  9
$QTEXTMODE
 70
     0
  9
$MIRRTEXT
 70
     1
  9
$LTSCALE
 40
20.0
  9
$ATTMODE
 70
     1
  9
$TEXTSIZE
 40
18.0
  9
$TRACEWID
 40
0.05
  9
$TEXTSTYLE
  7
KANJI
  9
$CLAYER
  8
2
  9
$CELTYPE
  6
BYLAYER
  9
$CECOLOR
 62
   256
  9
$CELTSCALE
 40
1.0
  9
$DISPSILH
 70
     0
  9
$DIMSCALE
 40
6.0
  9
$DIMASZ
 40
2.0
  9
$DIMEXO
 40
0.5
  9
$DIMDLI
 40
0.0
  9
$DIMRND
 40
0.0
  9
$DIMDLE
 40
0.0
  9
$DIMEXE
 40
1.0
  9
$DIMTP
 40
0.0
  9
$DIMTM
 40
0.0
  9
$DIMTXT
 40
3.0
  9
$DIMCEN
 40
0.09
  9
$DIMTSZ
 40
0.0
  9
$DIMTOL
 70
     0
  9
$DIMLIM
 70
     0
  9
$DIMTIH
 70
     0
  9
$DIMTOH
 70
     0
  9
$DIMSE1
 70
     0
  9
$DIMSE2
 70
     0
  9
$DIMTAD
 70
     0
  9
$DIMZIN
 70
     8
  9
$DIMBLK
  1

  9
$DIMASO
 70
     0
  9
$DIMSHO
 70
     0
  9
$DIMPOST
  1

  9
$DIMAPOST
  1

  9
$DIMALT
 70
     0
  9
$DIMALTD
 70
     2
  9
$DIMALTF
 40
25.4
  9
$DIMLFAC
 40
1.0
  9
$DIMTOFL
 70
     1
  9
$DIMTVP
 40
1.0
  9
$DIMTIX
 70
     1
  9
$DIMSOXD
 70
     1
  9
$DIMSAH
 70
     0
  9
$DIMBLK1
  1

  9
$DIMBLK2
  1

  9
$DIMSTYLE
  2
STANDARD
  9
$DIMCLRD
 70
   256
  9
$DIMCLRE
 70
   256
  9
$DIMCLRT
 70
   256
  9
$DIMTFAC
 40
1.0
  9
$DIMGAP
 40
0.09
  9
$DIMJUST
 70
     0
  9
$DIMSD1
 70
     0
  9
$DIMSD2
 70
     0
  9
$DIMTOLJ
 70
     1
  9
$DIMTZIN
 70
     0
  9
$DIMALTZ
 70
     0
  9
$DIMALTTZ
 70
     0
  9
$DIMUPT
 70
     0
  9
$DIMDEC
 70
     1
  9
$DIMTDEC
 70
     4
  9
$DIMALTU
 70
     2
  9
$DIMALTTD
 70
     2
  9
$DIMTXSTY
  7
STANDARD
  9
$DIMAUNIT
 70
     0
  9
$DIMADEC
 70
     0
  9
$DIMALTRND
 40
0.0
  9
$DIMAZIN
 70
     0
  9
$DIMDSEP
 70
    46
  9
$DIMATFIT
 70
     3
  9
$DIMFRAC
 70
     0
  9
$DIMLDRBLK
  1

  9
$DIMLUNIT
 70
     2
  9
$DIMLWD
 70
    -2
  9
$DIMLWE
 70
    -2
  9
$DIMTMOVE
 70
     0
  9
$LUNITS
 70
     2
  9
$LUPREC
 70
     3
  9
$SKETCHINC
 40
0.1
  9
$FILLETRAD
 40
2.0
  9
$AUNITS
 70
     0
  9
$AUPREC
 70
     3
  9
$MENU
  1
C:\R13\WIN\SUPPORT\ACADFULL
  9
$ELEVATION
 40
0.0
  9
$PELEVATION
 40
0.0
  9
$THICKNESS
 40
0.0
  9
$LIMCHECK
 70
     0
  9
$CHAMFERA
 40
0.0
  9
$CHAMFERB
 40
0.0
  9
$CHAMFERC
 40
0.0
  9
$CHAMFERD
 40
0.0
  9
$SKPOLY
 70
     0
  9
$TDCREATE
 40
2449812.756805555
  9
$TDUCREATE
 40
2449812.381805555
  9
$TDUPDATE
 40
2457871.832883715
  9
$TDUUPDATE
 40
2457871.457883715
  9
$TDINDWG
 40
1.2338384606
  9
$TDUSRTIMER
 40
1.233838125
  9
$USRTIMER
 70
     1
  9
$ANGBASE
 50
0.0
  9
$ANGDIR
 70
     0
  9
$PDMODE
 70
     0
  9
$PDSIZE
 40
0.0
  9
$PLINEWID
 40
0.0
  9
$SPLFRAME
 70
     0
  9
$SPLINETYPE
 70
     6
  9
$SPLINESEGS
 70
     8
  9
$HANDSEED
  5
6CC
  9
$SURFTAB1
 70
     6
  9
$SURFTAB2
 70
     6
  9
$SURFTYPE
 70
     6
  9
$SURFU
 70
     6
  9
$SURFV
 70
     6
  9
$UCSBASE
  2

  9
$UCSNAME
  2

  9
$UCSORG
 10
0.0
 20
0.0
 30
0.0
  9
$UCSXDIR
 10
1.0
 20
0.0
 30
0.0
  9
$UCSYDIR
 10
0.0
 20
1.0
 30
0.0
  9
$UCSORTHOREF
  2

  9
$UCSORTHOVIEW
 70
     0
  9
$UCSORGTOP
 10
0.0
 20
0.0
 30
0.0
  9
$UCSORGBOTTOM
 10
0.0
 20
0.0
 30
0.0
  9
$UCSORGLEFT
 10
0.0
 20
0.0
 30
0.0
  9
$UCSORGRIGHT
 10
0.0
 20
0.0
 30
0.0
  9
$UCSORGFRONT
 10
0.0
 20
0.0
 30
0.0
  9
$UCSORGBACK
 10
0.0
 20
0.0
 30
0.0
  9
$PUCSBASE
  2

  9
$PUCSNAME
  2

  9
$PUCSORG
 10
0.0
 20
0.0
 30
0.0
  9
$PUCSXDIR
 10
1.0
 20
0.0
 30
0.0
  9
$PUCSYDIR
 10
0.0
 20
1.0
 30
0.0
  9
$PUCSORTHOREF
  2

  9
$PUCSORTHOVIEW
 70
     0
  9
$PUCSORGTOP
 10
0.0
 20
0.0
 30
0.0
  9
$PUCSORGBOTTOM
 10
0.0
 20
0.0
 30
0.0
  9
$PUCSORGLEFT
 10
0.0
 20
0.0
 30
0.0
  9
$PUCSORGRIGHT
 10
0.0
 20
0.0
 30
0.0
  9
$PUCSORGFRONT
 10
0.0
 20
0.0
 30
0.0
  9
$PUCSORGBACK
 10
0.0
 20
0.0
 30
0.0
  9
$USERI1
 70
     0
  9
$USERI2
 70
     0
  9
$USERI3
 70
     0
  9
$USERI4
 70
     0
  9
$USERI5
 70
     0
  9
$USERR1
 40
0.0
  9
$USERR2
 40
0.0
  9
$USERR3
 40
0.0
  9
$USERR4
 40
2448925.372986111
  9
$USERR5
 40
0.04166667
  9
$WORLDVIEW
 70
     1
  9
$SHADEDGE
 70
     3
  9
$SHADEDIF
 70
    70
  9
$TILEMODE
 70
     1
  9
$MAXACTVP
 70
    16
  9
$PINSBASE
 10
0.0
 20
0.0
 30
0.0
  9
$PLIMCHECK
 70
     0
  9
$PEXTMIN
 10
1.000000000000000E+20
 20
1.000000000000000E+20
 30
1.000000000000000E+20
  9
$PEXTMAX
 10
-1.000000000000000E+20
 20
-1.000000000000000E+20
 30
-1.000000000000000E+20
  9
$PLIMMIN
 10
0.0
 20
0.0
  9
$PLIMMAX
 10
12.0
 20
9.0
  9
$UNITMODE
 70
     0
  9
$VISRETAIN
 70
     0
  9
$PLINEGEN
 70
     0
  9
$PSLTSCALE
 70
     0
  9
$TREEDEPTH
 70
  3020
  9
$CMLSTYLE
  2
STANDARD
  9
$CMLJUST
 70
     0
  9
$CMLSCALE
 40
1.0
  9
$PROXYGRAPHICS
 70
     1
  9
$MEASUREMENT
 70
     0
  9
$CELWEIGHT
370
    -1
  9
$ENDCAPS
280
     0
  9
$JOINSTYLE
280
     0
  9
$LWDISPLAY
290
     0
  9
$INSUNITS
 70
     0
  9
$HYPERLINKBASE
  1

  9
$STYLESHEET
  1
monochrome.ctb
  9
$XEDIT
290
     1
  9
$CEPSNTYPE
380
     0
  9
$PSTYLEMODE
290
     1
  9
$FINGERPRINTGUID
  2
{90BCA920-1E4E-4417-AEB1-10B435284F28}
  9
$VERSIONGUID
  2
{6313224E-A8DF-45E2-A9FF-E86927C0721D}
  9
$EXTNAMES
290
     1
  9
$PSVPSCALE
 40
0.0
  9
$OLESTARTUP
290
     0
  0
ENDSEC
  0
SECTION
  2
CLASSES
  0
CLASS
  1
ACDBDICTIONARYWDFLT
  2
AcDbDictionaryWithDefault
  3
ObjectDBX Classes
 90
        0
280
     0
281
     0
  0
CLASS
  1
MATERIAL
  2
AcDbMaterial
  3
ObjectDBX Classes
 90
     1153
280
     0
281
     0
  0
CLASS
  1
SORTENTSTABLE
  2
AcDbSortentsTable
  3
ObjectDBX Classes
 90
        0
280
     0
281
     0
  0
CLASS
  1
VISUALSTYLE
  2
AcDbVisualStyle
  3
ObjectDBX Classes
 90
     4095
280
     0
281
     0
  0
CLASS
  1
SCALE
  2
AcDbScale
  3
ObjectDBX Classes
 90
     1153
280
     0
281
     0
  0
CLASS
  1
DICTIONARYVAR
  2
AcDbDictionaryVar
  3
ObjectDBX Classes
 90
        0
280
     0
281
     0
  0
CLASS
  1
MLEADERSTYLE
  2
AcDbMLeaderStyle
  3
ACDB_MLEADERSTYLE_CLASS
 90
     4095
280
     0
281
     0
  0
CLASS
  1
TABLESTYLE
  2
AcDbTableStyle
  3
ObjectDBX Classes
 90
     4095
280
     0
281
     0
  0
CLASS
  1
ACDBPLACEHOLDER
  2
AcDbPlaceHolder
  3
ObjectDBX Classes
 90
        0
280
     0
281
     0
  0
CLASS
  1
LAYOUT
  2
AcDbLayout
  3
ObjectDBX Classes
 90
        0
280
     0
281
     0
  0
ENDSEC
  0
SECTION
  2
TABLES
  0
TABLE
  2
VPORT
  5
2B
102
{ACAD_XDICTIONARY
360
691
102
}
330
0
100
AcDbSymbolTable
 70
     1
  0
VPORT
  5
33
330
2B
100
AcDbSymbolTableRecord
100
AcDbViewportTableRecord
  2
*Active
 70
     0
 10
0.0
 20
0.0
 11
1.0
 21
1.0
 12
1343.036084619199
 22
1001.724772040405
 13
0.0
 23
0.0
 14
1.0
 24
1.0
 15
50.0
 25
50.0
 16
0.0
 26
0.0
 36
1.0
 17
0.0
 27
0.0
 37
0.0
 40
2209.825121203264
 41
2.174107142857143
 42
50.0
 43
0.0
 44
0.0
 50
0.0
 51
0.0
 71
     0
 72
  5000
 73
     1
 74
     0
 75
     0
 76
     0
 77
     0
 78
     0
281
     0
 65
     1
110
0.0
120
0.0
130
0.0
111
1.0
121
0.0
131
0.0
112
0.0
122
1.0
132
0.0
 79
     0
146
0.0
1001
ACAD_NAV_VCDISPLAY
1070
     3
  0
ENDTAB
  0
TABLE
  2
LTYPE
  5
D
330
0
100
AcDbSymbolTable
 70
     4
  0
LTYPE
  5
E
330
D
100
AcDbSymbolTableRecord
100
AcDbLinetypeTableRecord
  2
BYBLOCK
 70
     0
  3

 72
    65
 73
     0
 40
0.0
  0
LTYPE
  5
F
330
D
100
AcDbSymbolTableRecord
100
AcDbLinetypeTableRecord
  2
BYLAYER
 70
     0
  3

 72
    65
 73
     0
 40
0.0
  0
LTYPE
  5
C
330
D
100
AcDbSymbolTableRecord
100
AcDbLinetypeTableRecord
  2
CONTINUOUS
 70
     0
  3
Solid line
 72
    65
 73
     0
 40
0.0
  0
LTYPE
  5
7D
330
D
100
AcDbSymbolTableRecord
100
AcDbLinetypeTableRecord
  2
CENTER
 70
     0
  3
____ _ ____ _ ____ _ ____ _ ____ _ ____ _ ____
 72
    65
 73
     4
 40
2.0
 49
1.25
 74
     0
 49
-0.25
 74
     0
 49
0.25
 74
     0
 49
-0.25
 74
     0
  0
LTYPE
  5
4DF
330
D
100
AcDbSymbolTableRecord
100
AcDbLinetypeTableRecord
  2
DASHED
 70
     0
  3
Dashed __ __ __ __ __ __ __ __ __ __ __ __ __ _
 72
    65
 73
     2
 40
0.75
 49
0.5
 74
     0
 49
-0.25
 74
     0
  0
ENDTAB
  0
TABLE
  2
LAYER
  5
2
102
{ACAD_XDICTIONARY
360
3
102
}
330
0
100
AcDbSymbolTable
 70
     8
  0
LAYER
  5
1D
102
{ACAD_XDICTIONARY
360
1E
102
}
330
2
100
AcDbSymbolTableRecord
100
AcDbLayerTableRecord
  2
0
 70
     0
 62
     7
  6
CONTINUOUS
370
    -3
390
7
  0
LAYER
  5
35A
102
{ACAD_XDICTIONARY
360
35B
102
}
330
2
100
AcDbSymbolTableRecord
100
AcDbLayerTableRecord
  2
1
 70
     0
 62
     9
  6
CONTINUOUS
370
    -3
390
7
  0
LAYER
  5
1
102
{ACAD_XDICTIONARY
360
5
102
}
330
2
100
AcDbSymbolTableRecord
100
AcDbLayerTableRecord
  2
2
 70
     0
 62
     4
  6
CONTINUOUS
370
    -3
390
7
  0
LAYER
  5
6D
102
{ACAD_XDICTIONARY
360
6E
102
}
330
2
100
AcDbSymbolTableRecord
100
AcDbLayerTableRecord
  2
4
 70
     0
 62
     3
  6
CONTINUOUS
370
    -3
390
7
  0
LAYER
  5
7A
102
{ACAD_XDICTIONARY
360
7B
102
}
330
2
100
AcDbSymbolTableRecord
100
AcDbLayerTableRecord
  2
L-CENTER
 70
     0
 62
     1
  6
CENTER
370
    -3
390
7
  0
LAYER
  5
89
102
{ACAD_XDICTIONARY
360
8A
102
}
330
2
100
AcDbSymbolTableRecord
100
AcDbLayerTableRecord
  2
3
 70
     0
 62
     2
  6
CONTINUOUS
370
    -3
390
7
  0
LAYER
  5
354
330
2
100
AcDbSymbolTableRecord
100
AcDbLayerTableRecord
  2
5
 70
     0
 62
     6
  6
CONTINUOUS
370
    -3
390
7
  0
LAYER
  5
664
330
2
100
AcDbSymbolTableRecord
100
AcDbLayerTableRecord
  2
Defpoints
 70
     0
 62
     7
  6
CONTINUOUS
290
     0
370
    -3
390
7
  0
ENDTAB
  0
TABLE
  2
STYLE
  5
11
330
0
100
AcDbSymbolTable
 70
     2
  0
STYLE
  5
15
330
11
100
AcDbSymbolTableRecord
100
AcDbTextStyleTableRecord
  2
STANDARD
 70
     0
 40
0.0
 41
1.0
 50
0.0
 71
     0
 42
10.79999999999999
  3
TXT
  4

  0
STYLE
  5
10
330
11
100
AcDbSymbolTableRecord
100
AcDbTextStyleTableRecord
  2
KANJI
 70
     0
 40
0.0
 41
1.0
 50
0.0
 71
     0
 42
18.0
  3
TXT
  4
BIGFONT
  0
ENDTAB
  0
TABLE
  2
VIEW
  5
29
330
0
100
AcDbSymbolTable
 70
     0
  0
ENDTAB
  0
TABLE
  2
UCS
  5
2A
330
0
100
AcDbSymbolTable
 70
     0
  0
ENDTAB
  0
TABLE
  2
APPID
  5
24
330
0
100
AcDbSymbolTable
 70
     4
  0
APPID
  5
32
330
24
100
AcDbSymbolTableRecord
100
AcDbRegAppTableRecord
  2
ACAD
 70
     0
  0
APPID
  5
34
330
24
100
AcDbSymbolTableRecord
100
AcDbRegAppTableRecord
  2
ACAD_NAV_VCDISPLAY
 70
     0
  0
APPID
  5
23
330
24
100
AcDbSymbolTableRecord
100
AcDbRegAppTableRecord
  2
ACAD_PSEXT
 70
     0
  0
APPID
  5
62E
330
24
100
AcDbSymbolTableRecord
100
AcDbRegAppTableRecord
  2
ACAD_MLEADERVER
 70
     0
  0
ENDTAB
  0
TABLE
  2
DIMSTYLE
  5
14
330
0
100
AcDbSymbolTable
 70
     1
100
AcDbDimStyleTable
  0
DIMSTYLE
105
13
330
14
100
AcDbSymbolTableRecord
100
AcDbDimStyleTableRecord
  2
STANDARD
 70
     0
178
     0
340
15
  0
ENDTAB
  0
TABLE
  2
BLOCK_RECORD
  5
18
330
0
100
AcDbSymbolTable
 70
     0
  0
BLOCK_RECORD
  5
19
102
{ACAD_XDICTIONARY
360
1A
102
}
330
18
100
AcDbSymbolTableRecord
100
AcDbBlockTableRecord
  2
*MODEL_SPACE
340
21
  0
BLOCK_RECORD
  5
25
330
18
100
AcDbSymbolTableRecord
100
AcDbBlockTableRecord
  2
*PAPER_SPACE
340
28
  0
ENDTAB
  0
ENDSEC
  0
SECTION
  2
BLOCKS
  0
BLOCK
  5
1C
330
19
100
AcDbEntity
  8
0
100
AcDbBlockBegin
  2
*MODEL_SPACE
 70
     0
 10
0.0
 20
0.0
 30
0.0
  3
*MODEL_SPACE
  1

  0
ENDBLK
  5
20
330
19
100
AcDbEntity
  8
0
100
AcDbBlockEnd
  0
BLOCK
  5
26
330
25
100
AcDbEntity
 67
     1
  8
0
100
AcDbBlockBegin
  2
*PAPER_SPACE
 70
     0
 10
0.0
 20
0.0
 30
0.0
  3
*PAPER_SPACE
  1

  0
ENDBLK
  5
27
330
25
100
AcDbEntity
 67
     1
  8
0
100
AcDbBlockEnd
  0
ENDSEC
  0
SECTION
  2
ENTITIES
  0
LINE
  5
6C
330
19
100
AcDbEntity
  8
4
100
AcDbLine
 10
761.2280414647712
 20
276.4941802428104
 30
0.0
 11
761.2280414647712
 21
151.2307502428105
 31
0.0
  0
LINE
  5
70
330
19
100
AcDbEntity
  8
4
100
AcDbLine
 10
456.1211064647714
 20
290.6518902428104
 30
0.0
 11
470.2859014647711
 21
159.4680552428106
 31
0.0
  0
LINE
  5
71
330
19
100
AcDbEntity
  8
4
100
AcDbLine
 10
570.334976464771
 20
290.6518902428104
 30
0.0
 11
556.1701814647713
 21
159.4680552428106
 31
0.0
  0
LINE
  5
72
330
19
100
AcDbEntity
  8
4
100
AcDbLine
 10
265.2280414647712
 20
276.4941802428104
 30
0.0
 11
265.2280414647712
 21
151.2307502428105
 31
0.0
  0
CIRCLE
  5
73
330
19
100
AcDbEntity
  8
4
100
AcDbCircle
 10
513.2280414647712
 20
371.2307502428105
 30
0.0
 40
250.0
  0
ARC
  5
74
330
19
100
AcDbEntity
  8
4
100
AcDbCircle
 10
513.2280414647712
 20
371.2307502428105
 30
0.0
 40
220.0
100
AcDbArc
 50
96.58510479247461
 51
83.41489520752539
  0
ARC
  5
75
330
19
100
AcDbEntity
  8
4
100
AcDbCircle
 10
538.2280414647713
 20
587.7925197220977
 30
0.0
 40
2.0
100
AcDbArc
 50
83.41489520752658
 51
180.0
  0
ARC
  5
76
330
19
100
AcDbEntity
  8
4
100
AcDbCircle
 10
488.2280414647711
 20
587.7925197220977
 30
0.0
 40
2.0
100
AcDbArc
 50
0.0
 51
96.58510479247342
  0
ARC
  5
77
330
19
100
AcDbEntity
  8
4
100
AcDbCircle
 10
-133.7719585352288
 20
371.2307502428105
 30
0.0
 40
900.0
100
AcDbArc
 50
345.742695000007
 51
14.25813799999099
  0
ARC
  5
78
330
19
100
AcDbEntity
  8
4
100
AcDbCircle
 10
1160.228041464771
 20
371.2307502428105
 30
0.0
 40
900.00001
100
AcDbArc
 50
165.7423599999906
 51
194.2581229999902
  0
LINE
  5
79
330
19
100
AcDbEntity
  8
L-CENTER
 48
2.0
100
AcDbLine
 10
513.2280414647712
 20
812.8454952428103
 30
0.0
 11
513.2280414647712
 21
104.883191352563
 31
0.0
  0
LINE
  5
86
330
19
100
AcDbEntity
  8
4
100
AcDbLine
 10
340.2280414647712
 20
141.2307502428105
 30
0.0
 11
241.2280414647712
 21
141.2307502428105
 31
0.0
  0
LINE
  5
87
330
19
100
AcDbEntity
  8
4
100
AcDbLine
 10
373.2280414647712
 20
91.23075024281047
 30
0.0
 11
238.2280414647712
 21
91.23075024281047
 31
0.0
  0
LINE
  5
9F
330
19
100
AcDbEntity
  8
4
100
AcDbLine
 10
238.2280414647712
 20
91.23075024281047
 30
0.0
 11
238.2280414647712
 21
138.2307502428105
 31
0.0
  0
ARC
  5
A0
330
19
100
AcDbEntity
  8
4
100
AcDbCircle
 10
241.2280414647712
 20
138.2307502428105
 30
0.0
 40
3.0
100
AcDbArc
 50
90.0
 51
180.0
  0
ARC
  5
A7
330
19
100
AcDbEntity
  8
4
100
AcDbCircle
 10
513.2282864647714
 20
1018.23075024281
 30
0.0
 40
899.999985
100
AcDbArc
 50
259.1124609999979
 51
280.8884379999988
  0
LINE
  5
AA
330
19
100
AcDbEntity
  8
4
100
AcDbLine
 10
653.2280414647712
 20
91.23075024281047
 30
0.0
 11
788.2280414647712
 21
91.23075024281047
 31
0.0
  0
LINE
  5
D6
330
19
100
AcDbEntity
  8
4
100
AcDbLine
 10
413.2280414647712
 20
115.2307502428105
 30
0.0
 11
613.2280414647712
 21
115.2307502428105
 31
0.0
  0
LINE
  5
D9
330
19
100
AcDbEntity
  8
4
100
AcDbLine
 10
343.2280414647712
 20
91.23075024281047
 30
0.0
 11
343.2280414647712
 21
171.2307502428105
 31
0.0
  0
LINE
  5
DA
330
19
100
AcDbEntity
  8
L-CENTER
 48
2.0
100
AcDbLine
 10
278.2280414647712
 20
66.23075024281047
 30
0.0
 11
278.2280414647713
 21
166.2307502428105
 31
0.0
  0
ARC
  5
DB
330
19
100
AcDbEntity
  8
4
100
AcDbCircle
 10
513.2282864647714
 20
1018.23075024281
 30
0.0
 40
900.00002
100
AcDbArc
 50
255.7422799999995
 51
257.0189519999982
  0
ARC
  5
DC
330
19
100
AcDbEntity
  8
4
100
AcDbCircle
 10
292.7976214647711
 20
150.8003302428103
 30
0.0
 40
4.999965
100
AcDbArc
 50
194.2581190000103
 51
255.7418670000024
  0
LINE
  5
DD
330
19
100
AcDbEntity
  8
4
100
AcDbLine
 10
260.2280414647712
 20
142.5704952428107
 30
0.0
 11
260.2280414647712
 21
148.2307502428105
 31
0.0
  0
LINE
  5
DE
330
19
100
AcDbEntity
  8
4
100
AcDbLine
 10
262.2280414647712
 20
144.0893202428103
 30
0.0
 11
262.2280414647712
 21
156.2307502428105
 31
0.0
  0
ARC
  5
DF
330
19
100
AcDbEntity
  8
4
100
AcDbCircle
 10
255.2280414647712
 20
151.2307502428105
 30
0.0
 40
10.0
100
AcDbArc
 50
270.0
 51
0.0
  0
LINE
  5
E0
330
19
100
AcDbEntity
  8
4
100
AcDbLine
 10
265.2280414647712
 20
156.2307502428105
 30
0.0
 11
262.2280414647712
 21
156.2307502428105
 31
0.0
  0
LINE
  5
E1
330
19
100
AcDbEntity
  8
4
100
AcDbLine
 10
260.2280414647712
 20
148.2307502428105
 30
0.0
 11
262.2280414647712
 21
148.2307502428105
 31
0.0
  0
LINE
  5
E2
330
19
100
AcDbEntity
  8
4
100
AcDbLine
 10
331.2280414647712
 20
144.2307502428105
 30
0.0
 11
331.2280414647712
 21
171.2307502428105
 31
0.0
  0
ARC
  5
E3
330
19
100
AcDbEntity
  8
4
100
AcDbCircle
 10
340.2280414647712
 20
138.2307502428105
 30
0.0
 40
3.0
100
AcDbArc
 50
0.0
 51
90.0
  0
ARC
  5
E4
330
19
100
AcDbEntity
  8
4
100
AcDbCircle
 10
328.2280414647712
 20
144.2307502428105
 30
0.0
 40
3.0
100
AcDbArc
 50
270.0
 51
0.0
  0
LINE
  5
E5
330
19
100
AcDbEntity
  8
4
100
AcDbLine
 10
331.2280414647712
 20
171.2307502428105
 30
0.0
 11
343.2280414647712
 21
171.2307502428105
 31
0.0
  0
LINE
  5
E6
330
19
100
AcDbEntity
  8
4
100
AcDbLine
 10
381.0329214647713
 20
107.9868502428105
 30
0.0
 11
413.2280414647712
 21
115.2307502428105
 31
0.0
  0
ARC
  5
E7
330
19
100
AcDbEntity
  8
4
100
AcDbCircle
 10
383.2280414647712
 20
98.23075024281047
 30
0.0
 40
10.0
100
AcDbArc
 50
102.6803830000023
 51
180.0
  0
LINE
  5
E8
330
19
100
AcDbEntity
  8
4
100
AcDbLine
 10
373.2280414647712
 20
91.61893524281027
 30
0.0
 11
373.2280414647712
 21
91.23075024281047
 31
0.0
  0
LINE
  5
E9
330
19
100
AcDbEntity
  8
4
100
AcDbLine
 10
373.2280414647712
 20
91.23075024281047
 30
0.0
 11
373.2280414647712
 21
98.23075024281047
 31
0.0
  0
ARC
  5
EC
330
19
100
AcDbEntity
  8
4
100
AcDbCircle
 10
467.3032364647711
 20
159.1460352428105
 30
0.0
 40
3.00005
100
AcDbArc
 50
257.7801900000009
 51
6.162021999997868
  0
ARC
  5
ED
330
19
100
AcDbEntity
  8
4
100
AcDbCircle
 10
559.1528464647713
 20
159.1460352428105
 30
0.0
 40
3.00005
100
AcDbArc
 50
173.8379780000021
 51
282.2198099999991
  0
LINE
  5
EE
330
19
100
AcDbEntity
  8
4
100
AcDbLine
 10
613.2280414647712
 20
115.2307502428105
 30
0.0
 11
645.423161464771
 21
107.9868502428105
 31
0.0
  0
ARC
  5
EF
330
19
100
AcDbEntity
  8
4
100
AcDbCircle
 10
643.2280414647712
 20
98.23075024281047
 30
0.0
 40
10.0
100
AcDbArc
 50
0.0
 51
77.31961699999778
  0
LINE
  5
F0
330
19
100
AcDbEntity
  8
4
100
AcDbLine
 10
653.2280414647712
 20
91.61893524281027
 30
0.0
 11
653.2280414647712
 21
91.23075024281047
 31
0.0
  0
LINE
  5
F1
330
19
100
AcDbEntity
  8
4
100
AcDbLine
 10
653.2280414647712
 20
91.23075024281047
 30
0.0
 11
653.2280414647712
 21
98.23075024281047
 31
0.0
  0
TEXT
  5
F3
330
19
100
AcDbEntity
  8
3
100
AcDbText
 10
938.7636551977932
 20
61.08253722567599
 30
0.0
 40
18.73821597033114
  1
LB9-00
  7
KANJI
100
AcDbText
  0
ARC
  5
F9
330
19
100
AcDbEntity
  8
4
100
AcDbCircle
 10
785.2280414647712
 20
138.2307502428105
 30
0.0
 40
3.0
100
AcDbArc
 50
0.0
 51
90.0
  0
LINE
  5
FA
330
19
100
AcDbEntity
  8
L-CENTER
 48
2.0
100
AcDbLine
 10
748.2280414647712
 20
66.23075024281047
 30
0.0
 11
748.2280414647711
 21
166.2307502428105
 31
0.0
  0
LWPOLYLINE
  5
FB
330
19
100
AcDbEntity
  8
4
100
AcDbPolyline
 90
       44
 70
     0
 43
0.0
 10
723.4131464647712
 20
141.2317852428107
 10
724.2587264647709
 20
140.4646552428105
 10
725.0811464647713
 20
139.6970452428106
 10
725.8572364647712
 20
138.9284802428103
 10
727.6758914647712
 20
136.6122352428104
 10
728.0350214647715
 20
135.8350402428107
 10
728.2320064647711
 20
135.0544902428103
 10
728.2436764647709
 20
134.2701052428104
 10
728.0607764647712
 20
133.4927002428105
 10
727.710336464771
 20
132.7109052428107
 10
727.2274114647712
 20
131.9245352428104
 10
725.3342314647712
 20
129.5359902428106
 10
723.5105464647713
 20
127.0992252428107
 10
723.0816764647711
 20
126.2753452428103
 10
722.8007314647712
 20
125.4453302428103
 10
722.7027714647711
 20
124.6089852428106
 10
722.7835064647711
 20
123.8887602428106
 10
723.002531464771
 20
123.1674952428104
 10
723.3384614647712
 20
122.4489252428104
 10
723.769921464771
 20
121.7367902428107
 10
724.2755314647711
 20
121.0348252428105
 10
724.8339114647711
 20
120.3467652428105
 10
725.512681464771
 20
119.5754302428106
 10
726.1922114647714
 20
118.8238402428103
 10
726.8316864647713
 20
118.0883702428102
 10
727.3903014647713
 20
117.3653952428106
 10
727.8272264647712
 20
116.6512902428105
 10
728.1016564647712
 20
115.9424302428104
 10
728.1799764647712
 20
115.1485752428105
 10
728.0309914647714
 20
114.3558252428104
 10
727.6839614647711
 20
113.5632452428106
 10
725.7472664647712
 20
111.1771352428107
 10
723.0817214647714
 20
108.7587752428105
 10
720.4774664647712
 20
106.2828452428105
 10
719.7595714647714
 20
105.4403702428106
 10
719.1655464647711
 20
104.5877452428106
 10
718.7246564647712
 20
103.7240302428102
 10
718.3930714647713
 20
102.4319852428105
 10
718.412526464771
 20
101.1168002428105
 10
718.739136464771
 20
99.78137024281045
 10
721.1231114647712
 20
95.6825202428106
 10
722.2395514647715
 20
94.2950252428102
 10
723.4437514647711
 20
92.90174524281042
 10
724.691831464771
 20
91.50557524281044
  0
LINE
  5
FC
330
19
100
AcDbEntity
  8
4
100
AcDbLine
 10
736.2280414647712
 20
141.2307502428105
 30
0.0
 11
736.2280414647712
 21
91.23075024281047
 31
0.0
  0
LINE
  5
FD
330
19
100
AcDbEntity
  8
4
100
AcDbLine
 10
760.2280414647712
 20
141.2307502428105
 30
0.0
 11
760.2280414647712
 21
91.23075024281047
 31
0.0
  0
LINE
  5
FE
330
19
100
AcDbEntity
  8
4
100
AcDbLine
 10
683.2280414647712
 20
91.23075024281047
 30
0.0
 11
683.2280414647712
 21
171.2307502428105
 31
0.0
  0
ARC
  5
100
330
19
100
AcDbEntity
  8
4
100
AcDbCircle
 10
513.227796464771
 20
1018.23075024281
 30
0.0
 40
900.0000699999999
100
AcDbArc
 50
282.9810610000005
 51
284.2586510000015
  0
LINE
  5
101
330
19
100
AcDbEntity
  8
4
100
AcDbLine
 10
686.2280414647712
 20
141.2307502428105
 30
0.0
 11
785.2280414647712
 21
141.2307502428105
 31
0.0
  0
LINE
  5
102
330
19
100
AcDbEntity
  8
4
100
AcDbLine
 10
695.2280414647712
 20
144.2307502428105
 30
0.0
 11
695.2280414647712
 21
171.2307502428105
 31
0.0
  0
ARC
  5
103
330
19
100
AcDbEntity
  8
4
100
AcDbCircle
 10
698.2280414647712
 20
144.2307502428105
 30
0.0
 40
3.0
100
AcDbArc
 50
180.0
 51
270.0
  0
ARC
  5
104
330
19
100
AcDbEntity
  8
4
100
AcDbCircle
 10
686.2280414647712
 20
138.2307502428105
 30
0.0
 40
3.0
100
AcDbArc
 50
90.0
 51
180.0
  0
LINE
  5
105
330
19
100
AcDbEntity
  8
4
100
AcDbLine
 10
695.2280414647712
 20
171.2307502428105
 30
0.0
 11
683.2280414647712
 21
171.2307502428105
 31
0.0
  0
ARC
  5
106
330
19
100
AcDbEntity
  8
4
100
AcDbCircle
 10
733.6584614647713
 20
150.8003302428103
 30
0.0
 40
4.999965
100
AcDbArc
 50
284.2581329999982
 51
345.7418809999897
  0
ARC
  5
107
330
19
100
AcDbEntity
  8
4
100
AcDbCircle
 10
771.2280414647712
 20
151.2307502428105
 30
0.0
 40
10.0
100
AcDbArc
 50
180.0
 51
270.0014040000001
  0
LINE
  5
10A
330
19
100
AcDbEntity
  8
4
100
AcDbLine
 10
788.2280414647712
 20
91.23075024281047
 30
0.0
 11
788.2280414647712
 21
138.2307502428105
 31
0.0
  0
LINE
  5
110
330
19
100
AcDbEntity
  8
4
100
AcDbLine
 10
260.2280414647712
 20
726.2307502428105
 30
0.0
 11
243.4281414647712
 21
726.2307502428105
 31
0.0
  0
LINE
  5
111
330
19
100
AcDbEntity
  8
L-CENTER
 48
2.0
100
AcDbLine
 10
225.4173572694899
 20
683.1025752428106
 30
0.0
 11
285.3514407405428
 21
683.1025752428106
 31
0.0
  0
LINE
  5
112
330
19
100
AcDbEntity
  8
4
100
AcDbLine
 10
243.4281414647712
 20
516.2307502428105
 30
0.0
 11
260.2280414647712
 21
516.2307502428105
 31
0.0
  0
LINE
  5
113
330
19
100
AcDbEntity
  8
L-CENTER
 48
2.0
100
AcDbLine
 10
242.0472914647712
 20
331.2307502428105
 30
0.0
 11
286.5572485130369
 21
331.2307502428105
 31
0.0
  0
LINE
  5
116
330
19
100
AcDbEntity
  8
L-CENTER
 48
2.0
100
AcDbLine
 10
926.4191912683432
 20
621.2307502428105
 30
0.0
 11
234.7370981045918
 21
621.2307502428105
 31
0.0
  0
LINE
  5
11F
330
19
100
AcDbEntity
  8
4
100
AcDbLine
 10
243.4281414647712
 20
726.2307502428105
 30
0.0
 11
243.4281414647712
 21
516.2307502428105
 31
0.0
  0
LINE
  5
122
330
19
100
AcDbEntity
  8
4
100
AcDbLine
 10
243.4281414647712
 20
547.3589252428103
 30
0.0
 11
243.4281414647712
 21
571.3589252428103
 31
0.0
  0
LINE
  5
123
330
19
100
AcDbEntity
  8
4
100
AcDbLine
 10
240.4281414647712
 20
571.3589252428103
 30
0.0
 11
240.4281414647712
 21
547.3589252428103
 31
0.0
  0
ARC
  5
124
330
19
100
AcDbEntity
  8
4
100
AcDbCircle
 10
236.0118814647712
 20
568.3589252428103
 30
0.0
 40
4.58369
100
AcDbArc
 50
139.1186700000087
 51
220.8813299999913
  0
LINE
  5
125
330
19
100
AcDbEntity
  8
4
100
AcDbLine
 10
231.4281414647712
 20
568.3589252428103
 30
0.0
 11
231.4281414647712
 21
550.3589252428103
 31
0.0
  0
LINE
  5
126
330
19
100
AcDbEntity
  8
4
100
AcDbLine
 10
243.4281414647712
 20
547.3589252428103
 30
0.0
 11
240.4281414647712
 21
547.3589252428103
 31
0.0
  0
ARC
  5
127
330
19
100
AcDbEntity
  8
4
100
AcDbCircle
 10
249.4281414647712
 20
559.3589252428103
 30
0.0
 40
18.00009
100
AcDbArc
 50
160.528928000001
 51
199.4703399999861
  0
ARC
  5
128
330
19
100
AcDbEntity
  8
4
100
AcDbCircle
 10
236.0118814647712
 20
550.3589252428103
 30
0.0
 40
4.58369
100
AcDbArc
 50
139.1186700000087
 51
220.8813299999913
  0
LINE
  5
129
330
19
100
AcDbEntity
  8
4
100
AcDbLine
 10
240.4281414647712
 20
565.3589252428103
 30
0.0
 11
232.4576814647712
 21
565.3589252428103
 31
0.0
  0
LINE
  5
12A
330
19
100
AcDbEntity
  8
4
100
AcDbLine
 10
240.4281414647712
 20
553.3589252428103
 30
0.0
 11
232.4576814647712
 21
553.3589252428103
 31
0.0
  0
LINE
  5
12B
330
19
100
AcDbEntity
  8
4
100
AcDbLine
 10
232.4576814647712
 20
547.3589252428103
 30
0.0
 11
240.4281414647712
 21
547.3589252428103
 31
0.0
  0
LINE
  5
12D
330
19
100
AcDbEntity
  8
4
100
AcDbLine
 10
243.4281414647712
 20
571.3589252428103
 30
0.0
 11
240.4281414647712
 21
571.3589252428103
 31
0.0
  0
LINE
  5
12F
330
19
100
AcDbEntity
  8
4
100
AcDbLine
 10
232.4576814647712
 20
571.3589252428103
 30
0.0
 11
240.4281414647712
 21
571.3589252428103
 31
0.0
  0
ARC
  5
134
330
19
100
AcDbEntity
  8
4
100
AcDbCircle
 10
236.0118814647712
 20
674.1025752428106
 30
0.0
 40
4.583600000000001
100
AcDbArc
 50
139.1186700000098
 51
220.8833260000132
  0
LINE
  5
135
330
19
100
AcDbEntity
  8
4
100
AcDbLine
 10
240.4281414647712
 20
671.1025752428106
 30
0.0
 11
240.4281414647712
 21
695.1025752428106
 31
0.0
  0
LINE
  5
136
330
19
100
AcDbEntity
  8
4
100
AcDbLine
 10
243.4281414647712
 20
695.1025752428106
 30
0.0
 11
243.4281414647712
 21
671.1025752428106
 31
0.0
  0
LINE
  5
138
330
19
100
AcDbEntity
  8
4
100
AcDbLine
 10
243.4281414647712
 20
671.1025752428106
 30
0.0
 11
240.4281414647712
 21
671.1025752428106
 31
0.0
  0
LINE
  5
13B
330
19
100
AcDbEntity
  8
4
100
AcDbLine
 10
232.4576814647712
 20
671.1025752428106
 30
0.0
 11
240.4281414647712
 21
671.1025752428106
 31
0.0
  0
LINE
  5
13C
330
19
100
AcDbEntity
  8
4
100
AcDbLine
 10
243.4281414647712
 20
695.1025752428106
 30
0.0
 11
240.4281414647712
 21
695.1025752428106
 31
0.0
  0
LINE
  5
13D
330
19
100
AcDbEntity
  8
4
100
AcDbLine
 10
231.4281414647712
 20
674.1025752428106
 30
0.0
 11
231.4281414647712
 21
692.1025752428106
 31
0.0
  0
ARC
  5
13E
330
19
100
AcDbEntity
  8
4
100
AcDbCircle
 10
249.4281414647712
 20
683.1025752428106
 30
0.0
 40
17.999975
100
AcDbArc
 50
160.5296600000135
 51
199.4713310000033
  0
ARC
  5
13F
330
19
100
AcDbEntity
  8
4
100
AcDbCircle
 10
236.0118814647712
 20
692.1025752428106
 30
0.0
 40
4.583600000000001
100
AcDbArc
 50
139.1186700000098
 51
220.8833260000132
  0
LINE
  5
140
330
19
100
AcDbEntity
  8
4
100
AcDbLine
 10
232.4576814647712
 20
695.1025752428106
 30
0.0
 11
240.4281414647712
 21
695.1025752428106
 31
0.0
  0
LINE
  5
141
330
19
100
AcDbEntity
  8
4
100
AcDbLine
 10
240.4281414647712
 20
689.1025752428106
 30
0.0
 11
232.4576814647712
 21
689.1025752428106
 31
0.0
  0
LINE
  5
142
330
19
100
AcDbEntity
  8
4
100
AcDbLine
 10
240.4281414647712
 20
677.1025752428106
 30
0.0
 11
232.4576814647712
 21
677.1025752428106
 31
0.0
  0
LINE
  5
14D
330
19
100
AcDbEntity
  8
L-CENTER
 48
2.0
100
AcDbLine
 10
752.2280414647712
 20
756.9211515076051
 30
0.0
 11
752.2280414647712
 21
703.611826507605
 31
0.0
  0
LINE
  5
14E
330
19
100
AcDbEntity
  8
4
100
AcDbLine
 10
742.2280414647712
 20
737.2307502428105
 30
0.0
 11
742.2280414647712
 21
747.2307502428105
 31
0.0
  0
LINE
  5
14F
330
19
100
AcDbEntity
  8
4
100
AcDbLine
 10
762.2280414647712
 20
737.2307502428105
 30
0.0
 11
762.2280414647712
 21
747.2307502428105
 31
0.0
  0
LINE
  5
150
330
19
100
AcDbEntity
  8
4
100
AcDbLine
 10
528.0390764647709
 20
743.2153702428106
 30
0.0
 11
530.7280414647712
 21
731.2307502428105
 31
0.0
  0
LINE
  5
151
330
19
100
AcDbEntity
  8
4
100
AcDbLine
 10
498.4170064647715
 20
743.2153702428106
 30
0.0
 11
495.7280414647712
 21
731.2307502428105
 31
0.0
  0
ARC
  5
152
330
19
100
AcDbEntity
  8
4
100
AcDbCircle
 10
513.2280414647712
 20
766.2307502428105
 30
0.0
 40
35.99993499999999
100
AcDbArc
 50
305.3397909999953
 51
234.661611999998
  0
LINE
  5
153
330
19
100
AcDbEntity
  8
L-CENTER
 48
2.0
100
AcDbLine
 10
373.2280414647712
 20
749.1205152428104
 30
0.0
 11
373.2280414647712
 21
707.3731076108199
 31
0.0
  0
LINE
  5
154
330
19
100
AcDbEntity
  8
4
100
AcDbLine
 10
384.7280414647712
 20
737.2307502428105
 30
0.0
 11
384.7280414647712
 21
742.2307502428105
 31
0.0
  0
LINE
  5
155
330
19
100
AcDbEntity
  8
4
100
AcDbLine
 10
396.2280414647712
 20
733.2307502428105
 30
0.0
 11
396.2280414647712
 21
742.2307502428105
 31
0.0
  0
LINE
  5
156
330
19
100
AcDbEntity
  8
4
100
AcDbLine
 10
361.7280414647712
 20
737.2307502428105
 30
0.0
 11
361.7280414647712
 21
742.2307502428105
 31
0.0
  0
LINE
  5
157
330
19
100
AcDbEntity
  8
4
100
AcDbLine
 10
350.2280414647712
 20
733.2307502428105
 30
0.0
 11
350.2280414647712
 21
742.2307502428105
 31
0.0
  0
LINE
  5
158
330
19
100
AcDbEntity
  8
L-CENTER
 48
2.0
100
AcDbLine
 10
274.2280414647712
 20
756.9211515076051
 30
0.0
 11
274.2280414647712
 21
703.611826507605
 31
0.0
  0
LINE
  5
159
330
19
100
AcDbEntity
  8
4
100
AcDbLine
 10
264.2280414647712
 20
737.2307502428105
 30
0.0
 11
264.2280414647712
 21
747.2307502428105
 31
0.0
  0
LINE
  5
15A
330
19
100
AcDbEntity
  8
4
100
AcDbLine
 10
284.2280414647712
 20
737.2307502428105
 30
0.0
 11
284.2280414647712
 21
747.2307502428105
 31
0.0
  0
LINE
  5
15B
330
19
100
AcDbEntity
  8
4
100
AcDbLine
 10
593.8071414647711
 20
428.3376852428103
 30
0.0
 11
724.9907364647711
 21
414.1726452428104
 31
0.0
  0
LINE
  5
15C
330
19
100
AcDbEntity
  8
4
100
AcDbLine
 10
593.8071414647711
 20
314.1238152428107
 30
0.0
 11
724.9907364647711
 21
328.2888552428105
 31
0.0
  0
ARC
  5
15D
330
19
100
AcDbEntity
  8
4
100
AcDbCircle
 10
513.2282864647714
 20
-275.7692497571895
 30
0.0
 40
900.00001
100
AcDbArc
 50
75.74190899999856
 51
104.2581399999966
  0
LINE
  5
15E
330
19
100
AcDbEntity
  8
4
100
AcDbLine
 10
265.2280414647712
 20
728.2307502428105
 30
0.0
 11
761.2280414647712
 21
728.2307502428105
 31
0.0
  0
LINE
  5
15F
330
19
100
AcDbEntity
  8
L-CENTER
 48
2.0
100
AcDbLine
 10
246.8804825745237
 20
371.2307502428105
 30
0.0
 11
779.5756003550187
 21
371.2307502428105
 31
0.0
  0
LINE
  5
160
330
19
100
AcDbEntity
  8
4
100
AcDbLine
 10
470.2859530650671
 20
582.9934377830828
 30
0.0
 11
456.1211064647714
 21
451.8096052428102
 31
0.0
  0
ARC
  5
161
330
19
100
AcDbEntity
  8
4
100
AcDbCircle
 10
513.2280414647712
 20
148.7307502428105
 30
0.0
 40
299.99994
100
AcDbArc
 50
77.23053799999929
 51
102.7695530000017
  0
ARC
  5
162
330
19
100
AcDbEntity
  8
4
100
AcDbCircle
 10
513.2280414647712
 20
153.7307502428105
 30
0.0
 40
300.00009
100
AcDbArc
 50
76.42224300000157
 51
103.5778019999991
  0
ARC
  5
163
330
19
100
AcDbEntity
  8
4
100
AcDbCircle
 10
513.2280414647712
 20
593.7307502428105
 30
0.0
 40
300.00002
100
AcDbArc
 50
257.2307859999991
 51
282.7699380000017
  0
ARC
  5
164
330
19
100
AcDbEntity
  8
4
100
AcDbCircle
 10
513.2280414647712
 20
588.7307502428105
 30
0.0
 40
299.99997
100
AcDbArc
 50
256.4225260000024
 51
283.5780960000024
  0
ARC
  5
165
330
19
100
AcDbEntity
  8
4
100
AcDbCircle
 10
735.727796464771
 20
371.2305052428103
 30
0.0
 40
300.000015
100
AcDbArc
 50
167.2307859999919
 51
192.7695079999879
  0
ARC
  5
166
330
19
100
AcDbEntity
  8
4
100
AcDbCircle
 10
730.727796464771
 20
371.2305052428103
 30
0.0
 40
299.99995
100
AcDbArc
 50
166.4225710000112
 51
193.577712000009
  0
LINE
  5
167
330
19
100
AcDbEntity
  8
4
100
AcDbLine
 10
432.6489414647713
 20
314.1238152428107
 30
0.0
 11
301.4653464647713
 21
328.2888552428105
 31
0.0
  0
LINE
  5
168
330
19
100
AcDbEntity
  8
4
100
AcDbLine
 10
260.228446464771
 20
351.2307502428105
 30
0.0
 11
260.228446464771
 21
311.2307502428105
 31
0.0
  0
LINE
  5
169
330
19
100
AcDbEntity
  8
4
100
AcDbLine
 10
251.728446464771
 20
313.2307502428105
 30
0.0
 11
251.728446464771
 21
349.2307502428105
 31
0.0
  0
LINE
  5
16A
330
19
100
AcDbEntity
  8
4
100
AcDbLine
 10
260.228446464771
 20
314.2307502428105
 30
0.0
 11
260.228446464771
 21
348.2307502428105
 31
0.0
  0
LINE
  5
16B
330
19
100
AcDbEntity
  8
4
100
AcDbLine
 10
258.7284464647714
 20
313.2307502428105
 30
0.0
 11
258.7284464647714
 21
349.2307502428105
 31
0.0
  0
LINE
  5
16C
330
19
100
AcDbEntity
  8
4
100
AcDbLine
 10
256.728446464771
 20
313.2307502428105
 30
0.0
 11
256.728446464771
 21
349.2307502428105
 31
0.0
  0
LINE
  5
16D
330
19
100
AcDbEntity
  8
4
100
AcDbLine
 10
258.7284464647714
 20
314.2307502428105
 30
0.0
 11
260.228446464771
 21
314.2307502428105
 31
0.0
  0
LINE
  5
16E
330
19
100
AcDbEntity
  8
4
100
AcDbLine
 10
260.228446464771
 20
311.2307502428105
 30
0.0
 11
262.2302414647711
 21
311.2307502428105
 31
0.0
  0
LINE
  5
16F
330
19
100
AcDbEntity
  8
4
100
AcDbLine
 10
258.7284464647714
 20
313.2307502428105
 30
0.0
 11
251.728446464771
 21
313.2307502428105
 31
0.0
  0
ARC
  5
170
330
19
100
AcDbEntity
  8
4
100
AcDbCircle
 10
432.1120764647712
 20
309.1528702428106
 30
0.0
 40
5.0
100
AcDbArc
 50
11.74284000000842
 51
83.83621699999982
  0
ARC
  5
171
330
19
100
AcDbEntity
  8
4
100
AcDbCircle
 10
451.1499164647712
 20
290.1150252428104
 30
0.0
 40
5.000025
100
AcDbArc
 50
6.163781999989684
 51
78.25441300000107
  0
ARC
  5
172
330
19
100
AcDbEntity
  8
4
100
AcDbCircle
 10
448.0239414647713
 20
306.0271352428106
 30
0.0
 40
4.999904999999999
100
AcDbArc
 50
192.7706639999981
 51
257.2293359999965
  0
ARC
  5
173
330
19
100
AcDbEntity
  8
4
100
AcDbCircle
 10
443.972181464771
 20
301.9753802428106
 30
0.0
 40
5.00009
100
AcDbArc
 50
193.5775609999982
 51
256.4224410000014
  0
LINE
  5
174
330
19
100
AcDbEntity
  8
4
100
AcDbLine
 10
432.6489414647713
 20
428.3376852428103
 30
0.0
 11
301.4653464647713
 21
414.1726452428104
 31
0.0
  0
ARC
  5
175
330
19
100
AcDbEntity
  8
4
100
AcDbCircle
 10
301.1433264647712
 20
325.3061902428105
 30
0.0
 40
3.00005
100
AcDbArc
 50
83.83797799999884
 51
192.219809999997
  0
LINE
  5
176
330
19
100
AcDbEntity
  8
4
100
AcDbLine
 10
260.4502114647712
 20
351.2307502428105
 30
0.0
 11
260.228446464771
 21
351.2307502428105
 31
0.0
  0
LINE
  5
177
330
19
100
AcDbEntity
  8
4
100
AcDbLine
 10
260.228446464771
 20
348.2307502428105
 30
0.0
 11
258.7284464647714
 21
348.2307502428105
 31
0.0
  0
LINE
  5
178
330
19
100
AcDbEntity
  8
4
100
AcDbLine
 10
258.7284464647714
 20
349.2307502428105
 30
0.0
 11
251.728446464771
 21
349.2307502428105
 31
0.0
  0
LINE
  5
179
330
19
100
AcDbEntity
  8
4
100
AcDbLine
 10
256.728446464771
 20
340.2307502428105
 30
0.0
 11
251.728446464771
 21
340.2307502428105
 31
0.0
  0
LINE
  5
17A
330
19
100
AcDbEntity
  8
4
100
AcDbLine
 10
256.728446464771
 20
322.2307502428105
 30
0.0
 11
251.728446464771
 21
322.2307502428105
 31
0.0
  0
ARC
  5
17B
330
19
100
AcDbEntity
  8
4
100
AcDbCircle
 10
301.1433264647712
 20
417.1553102428104
 30
0.0
 40
3.00005
100
AcDbArc
 50
167.7801900000051
 51
276.1620220000013
  0
ARC
  5
17C
330
19
100
AcDbEntity
  8
4
100
AcDbCircle
 10
432.1120764647712
 20
433.3086302428103
 30
0.0
 40
5.0
100
AcDbArc
 50
276.1637819999996
 51
348.2571599999916
  0
ARC
  5
17D
330
19
100
AcDbEntity
  8
4
100
AcDbCircle
 10
451.1499164647712
 20
452.3464702428103
 30
0.0
 40
5.000025
100
AcDbArc
 50
281.745588999998
 51
353.8362180000103
  0
ARC
  5
17E
330
19
100
AcDbEntity
  8
4
100
AcDbCircle
 10
443.9724264647712
 20
440.4861202428103
 30
0.0
 40
5.00009
100
AcDbArc
 50
103.5775610000008
 51
166.4224390000005
  0
ARC
  5
17F
330
19
100
AcDbEntity
  8
4
100
AcDbCircle
 10
448.0239414647713
 20
436.4346052428102
 30
0.0
 40
5.00009
100
AcDbArc
 50
102.7673189999987
 51
167.2326809999896
  0
ARC
  5
180
330
19
100
AcDbEntity
  8
4
100
AcDbCircle
 10
290.7282864647714
 20
371.2305052428103
 30
0.0
 40
299.999975
100
AcDbArc
 50
347.2311140000005
 51
12.7695530000065
  0
ARC
  5
181
330
19
100
AcDbEntity
  8
4
100
AcDbCircle
 10
295.7282864647714
 20
371.2305052428103
 30
0.0
 40
300.000075
100
AcDbArc
 50
346.4230119999949
 51
13.57775700000587
  0
ARC
  5
183
330
19
100
AcDbEntity
  8
4
100
AcDbCircle
 10
594.3440064647712
 20
309.1528702428106
 30
0.0
 40
5.0
100
AcDbArc
 50
96.16378300000021
 51
168.2571599999916
  0
ARC
  5
184
330
19
100
AcDbEntity
  8
4
100
AcDbCircle
 10
578.4321414647711
 20
306.0271352428106
 30
0.0
 40
4.999904999999999
100
AcDbArc
 50
282.7706640000035
 51
347.2293360000019
  0
ARC
  5
185
330
19
100
AcDbEntity
  8
4
100
AcDbCircle
 10
575.3061664647712
 20
290.1150252428104
 30
0.0
 40
5.000025
100
AcDbArc
 50
101.7455749999984
 51
173.8362169999922
  0
ARC
  5
186
330
19
100
AcDbEntity
  8
4
100
AcDbCircle
 10
582.4839014647714
 20
301.9753802428106
 30
0.0
 40
5.00009
100
AcDbArc
 50
283.5775589999973
 51
346.4224390000018
  0
ARC
  5
18C
330
19
100
AcDbEntity
  8
4
100
AcDbCircle
 10
594.3440064647712
 20
433.3086302428103
 30
0.0
 40
5.0
100
AcDbArc
 50
191.7428400000084
 51
263.8362180000004
  0
ARC
  5
18D
330
19
100
AcDbEntity
  8
4
100
AcDbCircle
 10
578.4321414647711
 20
436.4346052428102
 30
0.0
 40
5.00009
100
AcDbArc
 50
12.76731900001039
 51
77.23268100000132
  0
ARC
  5
18E
330
19
100
AcDbEntity
  8
4
100
AcDbCircle
 10
582.4836564647712
 20
440.4861202428103
 30
0.0
 40
5.00009
100
AcDbArc
 50
13.57756099999947
 51
76.42243899999924
  0
ARC
  5
18F
330
19
100
AcDbEntity
  8
4
100
AcDbCircle
 10
260.2280414647712
 20
601.2307502428105
 30
0.0
 40
5.0
100
AcDbArc
 50
0.0
 51
90.0
  0
LINE
  5
190
330
19
100
AcDbEntity
  8
4
100
AcDbLine
 10
260.2280414647712
 20
516.2307502428105
 30
0.0
 11
260.2280414647712
 21
726.2307502428105
 31
0.0
  0
LINE
  5
191
330
19
100
AcDbEntity
  8
4
100
AcDbLine
 10
265.2280414647712
 20
465.9673202428105
 30
0.0
 11
265.2280414647712
 21
601.2307502428105
 31
0.0
  0
ARC
  5
192
330
19
100
AcDbEntity
  8
4
100
AcDbCircle
 10
263.2280414647712
 20
514.2307502428105
 30
0.0
 40
2.0
100
AcDbArc
 50
0.0
 51
90.0
  0
LINE
  5
193
330
19
100
AcDbEntity
  8
4
100
AcDbLine
 10
263.2280414647712
 20
516.2307502428105
 30
0.0
 11
260.2280414647712
 21
516.2307502428105
 31
0.0
  0
ARC
  5
194
330
19
100
AcDbEntity
  8
4
100
AcDbCircle
 10
292.7976214647711
 20
591.6611702428106
 30
0.0
 40
4.999965
100
AcDbArc
 50
104.2581329999973
 51
165.7418809999897
  0
LINE
  5
195
330
19
100
AcDbEntity
  8
4
100
AcDbLine
 10
348.2280414647712
 20
731.2307502428105
 30
0.0
 11
398.2280414647712
 21
731.2307502428105
 31
0.0
  0
LINE
  5
196
330
19
100
AcDbEntity
  8
4
100
AcDbLine
 10
350.2280414647712
 20
737.2307502428105
 30
0.0
 11
396.2280414647712
 21
737.2307502428105
 31
0.0
  0
LINE
  5
197
330
19
100
AcDbEntity
  8
4
100
AcDbLine
 10
350.2280414647712
 20
733.2307502428105
 30
0.0
 11
396.2280414647712
 21
733.2307502428105
 31
0.0
  0
LINE
  5
198
330
19
100
AcDbEntity
  8
4
100
AcDbLine
 10
351.2280414647712
 20
731.2307502428105
 30
0.0
 11
395.2280414647712
 21
731.2307502428105
 31
0.0
  0
LINE
  5
199
330
19
100
AcDbEntity
  8
4
100
AcDbLine
 10
265.2280414647712
 20
641.2307502428105
 30
0.0
 11
265.2280414647712
 21
728.2307502428105
 31
0.0
  0
ARC
  5
19A
330
19
100
AcDbEntity
  8
4
100
AcDbCircle
 10
260.2280414647712
 20
641.2307502428105
 30
0.0
 40
5.0
100
AcDbArc
 50
270.0
 51
0.0
  0
ARC
  5
19B
330
19
100
AcDbEntity
  8
4
100
AcDbCircle
 10
271.2280414647712
 20
728.2307502428105
 30
0.0
 40
5.0
100
AcDbArc
 50
53.13010199999781
 51
126.8698980000022
  0
LINE
  5
19C
330
19
100
AcDbEntity
  8
4
100
AcDbLine
 10
268.2280414647712
 20
728.2307502428105
 30
0.0
 11
274.2280414647712
 21
728.2307502428105
 31
0.0
  0
LINE
  5
19D
330
19
100
AcDbEntity
  8
4
100
AcDbLine
 10
264.2280414647712
 20
737.2307502428105
 30
0.0
 11
274.2280414647712
 21
737.2307502428105
 31
0.0
  0
LINE
  5
19E
330
19
100
AcDbEntity
  8
4
100
AcDbLine
 10
268.2280414647712
 20
728.2307502428105
 30
0.0
 11
268.2280414647712
 21
733.2307502428105
 31
0.0
  0
LINE
  5
19F
330
19
100
AcDbEntity
  8
4
100
AcDbLine
 10
260.2280414647712
 20
726.2307502428105
 30
0.0
 11
265.2280414647712
 21
726.2307502428105
 31
0.0
  0
ARC
  5
1A0
330
19
100
AcDbEntity
  8
4
100
AcDbCircle
 10
264.2280414647712
 20
733.2307502428105
 30
0.0
 40
4.0
100
AcDbArc
 50
0.0
 51
90.0
  0
LINE
  5
1A1
330
19
100
AcDbEntity
  8
4
100
AcDbLine
 10
280.2280414647712
 20
728.2307502428105
 30
0.0
 11
274.2280414647712
 21
728.2307502428105
 31
0.0
  0
LINE
  5
1A2
330
19
100
AcDbEntity
  8
4
100
AcDbLine
 10
280.2280414647712
 20
728.2307502428105
 30
0.0
 11
280.2280414647712
 21
733.2307502428105
 31
0.0
  0
ARC
  5
1A3
330
19
100
AcDbEntity
  8
4
100
AcDbCircle
 10
277.2280414647712
 20
728.2307502428105
 30
0.0
 40
5.0
100
AcDbArc
 50
53.13010199999781
 51
126.8698980000022
  0
LINE
  5
1A4
330
19
100
AcDbEntity
  8
4
100
AcDbLine
 10
284.2280414647712
 20
737.2307502428105
 30
0.0
 11
274.2280414647712
 21
737.2307502428105
 31
0.0
  0
ARC
  5
1A5
330
19
100
AcDbEntity
  8
4
100
AcDbCircle
 10
284.2280414647712
 20
733.2307502428105
 30
0.0
 40
4.0
100
AcDbArc
 50
90.0
 51
180.0
  0
LINE
  5
1A6
330
19
100
AcDbEntity
  8
4
100
AcDbLine
 10
277.2280414647712
 20
733.2307502428105
 30
0.0
 11
271.2280414647712
 21
733.2307502428105
 31
0.0
  0
LINE
  5
1A7
330
19
100
AcDbEntity
  8
4
100
AcDbLine
 10
348.2280414647712
 20
728.2307502428105
 30
0.0
 11
348.2280414647712
 21
731.2307502428105
 31
0.0
  0
LINE
  5
1A8
330
19
100
AcDbEntity
  8
4
100
AcDbLine
 10
351.2280414647712
 20
733.2307502428105
 30
0.0
 11
351.2280414647712
 21
731.2307502428105
 31
0.0
  0
LINE
  5
1A9
330
19
100
AcDbEntity
  8
4
100
AcDbLine
 10
398.2280414647712
 20
728.2307502428105
 30
0.0
 11
398.2280414647712
 21
731.2307502428105
 31
0.0
  0
LINE
  5
1AA
330
19
100
AcDbEntity
  8
4
100
AcDbLine
 10
395.2280414647712
 20
733.2307502428105
 30
0.0
 11
395.2280414647712
 21
731.2307502428105
 31
0.0
  0
ARC
  5
1AB
330
19
100
AcDbEntity
  8
4
100
AcDbCircle
 10
467.3032364647711
 20
583.3154652428104
 30
0.0
 40
3.00005
100
AcDbArc
 50
353.8379589999892
 51
102.2198140000009
  0
LINE
  5
1AC
330
19
100
AcDbEntity
  8
4
100
AcDbLine
 10
493.2280414647712
 20
731.2307502428105
 30
0.0
 11
533.2280414647712
 21
731.2307502428105
 31
0.0
  0
LINE
  5
1AD
330
19
100
AcDbEntity
  8
4
100
AcDbLine
 10
493.2280414647712
 20
728.2307502428105
 30
0.0
 11
493.2280414647712
 21
731.2307502428105
 31
0.0
  0
ARC
  5
1AE
330
19
100
AcDbEntity
  8
4
100
AcDbCircle
 10
487.778091464771
 20
730.3379302428104
 30
0.0
 40
7.999904999999999
100
AcDbArc
 50
6.407772999997083
 51
54.66131099999542
  0
LINE
  5
1AF
330
19
100
AcDbEntity
  8
4
100
AcDbLine
 10
533.2280414647712
 20
728.2307502428105
 30
0.0
 11
533.2280414647712
 21
731.2307502428105
 31
0.0
  0
ARC
  5
1B0
330
19
100
AcDbEntity
  8
4
100
AcDbCircle
 10
538.6779914647714
 20
730.3379302428104
 30
0.0
 40
7.999975
100
AcDbArc
 50
125.3401140000078
 51
173.5922279999914
  0
ARC
  5
1B2
330
19
100
AcDbEntity
  8
4
100
AcDbCircle
 10
725.3127564647712
 20
325.3061902428105
 30
0.0
 40
3.00005
100
AcDbArc
 50
347.780190000003
 51
96.16202200000008
  0
ARC
  5
1B3
330
19
100
AcDbEntity
  8
4
100
AcDbCircle
 10
725.3127564647712
 20
417.1553102428104
 30
0.0
 40
3.00005
100
AcDbArc
 50
263.8379779999997
 51
12.21980999999492
  0
LINE
  5
1B4
330
19
100
AcDbEntity
  8
4
100
AcDbLine
 10
798.2280414647712
 20
650.2307502428105
 30
0.0
 11
916.2280414647712
 21
650.2307502428105
 31
0.0
  0
LINE
  5
1B5
330
19
100
AcDbEntity
  8
4
100
AcDbLine
 10
918.2280414647712
 20
655.2307502428105
 30
0.0
 11
808.2280414647712
 21
655.2307502428105
 31
0.0
  0
LINE
  5
1B6
330
19
100
AcDbEntity
  8
4
100
AcDbLine
 10
798.2280414647712
 20
592.2307502428105
 30
0.0
 11
916.2280414647712
 21
592.2307502428105
 31
0.0
  0
ARC
  5
1B7
330
19
100
AcDbEntity
  8
4
100
AcDbCircle
 10
766.2280414647712
 20
601.2307502428105
 30
0.0
 40
5.0
100
AcDbArc
 50
90.0
 51
180.0
  0
LINE
  5
1B8
330
19
100
AcDbEntity
  8
4
100
AcDbLine
 10
798.2280414647712
 20
653.7307502428105
 30
0.0
 11
798.2280414647712
 21
588.7307502428105
 31
0.0
  0
LINE
  5
1B9
330
19
100
AcDbEntity
  8
4
100
AcDbLine
 10
784.027946464771
 20
666.2307502428105
 30
0.0
 11
784.027946464771
 21
576.2307502428105
 31
0.0
  0
LINE
  5
1BA
330
19
100
AcDbEntity
  8
4
100
AcDbLine
 10
766.2280414647712
 20
516.2307502428105
 30
0.0
 11
766.2280414647712
 21
726.2307502428105
 31
0.0
  0
LINE
  5
1BB
330
19
100
AcDbEntity
  8
4
100
AcDbLine
 10
783.027946464771
 20
726.2307502428105
 30
0.0
 11
783.027946464771
 21
516.2307502428105
 31
0.0
  0
LINE
  5
1BC
330
19
100
AcDbEntity
  8
4
100
AcDbLine
 10
793.9984014647712
 20
571.3589252428103
 30
0.0
 11
786.027946464771
 21
571.3589252428103
 31
0.0
  0
LINE
  5
1BD
330
19
100
AcDbEntity
  8
4
100
AcDbLine
 10
784.027946464771
 20
588.7307502428105
 30
0.0
 11
798.2280414647712
 21
588.7307502428105
 31
0.0
  0
LINE
  5
1BE
330
19
100
AcDbEntity
  8
4
100
AcDbLine
 10
786.027946464771
 20
565.3589252428103
 30
0.0
 11
793.9984014647712
 21
565.3589252428103
 31
0.0
  0
LINE
  5
1BF
330
19
100
AcDbEntity
  8
4
100
AcDbLine
 10
786.027946464771
 20
553.3589252428103
 30
0.0
 11
793.9984014647712
 21
553.3589252428103
 31
0.0
  0
LINE
  5
1C0
330
19
100
AcDbEntity
  8
4
100
AcDbLine
 10
793.9984014647712
 20
547.3589252428103
 30
0.0
 11
786.027946464771
 21
547.3589252428103
 31
0.0
  0
LINE
  5
1C1
330
19
100
AcDbEntity
  8
4
100
AcDbLine
 10
761.2280414647712
 20
465.9673202428105
 30
0.0
 11
761.2280414647712
 21
601.2307502428105
 31
0.0
  0
LINE
  5
1C2
330
19
100
AcDbEntity
  8
4
100
AcDbLine
 10
763.2280414647712
 20
516.2307502428105
 30
0.0
 11
766.2280414647712
 21
516.2307502428105
 31
0.0
  0
ARC
  5
1C3
330
19
100
AcDbEntity
  8
4
100
AcDbCircle
 10
763.2280414647712
 20
514.2307502428105
 30
0.0
 40
2.0
100
AcDbArc
 50
90.0
 51
180.0
  0
LINE
  5
1C4
330
19
100
AcDbEntity
  8
4
100
AcDbLine
 10
783.027946464771
 20
516.2307502428105
 30
0.0
 11
766.2280414647712
 21
516.2307502428105
 31
0.0
  0
LINE
  5
1C5
330
19
100
AcDbEntity
  8
4
100
AcDbLine
 10
786.027946464771
 20
547.3589252428103
 30
0.0
 11
786.027946464771
 21
571.3589252428103
 31
0.0
  0
LINE
  5
1C6
330
19
100
AcDbEntity
  8
4
100
AcDbLine
 10
783.027946464771
 20
571.3589252428103
 30
0.0
 11
783.027946464771
 21
547.3589252428103
 31
0.0
  0
LINE
  5
1C7
330
19
100
AcDbEntity
  8
4
100
AcDbLine
 10
783.027946464771
 20
547.3589252428103
 30
0.0
 11
786.027946464771
 21
547.3589252428103
 31
0.0
  0
ARC
  5
1C8
330
19
100
AcDbEntity
  8
4
100
AcDbCircle
 10
733.6584614647713
 20
591.6611702428106
 30
0.0
 40
4.999965
100
AcDbArc
 50
14.25811900001033
 51
75.74186700000212
  0
LINE
  5
1C9
330
19
100
AcDbEntity
  8
4
100
AcDbLine
 10
783.027946464771
 20
571.3589252428103
 30
0.0
 11
786.027946464771
 21
571.3589252428103
 31
0.0
  0
LINE
  5
1CA
330
19
100
AcDbEntity
  8
4
100
AcDbLine
 10
783.027946464771
 20
576.2307502428105
 30
0.0
 11
784.027946464771
 21
576.2307502428105
 31
0.0
  0
ARC
  5
1CB
330
19
100
AcDbEntity
  8
4
100
AcDbCircle
 10
790.444206464771
 20
568.3589252428103
 30
0.0
 40
4.58369
100
AcDbArc
 50
319.1186700000086
 51
40.88132999999132
  0
LINE
  5
1CC
330
19
100
AcDbEntity
  8
4
100
AcDbLine
 10
795.027946464771
 20
550.3589252428103
 30
0.0
 11
795.027946464771
 21
568.3589252428103
 31
0.0
  0
ARC
  5
1CD
330
19
100
AcDbEntity
  8
4
100
AcDbCircle
 10
777.027946464771
 20
559.3589252428103
 30
0.0
 40
18.00009
100
AcDbArc
 50
340.528928000001
 51
19.47033699999144
  0
ARC
  5
1CE
330
19
100
AcDbEntity
  8
4
100
AcDbCircle
 10
790.444206464771
 20
550.3589252428103
 30
0.0
 40
4.58369
100
AcDbArc
 50
319.1186700000086
 51
40.88132999999132
  0
LINE
  5
1CF
330
19
100
AcDbEntity
  8
4
100
AcDbLine
 10
793.9984014647712
 20
695.1025752428106
 30
0.0
 11
786.027946464771
 21
695.1025752428106
 31
0.0
  0
LINE
  5
1D0
330
19
100
AcDbEntity
  8
4
100
AcDbLine
 10
786.027946464771
 20
689.1025752428106
 30
0.0
 11
793.9984014647712
 21
689.1025752428106
 31
0.0
  0
LINE
  5
1D1
330
19
100
AcDbEntity
  8
4
100
AcDbLine
 10
786.027946464771
 20
677.1025752428106
 30
0.0
 11
793.9984014647712
 21
677.1025752428106
 31
0.0
  0
LINE
  5
1D2
330
19
100
AcDbEntity
  8
4
100
AcDbLine
 10
793.9984014647712
 20
671.1025752428106
 30
0.0
 11
786.027946464771
 21
671.1025752428106
 31
0.0
  0
LINE
  5
1D3
330
19
100
AcDbEntity
  8
4
100
AcDbLine
 10
798.2280414647712
 20
653.7307502428105
 30
0.0
 11
784.027946464771
 21
653.7307502428105
 31
0.0
  0
LINE
  5
1D4
330
19
100
AcDbEntity
  8
4
100
AcDbLine
 10
761.2280414647712
 20
641.2307502428105
 30
0.0
 11
761.2280414647712
 21
728.2307502428105
 31
0.0
  0
LINE
  5
1D5
330
19
100
AcDbEntity
  8
4
100
AcDbLine
 10
783.027946464771
 20
671.1025752428106
 30
0.0
 11
783.027946464771
 21
695.1025752428106
 31
0.0
  0
LINE
  5
1D6
330
19
100
AcDbEntity
  8
4
100
AcDbLine
 10
786.027946464771
 20
695.1025752428106
 30
0.0
 11
786.027946464771
 21
671.1025752428106
 31
0.0
  0
ARC
  5
1D7
330
19
100
AcDbEntity
  8
4
100
AcDbCircle
 10
766.2280414647712
 20
641.2307502428105
 30
0.0
 40
5.0
100
AcDbArc
 50
180.0
 51
270.0
  0
LINE
  5
1D8
330
19
100
AcDbEntity
  8
4
100
AcDbLine
 10
783.027946464771
 20
671.1025752428106
 30
0.0
 11
786.027946464771
 21
671.1025752428106
 31
0.0
  0
LINE
  5
1D9
330
19
100
AcDbEntity
  8
4
100
AcDbLine
 10
784.027946464771
 20
666.2307502428105
 30
0.0
 11
783.027946464771
 21
666.2307502428105
 31
0.0
  0
LINE
  5
1DA
330
19
100
AcDbEntity
  8
4
100
AcDbLine
 10
783.027946464771
 20
695.1025752428106
 30
0.0
 11
786.027946464771
 21
695.1025752428106
 31
0.0
  0
LINE
  5
1DB
330
19
100
AcDbEntity
  8
4
100
AcDbLine
 10
762.2280414647712
 20
737.2307502428105
 30
0.0
 11
752.2280414647712
 21
737.2307502428105
 31
0.0
  0
ARC
  5
1DC
330
19
100
AcDbEntity
  8
4
100
AcDbCircle
 10
762.2280414647712
 20
733.2307502428105
 30
0.0
 40
4.0
100
AcDbArc
 50
90.0
 51
180.0
  0
LINE
  5
1DD
330
19
100
AcDbEntity
  8
4
100
AcDbLine
 10
758.2280414647712
 20
728.2307502428105
 30
0.0
 11
758.2280414647712
 21
733.2307502428105
 31
0.0
  0
LINE
  5
1DE
330
19
100
AcDbEntity
  8
4
100
AcDbLine
 10
758.2280414647712
 20
728.2307502428105
 30
0.0
 11
752.2280414647712
 21
728.2307502428105
 31
0.0
  0
ARC
  5
1DF
330
19
100
AcDbEntity
  8
4
100
AcDbCircle
 10
755.2280414647712
 20
728.2307502428105
 30
0.0
 40
5.0
100
AcDbArc
 50
53.13010199999833
 51
126.8698980000017
  0
LINE
  5
1E0
330
19
100
AcDbEntity
  8
4
100
AcDbLine
 10
746.2280414647712
 20
728.2307502428105
 30
0.0
 11
746.2280414647712
 21
733.2307502428105
 31
0.0
  0
ARC
  5
1E1
330
19
100
AcDbEntity
  8
4
100
AcDbCircle
 10
749.2280414647712
 20
728.2307502428105
 30
0.0
 40
5.0
100
AcDbArc
 50
53.13010199999833
 51
126.8698980000017
  0
LINE
  5
1E2
330
19
100
AcDbEntity
  8
4
100
AcDbLine
 10
746.2280414647712
 20
728.2307502428105
 30
0.0
 11
752.2280414647712
 21
728.2307502428105
 31
0.0
  0
LINE
  5
1E3
330
19
100
AcDbEntity
  8
4
100
AcDbLine
 10
749.2280414647712
 20
733.2307502428105
 30
0.0
 11
755.2280414647712
 21
733.2307502428105
 31
0.0
  0
ARC
  5
1E4
330
19
100
AcDbEntity
  8
4
100
AcDbCircle
 10
742.2280414647712
 20
733.2307502428105
 30
0.0
 40
4.0
100
AcDbArc
 50
0.0
 51
90.0
  0
LINE
  5
1E5
330
19
100
AcDbEntity
  8
4
100
AcDbLine
 10
742.2280414647712
 20
737.2307502428105
 30
0.0
 11
752.2280414647712
 21
737.2307502428105
 31
0.0
  0
LINE
  5
1E6
330
19
100
AcDbEntity
  8
4
100
AcDbLine
 10
766.2280414647712
 20
726.2307502428105
 30
0.0
 11
761.2280414647712
 21
726.2307502428105
 31
0.0
  0
LINE
  5
1E7
330
19
100
AcDbEntity
  8
4
100
AcDbLine
 10
766.2280414647712
 20
726.2307502428105
 30
0.0
 11
783.027946464771
 21
726.2307502428105
 31
0.0
  0
ARC
  5
1E8
330
19
100
AcDbEntity
  8
4
100
AcDbCircle
 10
790.444206464771
 20
674.1025752428106
 30
0.0
 40
4.583600000000001
100
AcDbArc
 50
319.1186700000099
 51
40.88332600001323
  0
LINE
  5
1E9
330
19
100
AcDbEntity
  8
4
100
AcDbLine
 10
808.2280414647712
 20
655.2307502428105
 30
0.0
 11
808.2280414647712
 21
650.2307502428105
 31
0.0
  0
ARC
  5
1EA
330
19
100
AcDbEntity
  8
4
100
AcDbCircle
 10
777.027946464771
 20
683.1025752428106
 30
0.0
 40
17.999975
100
AcDbArc
 50
340.5296600000133
 51
19.47133100000335
  0
LINE
  5
1EB
330
19
100
AcDbEntity
  8
4
100
AcDbLine
 10
795.027946464771
 20
692.1025752428106
 30
0.0
 11
795.027946464771
 21
674.1025752428106
 31
0.0
  0
ARC
  5
1EC
330
19
100
AcDbEntity
  8
4
100
AcDbCircle
 10
790.444206464771
 20
692.1025752428106
 30
0.0
 40
4.583600000000001
100
AcDbArc
 50
319.1186700000099
 51
40.88332600001323
  0
LINE
  5
1ED
330
19
100
AcDbEntity
  8
4
100
AcDbLine
 10
918.2280414647712
 20
655.2307502428105
 30
0.0
 11
918.2280414647712
 21
594.2307502428105
 31
0.0
  0
LINE
  5
1EE
330
19
100
AcDbEntity
  8
4
100
AcDbLine
 10
916.2280414647712
 20
650.2307502428105
 30
0.0
 11
916.2280414647712
 21
592.2307502428105
 31
0.0
  0
LINE
  5
1EF
330
19
100
AcDbEntity
  8
4
100
AcDbLine
 10
916.2280414647712
 20
592.2307502428105
 30
0.0
 11
918.2280414647712
 21
594.2307502428105
 31
0.0
  0
LINE
  5
1F1
330
19
100
AcDbEntity
  8
4
100
AcDbLine
 10
918.2280414647712
 20
648.2307502428105
 30
0.0
 11
916.2280414647712
 21
650.2307502428105
 31
0.0
  0
LINE
  5
1F5
330
19
100
AcDbEntity
  8
4
100
AcDbLine
 10
350.2280414647712
 20
742.2307502428105
 30
0.0
 11
396.2280414647712
 21
742.2307502428105
 31
0.0
  0
LINE
  5
1F6
330
19
100
AcDbEntity
  8
4
100
AcDbLine
 10
263.2280414647712
 20
749.2307502428105
 30
0.0
 11
274.2280414647712
 21
749.2307502428105
 31
0.0
  0
LINE
  5
1F7
330
19
100
AcDbEntity
  8
4
100
AcDbLine
 10
265.2280414647712
 20
750.2307502428105
 30
0.0
 11
274.2280414647712
 21
750.2307502428105
 31
0.0
  0
LINE
  5
1F8
330
19
100
AcDbEntity
  8
4
100
AcDbLine
 10
274.2280414647712
 20
747.2307502428105
 30
0.0
 11
263.2280414647712
 21
747.2307502428105
 31
0.0
  0
LINE
  5
1F9
330
19
100
AcDbEntity
  8
4
100
AcDbLine
 10
263.2280414647712
 20
749.2307502428105
 30
0.0
 11
263.2280414647712
 21
747.2307502428105
 31
0.0
  0
LINE
  5
1FA
330
19
100
AcDbEntity
  8
4
100
AcDbLine
 10
265.2280414647712
 20
750.2307502428105
 30
0.0
 11
263.2280414647712
 21
749.2307502428105
 31
0.0
  0
LINE
  5
1FB
330
19
100
AcDbEntity
  8
4
100
AcDbLine
 10
283.2280414647712
 20
750.2307502428105
 30
0.0
 11
285.2280414647712
 21
749.2307502428105
 31
0.0
  0
LINE
  5
1FC
330
19
100
AcDbEntity
  8
4
100
AcDbLine
 10
285.2280414647712
 20
749.2307502428105
 30
0.0
 11
285.2280414647712
 21
747.2307502428105
 31
0.0
  0
LINE
  5
1FD
330
19
100
AcDbEntity
  8
4
100
AcDbLine
 10
274.2280414647712
 20
747.2307502428105
 30
0.0
 11
285.2280414647712
 21
747.2307502428105
 31
0.0
  0
LINE
  5
1FE
330
19
100
AcDbEntity
  8
4
100
AcDbLine
 10
283.2280414647712
 20
750.2307502428105
 30
0.0
 11
274.2280414647712
 21
750.2307502428105
 31
0.0
  0
LINE
  5
1FF
330
19
100
AcDbEntity
  8
4
100
AcDbLine
 10
285.2280414647712
 20
749.2307502428105
 30
0.0
 11
274.2280414647712
 21
749.2307502428105
 31
0.0
  0
LINE
  5
204
330
19
100
AcDbEntity
  8
4
100
AcDbLine
 10
513.2280414647712
 20
746.2307502428105
 30
0.0
 11
526.9592414647714
 21
744.2168352428105
 31
0.0
  0
LINE
  5
205
330
19
100
AcDbEntity
  8
L-CENTER
 48
2.0
100
AcDbLine
 10
466.6132964647713
 20
766.2307502428105
 30
0.0
 11
559.842786464771
 21
766.2307502428105
 31
0.0
  0
LINE
  5
206
330
19
100
AcDbEntity
  8
4
100
AcDbLine
 10
499.6855614647711
 20
744.2307502428105
 30
0.0
 11
526.7705214647713
 21
744.2307502428105
 31
0.0
  0
CIRCLE
  5
207
330
19
100
AcDbEntity
  8
4
100
AcDbCircle
 10
513.2280414647712
 20
766.2307502428105
 30
0.0
 40
20.0
  0
ARC
  5
208
330
19
100
AcDbEntity
  8
4
100
AcDbCircle
 10
499.6855614647711
 20
742.9307002428106
 30
0.0
 40
1.300075
100
AcDbArc
 50
90.0
 51
167.3521589999979
  0
LINE
  5
209
330
19
100
AcDbEntity
  8
4
100
AcDbLine
 10
513.2280414647712
 20
746.2307502428105
 30
0.0
 11
499.496841464771
 21
744.2168352428105
 31
0.0
  0
ARC
  5
20A
330
19
100
AcDbEntity
  8
4
100
AcDbCircle
 10
526.7705214647713
 20
742.9307002428106
 30
0.0
 40
1.300075
100
AcDbArc
 50
12.6478410000021
 51
90.0
  0
LINE
  5
20E
330
19
100
AcDbEntity
  8
4
100
AcDbLine
 10
752.2280414647712
 20
747.2307502428105
 30
0.0
 11
763.2280414647712
 21
747.2307502428105
 31
0.0
  0
LINE
  5
20F
330
19
100
AcDbEntity
  8
4
100
AcDbLine
 10
761.2280414647712
 20
750.2307502428105
 30
0.0
 11
752.2280414647712
 21
750.2307502428105
 31
0.0
  0
LINE
  5
210
330
19
100
AcDbEntity
  8
4
100
AcDbLine
 10
763.2280414647712
 20
749.2307502428105
 30
0.0
 11
752.2280414647712
 21
749.2307502428105
 31
0.0
  0
LINE
  5
211
330
19
100
AcDbEntity
  8
4
100
AcDbLine
 10
741.2280414647712
 20
749.2307502428105
 30
0.0
 11
741.2280414647712
 21
747.2307502428105
 31
0.0
  0
LINE
  5
212
330
19
100
AcDbEntity
  8
4
100
AcDbLine
 10
743.2280414647712
 20
750.2307502428105
 30
0.0
 11
741.2280414647712
 21
749.2307502428105
 31
0.0
  0
LINE
  5
213
330
19
100
AcDbEntity
  8
4
100
AcDbLine
 10
741.2280414647712
 20
749.2307502428105
 30
0.0
 11
752.2280414647712
 21
749.2307502428105
 31
0.0
  0
LINE
  5
214
330
19
100
AcDbEntity
  8
4
100
AcDbLine
 10
743.2280414647712
 20
750.2307502428105
 30
0.0
 11
752.2280414647712
 21
750.2307502428105
 31
0.0
  0
LINE
  5
215
330
19
100
AcDbEntity
  8
4
100
AcDbLine
 10
752.2280414647712
 20
747.2307502428105
 30
0.0
 11
741.2280414647712
 21
747.2307502428105
 31
0.0
  0
LINE
  5
216
330
19
100
AcDbEntity
  8
4
100
AcDbLine
 10
763.2280414647712
 20
749.2307502428105
 30
0.0
 11
763.2280414647712
 21
747.2307502428105
 31
0.0
  0
LINE
  5
217
330
19
100
AcDbEntity
  8
4
100
AcDbLine
 10
761.2280414647712
 20
750.2307502428105
 30
0.0
 11
763.2280414647712
 21
749.2307502428105
 31
0.0
  0
LINE
  5
221
330
19
100
AcDbEntity
  8
4
100
AcDbLine
 10
1519.85017182076
 20
179.7146352428106
 30
0.0
 11
1546.67885682076
 21
288.7307502428105
 31
0.0
  0
LINE
  5
222
330
19
100
AcDbEntity
  8
4
100
AcDbLine
 10
1253.98073682076
 20
160.5951952428106
 30
0.0
 11
1223.37895682076
 21
288.7307502428105
 31
0.0
  0
LINE
  5
223
330
19
100
AcDbEntity
  8
4
100
AcDbLine
 10
1478.37895682076
 20
371.2307502428105
 30
0.0
 11
1478.37895682076
 21
151.2307502428105
 31
0.0
  0
LINE
  5
224
330
19
100
AcDbEntity
  8
4
100
AcDbLine
 10
1288.37895682076
 20
371.2307502428105
 30
0.0
 11
1288.37895682076
 21
151.2307502428105
 31
0.0
  0
LINE
  5
225
330
19
100
AcDbEntity
  8
L-CENTER
 48
2.0
100
AcDbLine
 10
1383.37895682076
 20
810.3603902428106
 30
0.0
 11
1383.37895682076
 21
77.6900194996199
 31
0.0
  0
LINE
  5
226
330
19
100
AcDbEntity
  8
4
100
AcDbLine
 10
1514.67885682076
 20
159.6853402428108
 30
0.0
 11
1514.67885682076
 21
621.2307502428105
 31
0.0
  0
LINE
  5
227
330
19
100
AcDbEntity
  8
4
100
AcDbLine
 10
1492.37895682076
 20
169.8671152428103
 30
0.0
 11
1492.37895682076
 21
621.2307502428105
 31
0.0
  0
LINE
  5
228
330
19
100
AcDbEntity
  8
4
100
AcDbLine
 10
1489.37895682076
 20
171.2307502428105
 30
0.0
 11
1489.37895682076
 21
624.2307502428105
 31
0.0
  0
LINE
  5
229
330
19
100
AcDbEntity
  8
4
100
AcDbLine
 10
1488.37895682076
 20
151.2307502428105
 30
0.0
 11
1488.37895682076
 21
621.2307502428105
 31
0.0
  0
LINE
  5
22A
330
19
100
AcDbEntity
  8
4
100
AcDbLine
 10
1277.37895682076
 20
171.2307502428105
 30
0.0
 11
1277.37895682076
 21
624.2307502428105
 31
0.0
  0
LINE
  5
22B
330
19
100
AcDbEntity
  8
4
100
AcDbLine
 10
1278.37895682076
 20
151.2307502428105
 30
0.0
 11
1278.37895682076
 21
621.2307502428105
 31
0.0
  0
LINE
  5
22C
330
19
100
AcDbEntity
  8
4
100
AcDbLine
 10
1254.37895682076
 20
619.2307502428105
 30
0.0
 11
1254.37895682076
 21
160.7762052428104
 31
0.0
  0
LINE
  5
231
330
19
100
AcDbEntity
  8
4
100
AcDbLine
 10
1558.37895682076
 20
91.23075024281047
 30
0.0
 11
1208.37895682076
 21
91.23075024281047
 31
0.0
  0
LINE
  5
232
330
19
100
AcDbEntity
  8
4
100
AcDbLine
 10
1555.37895682076
 20
141.2307502428105
 30
0.0
 11
1211.37895682076
 21
141.2307502428105
 31
0.0
  0
LINE
  5
23B
330
19
100
AcDbEntity
  8
L-CENTER
 48
2.0
100
AcDbLine
 10
1248.37895682076
 20
166.2307502428105
 30
0.0
 11
1248.37895682076
 21
66.23075024281047
 31
0.0
  0
LINE
  5
23C
330
19
100
AcDbEntity
  8
4
100
AcDbLine
 10
1208.37895682076
 20
91.23075024281047
 30
0.0
 11
1208.37895682076
 21
138.2307502428105
 31
0.0
  0
LINE
  5
23D
330
19
100
AcDbEntity
  8
4
100
AcDbLine
 10
1211.37895682076
 20
141.2307502428105
 30
0.0
 11
1278.37895682076
 21
171.6852952428105
 31
0.0
  0
ARC
  5
23E
330
19
100
AcDbEntity
  8
4
100
AcDbCircle
 10
1211.37895682076
 20
138.2307502428105
 30
0.0
 40
3.0
100
AcDbArc
 50
90.0
 51
180.0
  0
ARC
  5
23F
330
19
100
AcDbEntity
  8
4
100
AcDbCircle
 10
1278.37895682076
 20
151.2307502428105
 30
0.0
 40
10.0
100
AcDbArc
 50
270.0
 51
0.0
  0
ARC
  5
240
330
19
100
AcDbEntity
  8
4
100
AcDbCircle
 10
1268.37895682076
 20
151.2307502428105
 30
0.0
 40
10.0
100
AcDbArc
 50
270.0
 51
0.0
  0
ARC
  5
241
330
19
100
AcDbEntity
  8
4
100
AcDbCircle
 10
1522.09511682076
 20
176.7146352428106
 30
0.0
 40
4.58369
100
AcDbArc
 50
319.1186700000107
 51
40.88132999998932
  0
ARC
  5
242
330
19
100
AcDbEntity
  8
4
100
AcDbCircle
 10
1508.67885682076
 20
167.7146352428106
 30
0.0
 40
18.00009
100
AcDbArc
 50
340.528928000001
 51
19.47033699999144
  0
ARC
  5
243
330
19
100
AcDbEntity
  8
4
100
AcDbCircle
 10
1522.09511682076
 20
158.7146352428106
 30
0.0
 40
4.58369
100
AcDbArc
 50
319.1186700000107
 51
40.88132999998932
  0
LINE
  5
244
330
19
100
AcDbEntity
  8
4
100
AcDbLine
 10
1555.37895682076
 20
141.2307502428105
 30
0.0
 11
1488.37895682076
 21
171.6852952428105
 31
0.0
  0
LINE
  5
249
330
19
100
AcDbEntity
  8
L-CENTER
 48
2.0
100
AcDbLine
 10
1518.37895682076
 20
166.2307502428105
 30
0.0
 11
1518.37895682076
 21
66.23075024281047
 31
0.0
  0
ARC
  5
24A
330
19
100
AcDbEntity
  8
4
100
AcDbCircle
 10
1488.37895682076
 20
151.2307502428105
 30
0.0
 40
10.0
100
AcDbArc
 50
180.0
 51
270.0
  0
ARC
  5
24B
330
19
100
AcDbEntity
  8
4
100
AcDbCircle
 10
1498.37895682076
 20
151.2307502428105
 30
0.0
 40
10.0
100
AcDbArc
 50
180.0
 51
270.0
  0
LINE
  5
24C
330
19
100
AcDbEntity
  8
4
100
AcDbLine
 10
1517.67885682076
 20
173.7146352428106
 30
0.0
 11
1525.649316820761
 21
173.7146352428106
 31
0.0
  0
LINE
  5
24D
330
19
100
AcDbEntity
  8
4
100
AcDbLine
 10
1517.67885682076
 20
161.7146352428106
 30
0.0
 11
1525.649316820761
 21
161.7146352428106
 31
0.0
  0
LINE
  5
24E
330
19
100
AcDbEntity
  8
4
100
AcDbLine
 10
1525.649316820761
 20
179.7146352428106
 30
0.0
 11
1517.67885682076
 21
179.7146352428106
 31
0.0
  0
LINE
  5
24F
330
19
100
AcDbEntity
  8
4
100
AcDbLine
 10
1525.649316820761
 20
155.7146352428106
 30
0.0
 11
1523.414406820759
 21
155.7146352428106
 31
0.0
  0
LINE
  5
250
330
19
100
AcDbEntity
  8
4
100
AcDbLine
 10
1517.67885682076
 20
158.3217052428106
 30
0.0
 11
1517.67885682076
 21
179.7146352428106
 31
0.0
  0
LINE
  5
251
330
19
100
AcDbEntity
  8
4
100
AcDbLine
 10
1514.67885682076
 20
179.7146352428106
 30
0.0
 11
1514.67885682076
 21
159.6853402428108
 31
0.0
  0
LINE
  5
252
330
19
100
AcDbEntity
  8
4
100
AcDbLine
 10
1514.67885682076
 20
179.7146352428106
 30
0.0
 11
1517.67885682076
 21
179.7146352428106
 31
0.0
  0
LINE
  5
255
330
19
100
AcDbEntity
  8
4
100
AcDbLine
 10
1558.37895682076
 20
91.23075024281047
 30
0.0
 11
1558.37895682076
 21
138.2307502428105
 31
0.0
  0
ARC
  5
256
330
19
100
AcDbEntity
  8
4
100
AcDbCircle
 10
1555.37895682076
 20
138.2307502428105
 30
0.0
 40
3.0
100
AcDbArc
 50
0.0
 51
90.0
  0
LINE
  5
257
330
19
100
AcDbEntity
  8
4
100
AcDbLine
 10
1526.67885682076
 20
158.7146352428106
 30
0.0
 11
1526.67885682076
 21
176.7146352428106
 31
0.0
  0
LINE
  5
258
330
19
100
AcDbEntity
  8
L-CENTER
 48
2.0
100
AcDbLine
 10
1739.930254411185
 20
371.2307502428105
 30
0.0
 11
1191.007200129615
 21
371.2307502428105
 31
0.0
  0
LINE
  5
25A
330
19
100
AcDbEntity
  8
4
100
AcDbLine
 10
1373.37895682076
 20
737.2307502428105
 30
0.0
 11
1373.37895682076
 21
747.2307502428105
 31
0.0
  0
LINE
  5
25B
330
19
100
AcDbEntity
  8
4
100
AcDbLine
 10
1368.56767682076
 20
743.2153702428106
 30
0.0
 11
1365.87895682076
 21
731.2307502428105
 31
0.0
  0
LINE
  5
25C
330
19
100
AcDbEntity
  8
4
100
AcDbLine
 10
1363.46025682076
 20
737.2307502428105
 30
0.0
 11
1363.46025682076
 21
742.2307502428105
 31
0.0
  0
LINE
  5
25D
330
19
100
AcDbEntity
  8
4
100
AcDbLine
 10
1393.37895682076
 20
737.2307502428105
 30
0.0
 11
1393.37895682076
 21
747.2307502428105
 31
0.0
  0
LINE
  5
25E
330
19
100
AcDbEntity
  8
4
100
AcDbLine
 10
1398.18999182076
 20
743.2153702428106
 30
0.0
 11
1400.87895682076
 21
731.2307502428105
 31
0.0
  0
LINE
  5
25F
330
19
100
AcDbEntity
  8
4
100
AcDbLine
 10
1403.29741182076
 20
737.2307502428105
 30
0.0
 11
1403.29741182076
 21
742.2307502428105
 31
0.0
  0
LINE
  5
262
330
19
100
AcDbEntity
  8
L-CENTER
 48
2.0
100
AcDbLine
 10
1301.62383182076
 20
539.4758652428102
 30
0.0
 11
1341.39019182076
 21
579.2422252428105
 31
0.0
  0
LINE
  5
263
330
19
100
AcDbEntity
  8
L-CENTER
 48
2.0
100
AcDbLine
 10
1301.624189390539
 20
702.9855028133111
 30
0.0
 11
1341.390686144256
 21
663.219279566423
 31
0.0
  0
LINE
  5
264
330
19
100
AcDbEntity
  8
L-CENTER
 48
2.0
100
AcDbLine
 10
1501.889282710885
 20
621.2307502428105
 30
0.0
 11
1265.269913963991
 21
621.2307502428105
 31
0.0
  0
CIRCLE
  5
265
330
19
100
AcDbEntity
  8
4
100
AcDbCircle
 10
1383.37895682076
 20
621.2307502428105
 30
0.0
 40
105.0
  0
CIRCLE
  5
266
330
19
100
AcDbEntity
  8
L-CENTER
 48
2.0
100
AcDbCircle
 10
1383.37895682076
 20
621.2307502428105
 30
0.0
 40
87.5
  0
ARC
  5
267
330
19
100
AcDbEntity
  8
4
100
AcDbCircle
 10
1383.37895682076
 20
228.2307502428105
 30
0.0
 40
500.000005
100
AcDbArc
 50
79.39719200000197
 51
100.6030059999988
  0
LINE
  5
268
330
19
100
AcDbEntity
  8
4
100
AcDbLine
 10
1254.37895682076
 20
583.5337302428104
 30
0.0
 11
1223.37895682076
 21
453.7307502428105
 31
0.0
  0
LINE
  5
27C
330
19
100
AcDbEntity
  8
4
100
AcDbLine
 10
1254.37895682076
 20
328.7307502428105
 30
0.0
 11
1223.37895682076
 21
313.7307502428105
 31
0.0
  0
LINE
  5
27D
330
19
100
AcDbEntity
  8
4
100
AcDbLine
 10
1223.37895682076
 20
453.7307502428105
 30
0.0
 11
1223.37895682076
 21
288.7307502428105
 31
0.0
  0
LINE
  5
27E
330
19
100
AcDbEntity
  8
4
100
AcDbLine
 10
1200.37895682076
 20
448.7307502428105
 30
0.0
 11
1200.37895682076
 21
293.7307502428105
 31
0.0
  0
LINE
  5
27F
330
19
100
AcDbEntity
  8
4
100
AcDbLine
 10
1254.37895682076
 20
328.7307502428105
 30
0.0
 11
1223.37895682076
 21
313.7307502428105
 31
0.0
  0
LINE
  5
281
330
19
100
AcDbEntity
  8
4
100
AcDbLine
 10
1223.37895682076
 20
288.7307502428105
 30
0.0
 11
1200.37895682076
 21
293.7307502428105
 31
0.0
  0
LINE
  5
283
330
19
100
AcDbEntity
  8
4
100
AcDbLine
 10
1223.37895682076
 20
453.7307502428105
 30
0.0
 11
1200.37895682076
 21
448.7307502428105
 31
0.0
  0
LINE
  5
289
330
19
100
AcDbEntity
  8
4
100
AcDbLine
 10
1254.37895682076
 20
413.7307502428105
 30
0.0
 11
1223.37895682076
 21
428.7307502428105
 31
0.0
  0
ARC
  5
296
330
19
100
AcDbEntity
  8
4
100
AcDbCircle
 10
1778.37895682076
 20
621.2307502428105
 30
0.0
 40
500.00003
100
AcDbArc
 50
169.1068520000132
 51
180.0003920002005
  0
ARC
  5
297
330
19
100
AcDbEntity
  8
4
100
AcDbCircle
 10
1256.37895682076
 20
619.2307502428105
 30
0.0
 40
2.0
100
AcDbArc
 50
90.0
 51
180.0
  0
LINE
  5
298
330
19
100
AcDbEntity
  8
4
100
AcDbLine
 10
1278.42192682076
 20
624.2307502428105
 30
0.0
 11
1277.37895682076
 21
624.2307502428105
 31
0.0
  0
LINE
  5
299
330
19
100
AcDbEntity
  8
4
100
AcDbLine
 10
1256.37895682076
 20
621.2307502428105
 30
0.0
 11
1277.37895682076
 21
621.2307502428105
 31
0.0
  0
ARC
  5
29A
330
19
100
AcDbEntity
  8
4
100
AcDbCircle
 10
1292.29912182076
 20
714.7793352428105
 30
0.0
 40
4.99997
100
AcDbArc
 50
100.6048749999998
 51
169.1076069999868
  0
LINE
  5
29D
330
19
100
AcDbEntity
  8
4
100
AcDbLine
 10
1519.85017182076
 20
562.7468652428104
 30
0.0
 11
1546.67885682076
 21
453.7307502428105
 31
0.0
  0
ARC
  5
29E
330
19
100
AcDbEntity
  8
4
100
AcDbCircle
 10
1522.09511682076
 20
380.2307502428105
 30
0.0
 40
4.583600000000001
100
AcDbArc
 50
319.1186700000108
 51
40.88332600001215
  0
ARC
  5
29F
330
19
100
AcDbEntity
  8
4
100
AcDbCircle
 10
1522.09511682076
 20
362.2307502428105
 30
0.0
 40
4.583600000000001
100
AcDbArc
 50
319.1186700000108
 51
40.88332600001215
  0
ARC
  5
2A0
330
19
100
AcDbEntity
  8
4
100
AcDbCircle
 10
1508.67885682076
 20
371.2307502428105
 30
0.0
 40
17.999975
100
AcDbArc
 50
340.5296600000138
 51
19.471331000003
  0
LINE
  5
2A1
330
19
100
AcDbEntity
  8
4
100
AcDbLine
 10
1514.67885682076
 20
413.7307502428105
 30
0.0
 11
1546.67885682076
 21
428.7307502428105
 31
0.0
  0
LINE
  5
2A2
330
19
100
AcDbEntity
  8
4
100
AcDbLine
 10
1514.67885682076
 20
328.7307502428105
 30
0.0
 11
1546.67885682076
 21
313.7307502428105
 31
0.0
  0
LINE
  5
2A3
330
19
100
AcDbEntity
  8
4
100
AcDbLine
 10
1514.67885682076
 20
328.7307502428105
 30
0.0
 11
1546.67885682076
 21
313.7307502428105
 31
0.0
  0
LINE
  5
2A4
330
19
100
AcDbEntity
  8
4
100
AcDbLine
 10
1517.67885682076
 20
377.2307502428105
 30
0.0
 11
1525.649316820761
 21
377.2307502428105
 31
0.0
  0
LINE
  5
2A5
330
19
100
AcDbEntity
  8
4
100
AcDbLine
 10
1525.649316820761
 20
383.2307502428105
 30
0.0
 11
1517.67885682076
 21
383.2307502428105
 31
0.0
  0
LINE
  5
2A6
330
19
100
AcDbEntity
  8
4
100
AcDbLine
 10
1517.67885682076
 20
365.2307502428105
 30
0.0
 11
1525.649316820761
 21
365.2307502428105
 31
0.0
  0
LINE
  5
2A7
330
19
100
AcDbEntity
  8
4
100
AcDbLine
 10
1525.649316820761
 20
359.2307502428105
 30
0.0
 11
1517.67885682076
 21
359.2307502428105
 31
0.0
  0
LINE
  5
2A8
330
19
100
AcDbEntity
  8
4
100
AcDbLine
 10
1517.67885682076
 20
383.2307502428105
 30
0.0
 11
1517.67885682076
 21
359.2307502428105
 31
0.0
  0
LINE
  5
2A9
330
19
100
AcDbEntity
  8
4
100
AcDbLine
 10
1514.67885682076
 20
359.2307502428105
 30
0.0
 11
1514.67885682076
 21
383.2307502428105
 31
0.0
  0
LINE
  5
2AA
330
19
100
AcDbEntity
  8
4
100
AcDbLine
 10
1514.67885682076
 20
383.2307502428105
 30
0.0
 11
1517.67885682076
 21
383.2307502428105
 31
0.0
  0
LINE
  5
2AB
330
19
100
AcDbEntity
  8
4
100
AcDbLine
 10
1514.67885682076
 20
359.2307502428105
 30
0.0
 11
1517.67885682076
 21
359.2307502428105
 31
0.0
  0
LINE
  5
2AC
330
19
100
AcDbEntity
  8
4
100
AcDbLine
 10
1546.67885682076
 20
453.7307502428105
 30
0.0
 11
1546.67885682076
 21
288.7307502428105
 31
0.0
  0
LINE
  5
2AD
330
19
100
AcDbEntity
  8
4
100
AcDbLine
 10
1566.67885682076
 20
448.7307502428105
 30
0.0
 11
1566.67885682076
 21
293.7307502428105
 31
0.0
  0
LINE
  5
2AE
330
19
100
AcDbEntity
  8
4
100
AcDbLine
 10
1567.67885682076
 20
421.2307502428105
 30
0.0
 11
1567.67885682076
 21
321.2307502428105
 31
0.0
  0
LINE
  5
2AF
330
19
100
AcDbEntity
  8
4
100
AcDbLine
 10
1546.67885682076
 20
288.7307502428105
 30
0.0
 11
1566.67885682076
 21
293.7307502428105
 31
0.0
  0
LINE
  5
2B0
330
19
100
AcDbEntity
  8
4
100
AcDbLine
 10
1566.67885682076
 20
321.2307502428105
 30
0.0
 11
1567.67885682076
 21
321.2307502428105
 31
0.0
  0
LINE
  5
2B1
330
19
100
AcDbEntity
  8
4
100
AcDbLine
 10
1573.37895682076
 20
332.2307502428105
 30
0.0
 11
1731.37895682076
 21
332.2307502428105
 31
0.0
  0
LINE
  5
2B2
330
19
100
AcDbEntity
  8
4
100
AcDbLine
 10
1573.37895682076
 20
410.2307502428105
 30
0.0
 11
1731.37895682076
 21
410.2307502428105
 31
0.0
  0
LINE
  5
2B3
330
19
100
AcDbEntity
  8
4
100
AcDbLine
 10
1733.37895682076
 20
416.2307502428105
 30
0.0
 11
1583.37895682076
 21
416.2307502428105
 31
0.0
  0
LINE
  5
2B4
330
19
100
AcDbEntity
  8
4
100
AcDbLine
 10
1573.37895682076
 20
411.2307502428105
 30
0.0
 11
1573.37895682076
 21
331.2307502428105
 31
0.0
  0
LINE
  5
2B5
330
19
100
AcDbEntity
  8
4
100
AcDbLine
 10
1567.67885682076
 20
331.2307502428105
 30
0.0
 11
1573.37895682076
 21
331.2307502428105
 31
0.0
  0
LINE
  5
2B6
330
19
100
AcDbEntity
  8
4
100
AcDbLine
 10
1526.67885682076
 20
380.2307502428105
 30
0.0
 11
1526.67885682076
 21
362.2307502428105
 31
0.0
  0
LINE
  5
2B7
330
19
100
AcDbEntity
  8
4
100
AcDbLine
 10
1566.67885682076
 20
421.2307502428105
 30
0.0
 11
1567.67885682076
 21
421.2307502428105
 31
0.0
  0
LINE
  5
2B8
330
19
100
AcDbEntity
  8
4
100
AcDbLine
 10
1573.37895682076
 20
411.2307502428105
 30
0.0
 11
1567.67885682076
 21
411.2307502428105
 31
0.0
  0
LINE
  5
2B9
330
19
100
AcDbEntity
  8
4
100
AcDbLine
 10
1546.67885682076
 20
453.7307502428105
 30
0.0
 11
1566.67885682076
 21
448.7307502428105
 31
0.0
  0
LINE
  5
2BA
330
19
100
AcDbEntity
  8
4
100
AcDbLine
 10
1583.37895682076
 20
416.2307502428105
 30
0.0
 11
1583.37895682076
 21
410.2307502428105
 31
0.0
  0
LINE
  5
2BB
330
19
100
AcDbEntity
  8
4
100
AcDbLine
 10
1731.37895682076
 20
410.2307502428105
 30
0.0
 11
1731.37895682076
 21
332.2307502428105
 31
0.0
  0
LINE
  5
2BC
330
19
100
AcDbEntity
  8
4
100
AcDbLine
 10
1733.37895682076
 20
416.2307502428105
 30
0.0
 11
1733.37895682076
 21
334.2307502428105
 31
0.0
  0
LINE
  5
2BD
330
19
100
AcDbEntity
  8
4
100
AcDbLine
 10
1731.37895682076
 20
332.2307502428105
 30
0.0
 11
1733.37895682076
 21
334.2307502428105
 31
0.0
  0
LINE
  5
2BE
330
19
100
AcDbEntity
  8
4
100
AcDbLine
 10
1733.37895682076
 20
408.2307502428105
 30
0.0
 11
1731.37895682076
 21
410.2307502428105
 31
0.0
  0
ARC
  5
2BF
330
19
100
AcDbEntity
  8
4
100
AcDbCircle
 10
1522.09511682076
 20
583.7468652428104
 30
0.0
 40
4.583600000000001
100
AcDbArc
 50
319.1186700000108
 51
40.88332600001323
  0
ARC
  5
2C0
330
19
100
AcDbEntity
  8
4
100
AcDbCircle
 10
1508.67885682076
 20
574.7468652428104
 30
0.0
 40
17.999975
100
AcDbArc
 50
340.5296600000135
 51
19.47133100000335
  0
LINE
  5
2C1
330
19
100
AcDbEntity
  8
L-CENTER
 48
2.0
100
AcDbLine
 10
1468.580156594821
 20
574.7468652428104
 30
0.0
 11
1532.563178475818
 21
574.7468652428104
 31
0.0
  0
ARC
  5
2C2
330
19
100
AcDbEntity
  8
4
100
AcDbCircle
 10
1522.09511682076
 20
565.7468652428104
 30
0.0
 40
4.583600000000001
100
AcDbArc
 50
319.1186700000108
 51
40.88332600001323
  0
CIRCLE
  5
2C3
330
19
100
AcDbEntity
  8
4
100
AcDbCircle
 10
1383.37895682076
 20
621.2307502428105
 30
0.0
 40
45.0
  0
ARC
  5
2C4
330
19
100
AcDbEntity
  8
4
100
AcDbCircle
 10
1383.37895682076
 20
621.2307502428105
 30
0.0
 40
29.000035
100
AcDbArc
 50
104.9882150000025
 51
75.01178499999752
  0
LINE
  5
2C5
330
19
100
AcDbEntity
  8
4
100
AcDbLine
 10
1318.40141682076
 20
570.9502302428102
 30
0.0
 11
1309.91606682076
 21
562.4648802428103
 31
0.0
  0
LINE
  5
2C6
330
19
100
AcDbEntity
  8
4
100
AcDbLine
 10
1333.09843682076
 20
556.2532102428106
 30
0.0
 11
1329.99272682076
 21
567.8445202428104
 31
0.0
  0
CIRCLE
  5
2C7
330
19
100
AcDbEntity
  8
4
100
AcDbCircle
 10
1321.50713182076
 20
559.3589252428103
 30
0.0
 40
10.392335
  0
CIRCLE
  5
2C8
330
19
100
AcDbEntity
  8
4
100
AcDbCircle
 10
1321.50737682076
 20
559.3591702428105
 30
0.0
 40
12.0
  0
LINE
  5
2C9
330
19
100
AcDbEntity
  8
4
100
AcDbLine
 10
1313.02202182076
 20
550.8738152428107
 30
0.0
 11
1324.61308682076
 21
547.7678602428107
 31
0.0
  0
LINE
  5
2CA
330
19
100
AcDbEntity
  8
4
100
AcDbLine
 10
1309.91606682076
 20
562.4648802428103
 30
0.0
 11
1313.02202182076
 21
550.8738152428107
 31
0.0
  0
LINE
  5
2CB
330
19
100
AcDbEntity
  8
4
100
AcDbLine
 10
1324.61308682076
 20
547.7678602428107
 30
0.0
 11
1333.09843682076
 21
556.2532102428106
 31
0.0
  0
LINE
  5
2CC
330
19
100
AcDbEntity
  8
4
100
AcDbLine
 10
1329.99272682076
 20
567.8445202428104
 30
0.0
 11
1318.40141682076
 21
570.9502302428102
 31
0.0
  0
LINE
  5
2CD
330
19
100
AcDbEntity
  8
4
100
AcDbLine
 10
1448.35649682076
 20
570.9502302428102
 30
0.0
 11
1456.84184682076
 21
562.4648802428103
 31
0.0
  0
LINE
  5
2CE
330
19
100
AcDbEntity
  8
4
100
AcDbLine
 10
1433.65947182076
 20
556.2532102428106
 30
0.0
 11
1436.76518682076
 21
567.8445202428104
 31
0.0
  0
CIRCLE
  5
2CF
330
19
100
AcDbEntity
  8
4
100
AcDbCircle
 10
1445.25078182076
 20
559.3589252428103
 30
0.0
 40
10.392335
  0
CIRCLE
  5
2D0
330
19
100
AcDbEntity
  8
4
100
AcDbCircle
 10
1445.25053682076
 20
559.3591702428105
 30
0.0
 40
12.0
  0
LINE
  5
2D1
330
19
100
AcDbEntity
  8
L-CENTER
 48
2.0
100
AcDbLine
 10
1465.13408182076
 20
539.4758652428102
 30
0.0
 11
1425.36747682076
 21
579.2424702428104
 31
0.0
  0
LINE
  5
2D2
330
19
100
AcDbEntity
  8
4
100
AcDbLine
 10
1453.73589182076
 20
550.8738152428107
 30
0.0
 11
1442.14482682076
 21
547.7678602428107
 31
0.0
  0
LINE
  5
2D3
330
19
100
AcDbEntity
  8
4
100
AcDbLine
 10
1442.14482682076
 20
547.7678602428107
 30
0.0
 11
1433.65947182076
 21
556.2532102428106
 31
0.0
  0
LINE
  5
2D4
330
19
100
AcDbEntity
  8
4
100
AcDbLine
 10
1456.84184682076
 20
562.4648802428103
 30
0.0
 11
1453.73589182076
 21
550.8738152428107
 31
0.0
  0
LINE
  5
2D5
330
19
100
AcDbEntity
  8
4
100
AcDbLine
 10
1436.76518682076
 20
567.8445202428104
 30
0.0
 11
1448.35649682076
 21
570.9502302428102
 31
0.0
  0
LINE
  5
2D6
330
19
100
AcDbEntity
  8
4
100
AcDbLine
 10
1517.67885682076
 20
586.7468652428104
 30
0.0
 11
1517.67885682076
 21
562.7468652428104
 31
0.0
  0
LINE
  5
2D7
330
19
100
AcDbEntity
  8
4
100
AcDbLine
 10
1514.67885682076
 20
562.7468652428104
 30
0.0
 11
1514.67885682076
 21
586.7468652428104
 31
0.0
  0
LINE
  5
2D8
330
19
100
AcDbEntity
  8
4
100
AcDbLine
 10
1525.649316820761
 20
562.7468652428104
 30
0.0
 11
1517.67885682076
 21
562.7468652428104
 31
0.0
  0
LINE
  5
2D9
330
19
100
AcDbEntity
  8
4
100
AcDbLine
 10
1514.67885682076
 20
562.7468652428104
 30
0.0
 11
1517.67885682076
 21
562.7468652428104
 31
0.0
  0
LINE
  5
2DA
330
19
100
AcDbEntity
  8
4
100
AcDbLine
 10
1517.67885682076
 20
580.7468652428104
 30
0.0
 11
1525.649316820761
 21
580.7468652428104
 31
0.0
  0
LINE
  5
2DB
330
19
100
AcDbEntity
  8
4
100
AcDbLine
 10
1525.649316820761
 20
586.7468652428104
 30
0.0
 11
1517.67885682076
 21
586.7468652428104
 31
0.0
  0
LINE
  5
2DC
330
19
100
AcDbEntity
  8
4
100
AcDbLine
 10
1517.67885682076
 20
568.7468652428104
 30
0.0
 11
1525.649316820761
 21
568.7468652428104
 31
0.0
  0
LINE
  5
2DD
330
19
100
AcDbEntity
  8
4
100
AcDbLine
 10
1514.67885682076
 20
586.7468652428104
 30
0.0
 11
1517.67885682076
 21
586.7468652428104
 31
0.0
  0
LINE
  5
2DE
330
19
100
AcDbEntity
  8
4
100
AcDbLine
 10
1329.99272682076
 20
674.6169802428105
 30
0.0
 11
1318.40141682076
 21
671.5112652428104
 31
0.0
  0
LINE
  5
2DF
330
19
100
AcDbEntity
  8
4
100
AcDbLine
 10
1318.40141682076
 20
671.5112652428104
 30
0.0
 11
1309.91606682076
 21
679.9966202428106
 31
0.0
  0
CIRCLE
  5
2E0
330
19
100
AcDbEntity
  8
4
100
AcDbCircle
 10
1321.50737682076
 20
683.1023302428105
 30
0.0
 40
12.0
  0
LINE
  5
2E1
330
19
100
AcDbEntity
  8
4
100
AcDbLine
 10
1390.87895682076
 20
655.2307502428105
 30
0.0
 11
1375.87895682076
 21
655.2307502428105
 31
0.0
  0
LINE
  5
2E2
330
19
100
AcDbEntity
  8
4
100
AcDbLine
 10
1390.87895682076
 20
645.2307502428105
 30
0.0
 11
1375.87895682076
 21
645.2307502428105
 31
0.0
  0
LINE
  5
2E3
330
19
100
AcDbEntity
  8
4
100
AcDbLine
 10
1375.87895682076
 20
645.2307502428105
 30
0.0
 11
1375.87895682076
 21
655.2307502428105
 31
0.0
  0
LINE
  5
2E4
330
19
100
AcDbEntity
  8
4
100
AcDbLine
 10
1390.87895682076
 20
655.2307502428105
 30
0.0
 11
1390.87895682076
 21
645.2307502428105
 31
0.0
  0
LINE
  5
2E5
330
19
100
AcDbEntity
  8
4
100
AcDbLine
 10
1367.22514682076
 20
737.2307502428105
 30
0.0
 11
1360.37895682076
 21
737.2307502428105
 31
0.0
  0
LINE
  5
2E6
330
19
100
AcDbEntity
  8
4
100
AcDbLine
 10
1360.37895682076
 20
733.2307502428105
 30
0.0
 11
1366.32768682076
 21
733.2307502428105
 31
0.0
  0
LINE
  5
2E7
330
19
100
AcDbEntity
  8
4
100
AcDbLine
 10
1361.37895682076
 20
731.2307502428105
 30
0.0
 11
1376.87895682076
 21
731.2307502428105
 31
0.0
  0
LINE
  5
2E8
330
19
100
AcDbEntity
  8
4
100
AcDbLine
 10
1361.37895682076
 20
731.2307502428105
 30
0.0
 11
1376.87895682076
 21
731.2307502428105
 31
0.0
  0
LINE
  5
2E9
330
19
100
AcDbEntity
  8
4
100
AcDbLine
 10
1358.37895682076
 20
731.2307502428105
 30
0.0
 11
1376.87895682076
 21
731.2307502428105
 31
0.0
  0
LINE
  5
2EA
330
19
100
AcDbEntity
  8
4
100
AcDbLine
 10
1309.91606682076
 20
679.9966202428106
 30
0.0
 11
1313.02202182076
 21
691.5876852428103
 31
0.0
  0
LINE
  5
2EB
330
19
100
AcDbEntity
  8
4
100
AcDbLine
 10
1313.02202182076
 20
691.5876852428103
 30
0.0
 11
1324.61308682076
 21
694.6936402428103
 31
0.0
  0
LINE
  5
2EC
330
19
100
AcDbEntity
  8
4
100
AcDbLine
 10
1333.09843682076
 20
686.2082902428103
 30
0.0
 11
1329.99272682076
 21
674.6169802428105
 31
0.0
  0
CIRCLE
  5
2ED
330
19
100
AcDbEntity
  8
4
100
AcDbCircle
 10
1321.50713182076
 20
683.1025752428106
 30
0.0
 40
10.392335
  0
LINE
  5
2EE
330
19
100
AcDbEntity
  8
4
100
AcDbLine
 10
1324.61308682076
 20
694.6936402428103
 30
0.0
 11
1333.09843682076
 21
686.2082902428103
 31
0.0
  0
LINE
  5
2EF
330
19
100
AcDbEntity
  8
4
100
AcDbLine
 10
1360.37895682076
 20
733.2307502428105
 30
0.0
 11
1360.37895682076
 21
737.2307502428105
 31
0.0
  0
LINE
  5
2F0
330
19
100
AcDbEntity
  8
4
100
AcDbLine
 10
1363.37895682076
 20
727.8306052428104
 30
0.0
 11
1363.37895682076
 21
731.2307502428105
 31
0.0
  0
LINE
  5
2F1
330
19
100
AcDbEntity
  8
4
100
AcDbLine
 10
1361.37895682076
 20
731.2307502428105
 30
0.0
 11
1361.37895682076
 21
733.2307502428105
 31
0.0
  0
LINE
  5
2F2
330
19
100
AcDbEntity
  8
4
100
AcDbLine
 10
1358.37895682076
 20
727.6052602428106
 30
0.0
 11
1358.37895682076
 21
731.2307502428105
 31
0.0
  0
LINE
  5
2F3
330
19
100
AcDbEntity
  8
4
100
AcDbLine
 10
1389.87895682076
 20
731.2307502428105
 30
0.0
 11
1400.87895682076
 21
731.2307502428105
 31
0.0
  0
LINE
  5
2F4
330
19
100
AcDbEntity
  8
4
100
AcDbLine
 10
1389.87895682076
 20
731.2307502428105
 30
0.0
 11
1405.37895682076
 21
731.2307502428105
 31
0.0
  0
LINE
  5
2F5
330
19
100
AcDbEntity
  8
4
100
AcDbLine
 10
1389.87895682076
 20
731.2307502428105
 30
0.0
 11
1405.37895682076
 21
731.2307502428105
 31
0.0
  0
LINE
  5
2F6
330
19
100
AcDbEntity
  8
4
100
AcDbLine
 10
1389.87895682076
 20
731.2307502428105
 30
0.0
 11
1408.37895682076
 21
731.2307502428105
 31
0.0
  0
ARC
  5
2F7
330
19
100
AcDbEntity
  8
4
100
AcDbCircle
 10
1393.37895682076
 20
733.2307502428105
 30
0.0
 40
4.0
100
AcDbArc
 50
90.0
 51
180.0
  0
LINE
  5
2F8
330
19
100
AcDbEntity
  8
4
100
AcDbLine
 10
1393.37895682076
 20
737.2307502428105
 30
0.0
 11
1383.37895682076
 21
737.2307502428105
 31
0.0
  0
LINE
  5
2F9
330
19
100
AcDbEntity
  8
4
100
AcDbLine
 10
1389.87895682076
 20
728.2307502428105
 30
0.0
 11
1389.87895682076
 21
732.5305552428106
 31
0.0
  0
LINE
  5
2FA
330
19
100
AcDbEntity
  8
4
100
AcDbLine
 10
1386.62895682076
 20
728.2307502428105
 30
0.0
 11
1386.62895682076
 21
732.5305552428106
 31
0.0
  0
LINE
  5
2FB
330
19
100
AcDbEntity
  8
4
100
AcDbLine
 10
1389.37895682076
 20
733.2307502428105
 30
0.0
 11
1389.37895682076
 21
732.9270402428103
 31
0.0
  0
ARC
  5
2FC
330
19
100
AcDbEntity
  8
4
100
AcDbCircle
 10
1388.25395682076
 20
730.9949102428102
 30
0.0
 40
2.235805
100
AcDbArc
 50
43.38059600001328
 51
136.6194039999867
  0
LINE
  5
2FD
330
19
100
AcDbEntity
  8
4
100
AcDbLine
 10
1389.87895682076
 20
728.2307502428105
 30
0.0
 11
1383.37895682076
 21
728.2307502428105
 31
0.0
  0
LINE
  5
2FE
330
19
100
AcDbEntity
  8
4
100
AcDbLine
 10
1388.25395682076
 20
733.2307502428105
 30
0.0
 11
1383.37895682076
 21
733.2307502428105
 31
0.0
  0
LINE
  5
2FF
330
19
100
AcDbEntity
  8
4
100
AcDbLine
 10
1380.12895682076
 20
728.2307502428105
 30
0.0
 11
1380.12895682076
 21
732.5305552428106
 31
0.0
  0
LINE
  5
300
330
19
100
AcDbEntity
  8
4
100
AcDbLine
 10
1376.87895682076
 20
728.2307502428105
 30
0.0
 11
1376.87895682076
 21
732.5305552428106
 31
0.0
  0
ARC
  5
301
330
19
100
AcDbEntity
  8
4
100
AcDbCircle
 10
1378.50395682076
 20
730.9949102428102
 30
0.0
 40
2.235805
100
AcDbArc
 50
43.38059600001328
 51
136.6194039999867
  0
LINE
  5
302
330
19
100
AcDbEntity
  8
4
100
AcDbLine
 10
1377.37895682076
 20
733.2307502428105
 30
0.0
 11
1377.37895682076
 21
732.9270402428103
 31
0.0
  0
LINE
  5
303
330
19
100
AcDbEntity
  8
4
100
AcDbLine
 10
1365.87895682076
 20
731.2307502428105
 30
0.0
 11
1376.87895682076
 21
731.2307502428105
 31
0.0
  0
ARC
  5
304
330
19
100
AcDbEntity
  8
4
100
AcDbCircle
 10
1373.37895682076
 20
733.2307502428105
 30
0.0
 40
4.0
100
AcDbArc
 50
0.0
 51
90.0
  0
LINE
  5
305
330
19
100
AcDbEntity
  8
4
100
AcDbLine
 10
1378.50395682076
 20
733.2307502428105
 30
0.0
 11
1383.37895682076
 21
733.2307502428105
 31
0.0
  0
LINE
  5
306
330
19
100
AcDbEntity
  8
4
100
AcDbLine
 10
1376.87895682076
 20
728.2307502428105
 30
0.0
 11
1383.37895682076
 21
728.2307502428105
 31
0.0
  0
ARC
  5
307
330
19
100
AcDbEntity
  8
4
100
AcDbCircle
 10
1383.37895682076
 20
725.3391502428105
 30
0.0
 40
7.89147
100
AcDbArc
 50
65.67971300000504
 51
114.320286999995
  0
LINE
  5
308
330
19
100
AcDbEntity
  8
4
100
AcDbLine
 10
1373.37895682076
 20
737.2307502428105
 30
0.0
 11
1383.37895682076
 21
737.2307502428105
 31
0.0
  0
LINE
  5
309
330
19
100
AcDbEntity
  8
4
100
AcDbLine
 10
1406.37895682076
 20
733.2307502428105
 30
0.0
 11
1406.37895682076
 21
737.2307502428105
 31
0.0
  0
LINE
  5
30A
330
19
100
AcDbEntity
  8
4
100
AcDbLine
 10
1400.43022682076
 20
733.2307502428105
 30
0.0
 11
1406.37895682076
 21
733.2307502428105
 31
0.0
  0
LINE
  5
30B
330
19
100
AcDbEntity
  8
4
100
AcDbLine
 10
1408.37895682076
 20
727.6052602428106
 30
0.0
 11
1408.37895682076
 21
731.2307502428105
 31
0.0
  0
LINE
  5
30C
330
19
100
AcDbEntity
  8
4
100
AcDbLine
 10
1403.37895682076
 20
727.8306052428104
 30
0.0
 11
1403.37895682076
 21
731.2307502428105
 31
0.0
  0
LINE
  5
30D
330
19
100
AcDbEntity
  8
4
100
AcDbLine
 10
1405.37895682076
 20
733.2307502428105
 30
0.0
 11
1405.37895682076
 21
731.2307502428105
 31
0.0
  0
LINE
  5
30E
330
19
100
AcDbEntity
  8
4
100
AcDbLine
 10
1399.53276682076
 20
737.2307502428105
 30
0.0
 11
1406.37895682076
 21
737.2307502428105
 31
0.0
  0
LINE
  5
30F
330
19
100
AcDbEntity
  8
4
100
AcDbLine
 10
1448.35649682076
 20
671.5112652428104
 30
0.0
 11
1456.84184682076
 21
679.9966202428106
 31
0.0
  0
LINE
  5
310
330
19
100
AcDbEntity
  8
4
100
AcDbLine
 10
1436.76518682076
 20
674.6169802428105
 30
0.0
 11
1448.35649682076
 21
671.5112652428104
 31
0.0
  0
ARC
  5
311
330
19
100
AcDbEntity
  8
4
100
AcDbCircle
 10
988.3789568207601
 20
621.2307502428105
 30
0.0
 40
499.999945
100
AcDbArc
 50
0.0
 51
10.89363600001011
  0
LINE
  5
312
330
19
100
AcDbEntity
  8
L-CENTER
 48
2.0
100
AcDbLine
 10
1465.133724250981
 20
702.9855028133111
 30
0.0
 11
1425.367227497264
 21
663.219279566423
 31
0.0
  0
CIRCLE
  5
313
330
19
100
AcDbEntity
  8
4
100
AcDbCircle
 10
1445.25053682076
 20
683.1023302428105
 30
0.0
 40
12.0
  0
LINE
  5
314
330
19
100
AcDbEntity
  8
4
100
AcDbLine
 10
1514.67885682076
 20
621.2307502428105
 30
0.0
 11
1492.37895682076
 21
621.2307502428105
 31
0.0
  0
LINE
  5
315
330
19
100
AcDbEntity
  8
4
100
AcDbLine
 10
1489.37895682076
 20
621.2307502428105
 30
0.0
 11
1492.37895682076
 21
621.2307502428105
 31
0.0
  0
LINE
  5
316
330
19
100
AcDbEntity
  8
4
100
AcDbLine
 10
1488.33598682076
 20
624.2307502428105
 30
0.0
 11
1489.37895682076
 21
624.2307502428105
 31
0.0
  0
LINE
  5
317
330
19
100
AcDbEntity
  8
4
100
AcDbLine
 10
1453.73589182076
 20
691.5876852428103
 30
0.0
 11
1442.14482682076
 21
694.6936402428103
 31
0.0
  0
CIRCLE
  5
318
330
19
100
AcDbEntity
  8
4
100
AcDbCircle
 10
1445.25078182076
 20
683.1025752428106
 30
0.0
 40
10.392335
  0
LINE
  5
319
330
19
100
AcDbEntity
  8
4
100
AcDbLine
 10
1433.65947182076
 20
686.2082902428103
 30
0.0
 11
1436.76518682076
 21
674.6169802428105
 31
0.0
  0
LINE
  5
31A
330
19
100
AcDbEntity
  8
4
100
AcDbLine
 10
1442.14482682076
 20
694.6936402428103
 30
0.0
 11
1433.65947182076
 21
686.2082902428103
 31
0.0
  0
LINE
  5
31B
330
19
100
AcDbEntity
  8
4
100
AcDbLine
 10
1456.84184682076
 20
679.9966202428106
 30
0.0
 11
1453.73589182076
 21
691.5876852428103
 31
0.0
  0
ARC
  5
31C
330
19
100
AcDbEntity
  8
4
100
AcDbCircle
 10
1474.458791820761
 20
714.7793352428105
 30
0.0
 40
4.99997
100
AcDbArc
 50
10.89239300001324
 51
79.39512500000019
  0
LINE
  5
320
330
19
100
AcDbEntity
  8
4
100
AcDbLine
 10
1526.67885682076
 20
583.7468652428104
 30
0.0
 11
1526.67885682076
 21
565.7468652428104
 31
0.0
  0
LINE
  5
32E
330
19
100
AcDbEntity
  8
4
100
AcDbLine
 10
1363.46025682076
 20
742.2307502428105
 30
0.0
 11
1368.34678182076
 21
742.2307502428105
 31
0.0
  0
LINE
  5
32F
330
19
100
AcDbEntity
  8
4
100
AcDbLine
 10
1391.37895682076
 20
750.2307502428105
 30
0.0
 11
1391.37895682076
 21
794.2307502428105
 31
0.0
  0
LINE
  5
330
330
19
100
AcDbEntity
  8
4
100
AcDbLine
 10
1375.37895682076
 20
750.2307502428105
 30
0.0
 11
1375.37895682076
 21
794.2307502428105
 31
0.0
  0
LINE
  5
331
330
19
100
AcDbEntity
  8
4
100
AcDbLine
 10
1394.37895682076
 20
749.2307502428105
 30
0.0
 11
1383.37895682076
 21
749.2307502428105
 31
0.0
  0
LINE
  5
332
330
19
100
AcDbEntity
  8
4
100
AcDbLine
 10
1383.37895682076
 20
747.2307502428105
 30
0.0
 11
1394.37895682076
 21
747.2307502428105
 31
0.0
  0
LINE
  5
333
330
19
100
AcDbEntity
  8
4
100
AcDbLine
 10
1392.37895682076
 20
750.2307502428105
 30
0.0
 11
1374.37895682076
 21
750.2307502428105
 31
0.0
  0
LINE
  5
334
330
19
100
AcDbEntity
  8
L-CENTER
 48
2.0
100
AcDbLine
 10
1399.37895682076
 20
766.2307502428105
 30
0.0
 11
1367.37895682076
 21
766.2307502428105
 31
0.0
  0
LINE
  5
335
330
19
100
AcDbEntity
  8
4
100
AcDbLine
 10
1374.37895682076
 20
750.2307502428105
 30
0.0
 11
1372.37895682076
 21
749.2307502428105
 31
0.0
  0
LINE
  5
336
330
19
100
AcDbEntity
  8
4
100
AcDbLine
 10
1372.37895682076
 20
749.2307502428105
 30
0.0
 11
1372.37895682076
 21
747.2307502428105
 31
0.0
  0
ARC
  5
337
330
19
100
AcDbEntity
  8
4
100
AcDbCircle
 10
1369.83623182076
 20
742.9307002428106
 30
0.0
 40
1.300075
100
AcDbArc
 50
90.0
 51
167.352158999999
  0
LINE
  5
338
330
19
100
AcDbEntity
  8
4
100
AcDbLine
 10
1373.37895682076
 20
744.2307502428105
 30
0.0
 11
1369.83623182076
 21
744.2307502428105
 31
0.0
  0
LINE
  5
339
330
19
100
AcDbEntity
  8
4
100
AcDbLine
 10
1373.37895682076
 20
744.7641952428105
 30
0.0
 11
1369.647511820761
 21
744.2168352428105
 31
0.0
  0
LINE
  5
33A
330
19
100
AcDbEntity
  8
4
100
AcDbLine
 10
1383.37895682076
 20
747.2307502428105
 30
0.0
 11
1372.37895682076
 21
747.2307502428105
 31
0.0
  0
LINE
  5
33B
330
19
100
AcDbEntity
  8
4
100
AcDbLine
 10
1372.37895682076
 20
749.2307502428105
 30
0.0
 11
1383.37895682076
 21
749.2307502428105
 31
0.0
  0
LINE
  5
33C
330
19
100
AcDbEntity
  8
4
100
AcDbLine
 10
1394.37895682076
 20
749.2307502428105
 30
0.0
 11
1394.37895682076
 21
747.2307502428105
 31
0.0
  0
LINE
  5
33D
330
19
100
AcDbEntity
  8
4
100
AcDbLine
 10
1392.37895682076
 20
750.2307502428105
 30
0.0
 11
1394.37895682076
 21
749.2307502428105
 31
0.0
  0
ARC
  5
33E
330
19
100
AcDbEntity
  8
4
100
AcDbCircle
 10
1396.92143682076
 20
742.9307002428106
 30
0.0
 40
1.300075
100
AcDbArc
 50
12.64784100000097
 51
90.0
  0
LINE
  5
33F
330
19
100
AcDbEntity
  8
4
100
AcDbLine
 10
1393.37895682076
 20
744.2307502428105
 30
0.0
 11
1396.92143682076
 21
744.2307502428105
 31
0.0
  0
LINE
  5
340
330
19
100
AcDbEntity
  8
4
100
AcDbLine
 10
1393.37895682076
 20
744.7641952428105
 30
0.0
 11
1397.11015682076
 21
744.2168352428105
 31
0.0
  0
LINE
  5
341
330
19
100
AcDbEntity
  8
4
100
AcDbLine
 10
1398.410906820761
 20
742.2307502428105
 30
0.0
 11
1403.29741182076
 21
742.2307502428105
 31
0.0
  0
ARC
  5
342
330
19
100
AcDbEntity
  8
4
100
AcDbCircle
 10
1383.37895682076
 20
794.2307502428105
 30
0.0
 40
8.0
100
AcDbArc
 50
0.0
 51
180.0
  0
LINE
  5
44D
330
19
100
AcDbEntity
  8
L-CENTER
 48
2.0
100
AcDbLine
 10
1468.580156594821
 20
167.7146352428106
 30
0.0
 11
1532.563178475818
 21
167.7146352428106
 31
0.0
  0
LINE
  5
44E
330
19
100
AcDbEntity
  8
L-CENTER
 48
2.0
100
AcDbLine
 10
225.4173572694899
 20
559.3589252428103
 30
0.0
 11
285.3514407405428
 21
559.3589252428103
 31
0.0
  0
LINE
  5
44F
330
19
100
AcDbEntity
  8
L-CENTER
 48
2.0
100
AcDbLine
 10
801.0387256600525
 20
683.1025752428106
 30
0.0
 11
741.1046421889996
 21
683.1025752428106
 31
0.0
  0
LINE
  5
450
330
19
100
AcDbEntity
  8
L-CENTER
 48
2.0
100
AcDbLine
 10
801.0387256600525
 20
559.3589252428103
 30
0.0
 11
741.1046421889996
 21
559.3589252428103
 31
0.0
  0
ARC
  5
48C
330
19
100
AcDbEntity
  8
4
100
AcDbCircle
 10
513.2280414647712
 20
561.2307502428102
 30
0.0
 40
23.0
100
AcDbArc
 50
180.0
 51
0.0
  0
LINE
  5
48D
330
19
100
AcDbEntity
  8
4
100
AcDbLine
 10
536.2280414647712
 20
561.2307502428102
 30
0.0
 11
536.2280414647712
 21
587.7925197220977
 31
0.0
  0
LINE
  5
48E
330
19
100
AcDbEntity
  8
4
100
AcDbLine
 10
597.7280414647689
 20
651.23075024281
 30
0.0
 11
622.7280414647685
 21
651.23075024281
 31
0.0
  0
LINE
  5
48F
330
19
100
AcDbEntity
  8
4
100
AcDbLine
 10
607.7280414647703
 20
661.2307502428096
 30
0.0
 11
622.7280414647689
 21
661.23075024281
 31
0.0
  0
LINE
  5
490
330
19
100
AcDbEntity
  8
4
100
AcDbLine
 10
595.2280414647685
 20
688.7307502428096
 30
0.0
 11
595.2280414647689
 21
653.73075024281
 31
0.0
  0
LINE
  5
491
330
19
100
AcDbEntity
  8
4
100
AcDbLine
 10
597.7280414647685
 20
691.2307502428096
 30
0.0
 11
602.7280414647703
 21
691.2307502428096
 31
0.0
  0
LINE
  5
492
330
19
100
AcDbEntity
  8
4
100
AcDbLine
 10
605.2280414647703
 20
688.7307502428096
 30
0.0
 11
605.2280414647703
 21
663.7307502428096
 31
0.0
  0
LINE
  5
493
330
19
100
AcDbEntity
  8
4
100
AcDbLine
 10
635.7280414647685
 20
651.23075024281
 30
0.0
 11
655.2280414647689
 21
651.23075024281
 31
0.0
  0
LINE
  5
494
330
19
100
AcDbEntity
  8
4
100
AcDbLine
 10
635.7280414647694
 20
691.23075024281
 30
0.0
 11
655.2280414647694
 21
691.23075024281
 31
0.0
  0
LINE
  5
495
330
19
100
AcDbEntity
  8
4
100
AcDbLine
 10
673.7280414647694
 20
666.23075024281
 30
0.0
 11
678.7280414647694
 21
666.23075024281
 31
0.0
  0
LINE
  5
496
330
19
100
AcDbEntity
  8
4
100
AcDbLine
 10
673.728041464768
 20
676.23075024281
 30
0.0
 11
678.7280414647685
 21
676.23075024281
 31
0.0
  0
LINE
  5
497
330
19
100
AcDbEntity
  8
4
100
AcDbLine
 10
681.2280414647685
 20
673.7307502428105
 30
0.0
 11
681.2280414647694
 21
668.7307502428105
 31
0.0
  0
LINE
  5
498
330
19
100
AcDbEntity
  8
4
100
AcDbLine
 10
671.228041464768
 20
673.7307502428091
 30
0.0
 11
671.2280414647694
 21
668.7307502428091
 31
0.0
  0
LINE
  5
499
330
19
100
AcDbEntity
  8
4
100
AcDbLine
 10
625.2280414647689
 20
658.73075024281
 30
0.0
 11
625.2280414647685
 21
653.73075024281
 31
0.0
  0
ARC
  5
49A
330
19
100
AcDbEntity
  8
4
100
AcDbCircle
 10
597.7280414647685
 20
688.7307502428096
 30
0.0
 40
2.5
100
AcDbArc
 50
90.0
 51
180.0
  0
ARC
  5
49B
330
19
100
AcDbEntity
  8
4
100
AcDbCircle
 10
602.7280414647703
 20
688.7307502428096
 30
0.0
 40
2.5
100
AcDbArc
 50
0.0
 51
90.0
  0
ARC
  5
49C
330
19
100
AcDbEntity
  8
4
100
AcDbCircle
 10
607.7280414647703
 20
663.7307502428096
 30
0.0
 40
2.5
100
AcDbArc
 50
180.0
 51
270.0
  0
ARC
  5
49D
330
19
100
AcDbEntity
  8
4
100
AcDbCircle
 10
622.7280414647689
 20
658.73075024281
 30
0.0
 40
2.5
100
AcDbArc
 50
0.0
 51
90.0
  0
ARC
  5
49E
330
19
100
AcDbEntity
  8
4
100
AcDbCircle
 10
622.7280414647685
 20
653.73075024281
 30
0.0
 40
2.5
100
AcDbArc
 50
270.0
 51
0.0
  0
ARC
  5
49F
330
19
100
AcDbEntity
  8
4
100
AcDbCircle
 10
597.7280414647689
 20
653.73075024281
 30
0.0
 40
2.5
100
AcDbArc
 50
180.0
 51
270.0
  0
LINE
  5
4A0
330
19
100
AcDbEntity
  8
4
100
AcDbLine
 10
633.2280414647694
 20
688.73075024281
 30
0.0
 11
633.2280414647685
 21
653.73075024281
 31
0.0
  0
LINE
  5
4A1
330
19
100
AcDbEntity
  8
4
100
AcDbLine
 10
663.2280414647694
 20
683.23075024281
 30
0.0
 11
663.2280414647694
 21
681.4777010087698
 31
0.0
  0
ARC
  5
4A2
330
19
100
AcDbEntity
  8
4
100
AcDbCircle
 10
635.7280414647685
 20
653.73075024281
 30
0.0
 40
2.5
100
AcDbArc
 50
180.0
 51
270.0
  0
ARC
  5
4A3
330
19
100
AcDbEntity
  8
4
100
AcDbCircle
 10
635.7280414647694
 20
688.73075024281
 30
0.0
 40
2.5
100
AcDbArc
 50
90.0
 51
180.0
  0
ARC
  5
4A4
330
19
100
AcDbEntity
  8
4
100
AcDbCircle
 10
655.2280414647689
 20
659.23075024281
 30
0.0
 40
8.0
100
AcDbArc
 50
270.0
 51
0.0
  0
ARC
  5
4A5
330
19
100
AcDbEntity
  8
4
100
AcDbCircle
 10
655.2280414647694
 20
683.23075024281
 30
0.0
 40
8.0
100
AcDbArc
 50
0.0
 51
90.0
  0
ARC
  5
4A6
330
19
100
AcDbEntity
  8
4
100
AcDbCircle
 10
663.2280414647694
 20
671.23075024281
 30
0.0
 40
5.0
100
AcDbArc
 50
127.9798724448621
 51
232.0201275551379
  0
LINE
  5
4A7
330
19
100
AcDbEntity
  8
4
100
AcDbLine
 10
663.2280414647689
 20
660.9837994768507
 30
0.0
 11
663.2280414647689
 21
659.2307502428096
 31
0.0
  0
ARC
  5
4A8
330
19
100
AcDbEntity
  8
4
100
AcDbCircle
 10
655.2280414647694
 20
681.4777010087698
 30
0.0
 40
8.0
100
AcDbArc
 50
307.9798724448621
 51
0.0
  0
ARC
  5
4A9
330
19
100
AcDbEntity
  8
4
100
AcDbCircle
 10
655.2280414647689
 20
660.9837994768507
 30
0.0
 40
8.0
100
AcDbArc
 50
0.0
 51
52.02012755513794
  0
ARC
  5
4AA
330
19
100
AcDbEntity
  8
4
100
AcDbCircle
 10
673.7280414647694
 20
668.73075024281
 30
0.0
 40
2.5
100
AcDbArc
 50
180.0
 51
270.0
  0
ARC
  5
4AB
330
19
100
AcDbEntity
  8
4
100
AcDbCircle
 10
673.728041464768
 20
673.73075024281
 30
0.0
 40
2.5
100
AcDbArc
 50
90.0
 51
180.0
  0
ARC
  5
4AC
330
19
100
AcDbEntity
  8
4
100
AcDbCircle
 10
678.7280414647685
 20
673.73075024281
 30
0.0
 40
2.5
100
AcDbArc
 50
0.0
 51
90.0
  0
ARC
  5
4AD
330
19
100
AcDbEntity
  8
4
100
AcDbCircle
 10
678.7280414647694
 20
668.73075024281
 30
0.0
 40
2.5
100
AcDbArc
 50
270.0
 51
0.0
  0
LINE
  5
4AE
330
19
100
AcDbEntity
  8
4
100
AcDbLine
 10
702.8233240644204
 20
651.2307502428096
 30
0.0
 11
696.9693131631716
 21
651.2307502428096
 31
0.0
  0
LINE
  5
4AF
330
19
100
AcDbEntity
  8
4
100
AcDbLine
 10
707.2280414647707
 20
691.23075024281
 30
0.0
 11
701.2280414647707
 21
691.23075024281
 31
0.0
  0
ARC
  5
4B0
330
19
100
AcDbEntity
  8
4
100
AcDbCircle
 10
707.2280414647707
 20
679.23075024281
 30
0.0
 40
12.0
100
AcDbArc
 50
328.6621287348042
 51
90.0
  0
ARC
  5
4B1
330
19
100
AcDbEntity
  8
4
100
AcDbCircle
 10
701.2280414647707
 20
679.23075024281
 30
0.0
 40
12.0
100
AcDbArc
 50
90.0
 51
236.1537534422866
  0
LINE
  5
4B2
330
19
100
AcDbEntity
  8
4
100
AcDbLine
 10
704.9586121960729
 20
652.430540800133
 30
0.0
 11
717.4774244967016
 21
672.9897449179628
 31
0.0
  0
LINE
  5
4B3
330
19
100
AcDbEntity
  8
4
100
AcDbLine
 10
694.8340250315191
 20
655.0309596854861
 30
0.0
 11
696.9216401413623
 21
658.4593763860528
 31
0.0
  0
ARC
  5
4B4
330
19
100
AcDbEntity
  8
4
100
AcDbCircle
 10
690.0887181200751
 20
662.6200466026173
 30
0.0
 40
8.0
100
AcDbArc
 50
328.662128734804
 51
56.15375344228622
  0
ARC
  5
4B5
330
19
100
AcDbEntity
  8
4
100
AcDbCircle
 10
702.8233240644204
 20
653.7307502428096
 30
0.0
 40
2.5
100
AcDbArc
 50
270.0
 51
328.6621287348021
  0
ARC
  5
4B6
330
19
100
AcDbEntity
  8
4
100
AcDbCircle
 10
696.9693131631716
 20
653.7307502428096
 30
0.0
 40
2.5
100
AcDbArc
 50
148.6621287348021
 51
270.0
  0
LINE
  5
4B7
330
19
100
AcDbEntity
  8
4
100
AcDbLine
 10
591.2280414647685
 20
703.23075024281
 30
0.0
 11
723.2280414647712
 21
703.23075024281
 31
0.0
  0
LINE
  5
4B8
330
19
100
AcDbEntity
  8
4
100
AcDbLine
 10
591.2280414647685
 20
639.2307502428105
 30
0.0
 11
723.2280414647712
 21
639.2307502428091
 31
0.0
  0
LINE
  5
4B9
330
19
100
AcDbEntity
  8
4
100
AcDbLine
 10
731.2280414647712
 20
695.23075024281
 30
0.0
 11
731.2280414647712
 21
647.2307502428091
 31
0.0
  0
LINE
  5
4BA
330
19
100
AcDbEntity
  8
4
100
AcDbLine
 10
583.2280414647685
 20
695.23075024281
 30
0.0
 11
583.2280414647685
 21
647.2307502428105
 31
0.0
  0
ARC
  5
4BB
330
19
100
AcDbEntity
  8
4
100
AcDbCircle
 10
591.2280414647685
 20
695.23075024281
 30
0.0
 40
8.0
100
AcDbArc
 50
90.0
 51
180.0
  0
ARC
  5
4BC
330
19
100
AcDbEntity
  8
4
100
AcDbCircle
 10
723.2280414647712
 20
695.23075024281
 30
0.0
 40
8.0
100
AcDbArc
 50
0.0
 51
90.0
  0
ARC
  5
4BD
330
19
100
AcDbEntity
  8
4
100
AcDbCircle
 10
723.2280414647712
 20
647.2307502428091
 30
0.0
 40
8.0
100
AcDbArc
 50
270.0
 51
0.0
  0
ARC
  5
4BE
330
19
100
AcDbEntity
  8
4
100
AcDbCircle
 10
591.2280414647685
 20
647.2307502428105
 30
0.0
 40
8.0
100
AcDbArc
 50
180.0
 51
270.0
  0
LINE
  5
4BF
330
19
100
AcDbEntity
  8
4
100
AcDbLine
 10
1281.892277412797
 20
703.23075024281
 30
0.0
 11
1285.148757015435
 21
703.23075024281
 31
0.0
  0
ARC
  5
4C0
330
19
100
AcDbEntity
  8
4
100
AcDbCircle
 10
1281.892277412797
 20
701.23075024281
 30
0.0
 40
2.0
100
AcDbArc
 50
90.0
 51
174.2948654962331
  0
LINE
  5
4C1
330
19
100
AcDbEntity
  8
4
100
AcDbLine
 10
1275.898050788371
 20
639.2307502428107
 30
0.0
 11
1278.703031845381
 21
639.2307502428107
 31
0.0
  0
ARC
  5
4C2
330
19
100
AcDbEntity
  8
4
100
AcDbCircle
 10
1275.898050788371
 20
641.2307502428107
 30
0.0
 40
2.0
100
AcDbArc
 50
174.2948654962331
 51
270.0
  0
LINE
  5
4C3
330
19
100
AcDbEntity
  8
4
100
AcDbLine
 10
1279.902184081745
 20
701.4295680833116
 30
0.0
 11
1273.907957457319
 21
641.4295680833122
 31
0.0
  0
LINE
  5
4C4
330
19
100
AcDbEntity
  8
4
100
AcDbLine
 10
490.2280414647712
 20
561.2307502428102
 30
0.0
 11
490.228041464771
 21
587.7925197220977
 31
0.0
  0
LINE
  5
4C5
330
19
100
AcDbEntity
  8
4
100
AcDbLine
 10
556.1701298644753
 20
582.9934377830828
 30
0.0
 11
570.334976464771
 21
451.8096052428102
 31
0.0
  0
ARC
  5
4C6
330
19
100
AcDbEntity
  8
4
100
AcDbCircle
 10
575.3061664647712
 20
452.3464702428103
 30
0.0
 40
5.000025
100
AcDbArc
 50
186.1637819999897
 51
258.2544110000051
  0
ARC
  5
4C7
330
19
100
AcDbEntity
  8
4
100
AcDbCircle
 10
559.1528464647713
 20
583.3154652428104
 30
0.0
 40
3.00005
100
AcDbArc
 50
77.78018600000121
 51
186.1620410000109
  0
LINE
  5
4CB
330
19
100
AcDbEntity
  8
L-CENTER
 48
2.0
100
AcDbLine
 10
248.3535940116881
 20
1178.794241057476
 30
0.0
 11
294.9487679583108
 21
1178.794241057476
 31
0.0
  0
LINE
  5
4CC
330
19
100
AcDbEntity
  8
4
100
AcDbLine
 10
241.6511809849994
 20
1138.794241057476
 30
0.0
 11
326.6511809849994
 21
1138.794241057477
 31
0.0
  0
LINE
  5
4CD
330
19
100
AcDbEntity
  8
4
100
AcDbLine
 10
241.6511809849994
 20
1488.794241057477
 30
0.0
 11
326.6511809849994
 21
1488.794241057477
 31
0.0
  0
LINE
  5
4CE
330
19
100
AcDbEntity
  8
L-CENTER
 48
2.0
100
AcDbLine
 10
248.3535940116881
 20
1448.794241057477
 30
0.0
 11
294.9487679583108
 21
1448.794241057477
 31
0.0
  0
LINE
  5
4CF
330
19
100
AcDbEntity
  8
4
100
AcDbLine
 10
255.6511809849994
 20
1445.194241057476
 30
0.0
 11
757.6511809849994
 21
1445.194241057476
 31
0.0
  0
LINE
  5
4D0
330
19
100
AcDbEntity
  8
4
100
AcDbLine
 10
254.6511809849994
 20
1423.194241057476
 30
0.0
 11
758.6511809849994
 21
1423.194241057476
 31
0.0
  0
LINE
  5
4D1
330
19
100
AcDbEntity
  8
4
100
AcDbLine
 10
256.6511809849994
 20
1184.794241057477
 30
0.0
 11
756.6511809849994
 21
1184.794241057477
 31
0.0
  0
LINE
  5
4D2
330
19
100
AcDbEntity
  8
4
100
AcDbLine
 10
236.8511809849992
 20
1207.794241057477
 30
0.0
 11
576.6511809849967
 21
1207.794241057477
 31
0.0
  0
LINE
  5
4D3
330
19
100
AcDbEntity
  8
4
100
AcDbLine
 10
236.8511809849992
 20
1419.794241057477
 30
0.0
 11
776.4511809849996
 21
1419.794241057477
 31
0.0
  0
LINE
  5
4D4
330
19
100
AcDbEntity
  8
4
100
AcDbLine
 10
253.6511809849994
 20
1208.794241057476
 30
0.0
 11
759.6511809849994
 21
1208.794241057476
 31
0.0
  0
LINE
  5
4D5
330
19
100
AcDbEntity
  8
4
100
AcDbLine
 10
253.6511809849994
 20
1418.794241057477
 30
0.0
 11
759.6511809849994
 21
1418.794241057477
 31
0.0
  0
LINE
  5
4D6
330
19
100
AcDbEntity
  8
L-CENTER
 48
2.0
100
AcDbLine
 10
224.2988394574194
 20
1313.794241057477
 30
0.0
 11
919.8423307885714
 21
1313.794241057477
 31
0.0
  0
LINE
  5
4D7
330
19
100
AcDbEntity
  8
4
100
AcDbLine
 10
231.6511809849994
 20
1239.922416057477
 30
0.0
 11
231.6511809849994
 21
1148.794241057476
 31
0.0
  0
LINE
  5
4D8
330
19
100
AcDbEntity
  8
4
100
AcDbLine
 10
258.6511809849994
 20
1304.574696600184
 30
0.0
 11
258.6511809849994
 21
1208.794241057477
 31
0.0
  0
LINE
  5
4D9
330
19
100
AcDbEntity
  8
4
100
AcDbLine
 10
236.8511809849992
 20
1419.794241057477
 30
0.0
 11
236.8511809849992
 21
1207.794241057477
 31
0.0
  0
LINE
  5
4DA
330
19
100
AcDbEntity
  8
4
100
AcDbLine
 10
253.6511809849994
 20
1419.794241057477
 30
0.0
 11
253.6511809849994
 21
1207.794241057477
 31
0.0
  0
ARC
  5
4DB
330
19
100
AcDbEntity
  8
4
100
AcDbCircle
 10
241.6511809849994
 20
1148.794241057476
 30
0.0
 40
10.0
100
AcDbArc
 50
180.0
 51
270.0
  0
LINE
  5
4DC
330
19
100
AcDbEntity
  8
L-CENTER
 48
2.0
100
AcDbLine
 10
271.6511809849994
 20
1155.496654084165
 30
0.0
 11
271.6511809849994
 21
1202.091828030788
 31
0.0
  0
LINE
  5
4DD
330
19
100
AcDbEntity
  8
4
100
AcDbLine
 10
256.6511809849994
 20
1207.794241057477
 30
0.0
 11
256.6511809849994
 21
1184.794241057477
 31
0.0
  0
ARC
  5
4DE
330
19
100
AcDbEntity
  8
2
  6
DASHED
100
AcDbCircle
 10
271.6511809849994
 20
1178.794241057476
 30
0.0
 40
12.0
100
AcDbArc
 50
30.00000000000121
 51
149.9999999999988
  0
ARC
  5
4E0
330
19
100
AcDbEntity
  8
4
100
AcDbCircle
 10
271.6511809849994
 20
1178.794241057476
 30
0.0
 40
12.0
100
AcDbArc
 50
149.9999999999988
 51
30.00000000000121
  0
LINE
  5
4E1
330
19
100
AcDbEntity
  8
4
100
AcDbLine
 10
231.6511809849994
 20
1478.794241057477
 30
0.0
 11
231.6511809849994
 21
1387.666066057477
 31
0.0
  0
LINE
  5
4E2
330
19
100
AcDbEntity
  8
L-CENTER
 48
2.0
100
AcDbLine
 10
271.6511809849994
 20
1407.819488192372
 30
0.0
 11
271.6511809849994
 21
1462.993571995467
 31
0.0
  0
LINE
  5
4E3
330
19
100
AcDbEntity
  8
4
100
AcDbLine
 10
258.6511809849994
 20
1418.794241057477
 30
0.0
 11
258.6511809849994
 21
1323.013785514769
 31
0.0
  0
CIRCLE
  5
4E5
330
19
100
AcDbEntity
  8
4
100
AcDbCircle
 10
264.6511809849994
 20
1313.794241057477
 30
0.0
 40
11.0
  0
LINE
  5
4E6
330
19
100
AcDbEntity
  8
L-CENTER
 48
2.0
100
AcDbLine
 10
264.6511809849994
 20
1331.234066701557
 30
0.0
 11
264.6511809849994
 21
1297.488789095298
 31
0.0
  0
LINE
  5
4E7
330
19
100
AcDbEntity
  8
L-CENTER
 48
2.0
100
AcDbLine
 10
219.9999711494143
 20
1251.922416057483
 30
0.0
 11
268.4276862821721
 21
1251.922416057482
 31
0.0
  0
LINE
  5
4E8
330
19
100
AcDbEntity
  8
4
100
AcDbLine
 10
225.8808209849994
 20
1239.922416057477
 30
0.0
 11
233.8512809849994
 21
1239.922416057477
 31
0.0
  0
LINE
  5
4E9
330
19
100
AcDbEntity
  8
4
100
AcDbLine
 10
233.8512809849994
 20
1245.922416057477
 30
0.0
 11
225.8808209849994
 21
1245.922416057477
 31
0.0
  0
LINE
  5
4EA
330
19
100
AcDbEntity
  8
4
100
AcDbLine
 10
225.8808209849994
 20
1263.922416057477
 30
0.0
 11
233.8512809849994
 21
1263.922416057477
 31
0.0
  0
LINE
  5
4EB
330
19
100
AcDbEntity
  8
4
100
AcDbLine
 10
233.8512809849994
 20
1257.922416057477
 30
0.0
 11
225.8808209849994
 21
1257.922416057477
 31
0.0
  0
ARC
  5
4EC
330
19
100
AcDbEntity
  8
4
100
AcDbCircle
 10
229.4350209849995
 20
1260.922416057477
 30
0.0
 40
4.58369
100
AcDbArc
 50
139.1186700000007
 51
220.8813299999993
  0
ARC
  5
4ED
330
19
100
AcDbEntity
  8
4
100
AcDbCircle
 10
229.4350209849995
 20
1242.922416057477
 30
0.0
 40
4.58369
100
AcDbArc
 50
139.1186700000007
 51
220.8813299999993
  0
ARC
  5
4EE
330
19
100
AcDbEntity
  8
4
100
AcDbCircle
 10
242.8512809849994
 20
1251.922416057476
 30
0.0
 40
18.00009
100
AcDbArc
 50
160.5289280000003
 51
199.4703399999999
  0
LINE
  5
4EF
330
19
100
AcDbEntity
  8
4
100
AcDbLine
 10
224.8512809849994
 20
1260.922416057477
 30
0.0
 11
224.8512809849994
 21
1242.922416057477
 31
0.0
  0
LINE
  5
4F0
330
19
100
AcDbEntity
  8
4
100
AcDbLine
 10
233.8512809849994
 20
1263.922416057477
 30
0.0
 11
233.8512809849994
 21
1239.922416057477
 31
0.0
  0
LINE
  5
4F1
330
19
100
AcDbEntity
  8
4
100
AcDbLine
 10
236.8512809849994
 20
1239.922416057477
 30
0.0
 11
236.8512809849994
 21
1263.922416057477
 31
0.0
  0
LINE
  5
4F2
330
19
100
AcDbEntity
  8
4
100
AcDbLine
 10
236.8512809849994
 20
1239.922416057477
 30
0.0
 11
233.8512809849994
 21
1239.922416057477
 31
0.0
  0
LINE
  5
4F3
330
19
100
AcDbEntity
  8
4
100
AcDbLine
 10
236.8512809849994
 20
1263.922416057477
 30
0.0
 11
233.8512809849994
 21
1263.922416057477
 31
0.0
  0
LINE
  5
4F4
330
19
100
AcDbEntity
  8
L-CENTER
 48
2.0
100
AcDbLine
 10
218.2280011494172
 20
1375.666066057483
 30
0.0
 11
268.4276862821748
 21
1375.666066057481
 31
0.0
  0
LINE
  5
4F5
330
19
100
AcDbEntity
  8
4
100
AcDbLine
 10
233.8512809849994
 20
1369.666066057477
 30
0.0
 11
225.8808209849994
 21
1369.666066057477
 31
0.0
  0
LINE
  5
4F6
330
19
100
AcDbEntity
  8
4
100
AcDbLine
 10
233.8512809849994
 20
1381.666066057477
 30
0.0
 11
225.8808209849994
 21
1381.666066057477
 31
0.0
  0
LINE
  5
4F7
330
19
100
AcDbEntity
  8
4
100
AcDbLine
 10
225.8808209849994
 20
1387.666066057477
 30
0.0
 11
233.8512809849994
 21
1387.666066057477
 31
0.0
  0
LINE
  5
4F8
330
19
100
AcDbEntity
  8
4
100
AcDbLine
 10
225.8808209849994
 20
1363.666066057477
 30
0.0
 11
233.8512809849994
 21
1363.666066057477
 31
0.0
  0
ARC
  5
4F9
330
19
100
AcDbEntity
  8
4
100
AcDbCircle
 10
229.4350209849995
 20
1384.666066057477
 30
0.0
 40
4.583600000000001
100
AcDbArc
 50
139.1186700000058
 51
220.8833260000026
  0
ARC
  5
4FA
330
19
100
AcDbEntity
  8
4
100
AcDbCircle
 10
242.8512809849994
 20
1375.666066057477
 30
0.0
 40
17.999975
100
AcDbArc
 50
160.5296600000026
 51
199.4713310000026
  0
LINE
  5
4FB
330
19
100
AcDbEntity
  8
4
100
AcDbLine
 10
224.8512809849994
 20
1366.666066057477
 30
0.0
 11
224.8512809849994
 21
1384.666066057477
 31
0.0
  0
ARC
  5
4FC
330
19
100
AcDbEntity
  8
4
100
AcDbCircle
 10
229.4350209849995
 20
1366.666066057477
 30
0.0
 40
4.583600000000001
100
AcDbArc
 50
139.1186700000063
 51
220.8833260000026
  0
LINE
  5
4FD
330
19
100
AcDbEntity
  8
4
100
AcDbLine
 10
236.8512809849994
 20
1387.666066057477
 30
0.0
 11
233.8512809849994
 21
1387.666066057477
 31
0.0
  0
LINE
  5
4FE
330
19
100
AcDbEntity
  8
4
100
AcDbLine
 10
236.8512809849994
 20
1363.666066057477
 30
0.0
 11
233.8512809849994
 21
1363.666066057477
 31
0.0
  0
LINE
  5
4FF
330
19
100
AcDbEntity
  8
4
100
AcDbLine
 10
236.8512809849994
 20
1387.666066057477
 30
0.0
 11
236.8512809849994
 21
1363.666066057477
 31
0.0
  0
LINE
  5
500
330
19
100
AcDbEntity
  8
4
100
AcDbLine
 10
233.8512809849994
 20
1363.666066057477
 30
0.0
 11
233.8512809849994
 21
1387.666066057477
 31
0.0
  0
ARC
  5
501
330
19
100
AcDbEntity
  8
4
100
AcDbCircle
 10
241.6511809849994
 20
1478.794241057477
 30
0.0
 40
10.0
100
AcDbArc
 50
90.0
 51
180.0
  0
ARC
  5
502
330
19
100
AcDbEntity
  8
2
  6
DASHED
100
AcDbCircle
 10
271.6511809849994
 20
1448.794241057477
 30
0.0
 40
12.0
100
AcDbArc
 50
135.5729959991965
 51
44.42700400080346
  0
LINE
  5
503
330
19
100
AcDbEntity
  8
L-CENTER
 48
2.0
100
AcDbLine
 10
271.6511809849994
 20
1472.091828030788
 30
0.0
 11
271.6511809849994
 21
1425.496654084165
 31
0.0
  0
ARC
  5
504
330
19
100
AcDbEntity
  8
4
100
AcDbCircle
 10
262.6511809849994
 20
1452.610501057476
 30
0.0
 40
4.583600000000001
100
AcDbArc
 50
49.11667400001003
 51
130.8813299999983
  0
ARC
  5
505
330
19
100
AcDbEntity
  8
4
100
AcDbCircle
 10
280.6511809849994
 20
1452.610501057476
 30
0.0
 40
4.583600000000001
100
AcDbArc
 50
49.11667400001003
 51
130.8813299999983
  0
ARC
  5
506
330
19
100
AcDbEntity
  8
4
100
AcDbCircle
 10
271.6511809849994
 20
1439.194241057476
 30
0.0
 40
17.999975
100
AcDbArc
 50
70.52866900000032
 51
109.4703399999997
  0
ARC
  5
507
330
19
100
AcDbEntity
  8
4
100
AcDbCircle
 10
255.6511809849994
 20
1444.194241057476
 30
0.0
 40
1.0
100
AcDbArc
 50
90.0
 51
180.0
  0
LINE
  5
508
330
19
100
AcDbEntity
  8
4
100
AcDbLine
 10
254.6511809849994
 20
1444.194241057476
 30
0.0
 11
254.6511809849994
 21
1423.194241057476
 31
0.0
  0
LINE
  5
509
330
19
100
AcDbEntity
  8
4
100
AcDbLine
 10
256.6511809849994
 20
1423.194241057476
 30
0.0
 11
256.6511809849994
 21
1419.794241057477
 31
0.0
  0
LINE
  5
50A
330
19
100
AcDbEntity
  8
4
100
AcDbLine
 10
265.6511809849994
 20
1448.194241057476
 30
0.0
 11
265.6511809849994
 21
1456.164701057477
 31
0.0
  0
LINE
  5
50B
330
19
100
AcDbEntity
  8
4
100
AcDbLine
 10
259.6511809849994
 20
1456.164701057477
 30
0.0
 11
259.6511809849994
 21
1448.194241057476
 31
0.0
  0
LINE
  5
50C
330
19
100
AcDbEntity
  8
4
100
AcDbLine
 10
277.6511809849994
 20
1448.194241057476
 30
0.0
 11
277.6511809849994
 21
1456.164701057477
 31
0.0
  0
LINE
  5
50D
330
19
100
AcDbEntity
  8
4
100
AcDbLine
 10
283.6511809849994
 20
1456.164701057477
 30
0.0
 11
283.6511809849994
 21
1448.194241057476
 31
0.0
  0
LINE
  5
50E
330
19
100
AcDbEntity
  8
4
100
AcDbLine
 10
283.6511809849994
 20
1448.194241057476
 30
0.0
 11
259.6511809849994
 21
1448.194241057476
 31
0.0
  0
LINE
  5
50F
330
19
100
AcDbEntity
  8
4
100
AcDbLine
 10
259.6511809849994
 20
1445.194241057476
 30
0.0
 11
283.6511809849994
 21
1445.194241057476
 31
0.0
  0
LINE
  5
510
330
19
100
AcDbEntity
  8
4
100
AcDbLine
 10
283.6511809849994
 20
1445.194241057476
 30
0.0
 11
283.6511809849994
 21
1448.194241057476
 31
0.0
  0
LINE
  5
511
330
19
100
AcDbEntity
  8
4
100
AcDbLine
 10
259.6511809849994
 20
1445.194241057476
 30
0.0
 11
259.6511809849994
 21
1448.194241057476
 31
0.0
  0
ARC
  5
512
330
19
100
AcDbEntity
  8
4
100
AcDbCircle
 10
271.6511809849994
 20
1448.794241057477
 30
0.0
 40
12.0
100
AcDbArc
 50
44.42700400080346
 51
135.5729959991965
  0
LINE
  5
513
330
19
100
AcDbEntity
  8
4
100
AcDbLine
 10
280.6511809849994
 20
1457.194241057476
 30
0.0
 11
262.6511809849994
 21
1457.194241057476
 31
0.0
  0
LINE
  5
514
330
19
100
AcDbEntity
  8
4
100
AcDbLine
 10
781.6511809849994
 20
1239.922416057477
 30
0.0
 11
781.6511809849994
 21
1148.794241057476
 31
0.0
  0
LINE
  5
515
330
19
100
AcDbEntity
  8
4
100
AcDbLine
 10
754.6511809849994
 20
1304.574696600184
 30
0.0
 11
754.6511809849994
 21
1208.794241057477
 31
0.0
  0
LINE
  5
516
330
19
100
AcDbEntity
  8
4
100
AcDbLine
 10
776.4511809849996
 20
1419.794241057477
 30
0.0
 11
776.4511809849992
 21
1207.794241057476
 31
0.0
  0
LINE
  5
517
330
19
100
AcDbEntity
  8
L-CENTER
 48
2.0
100
AcDbLine
 10
506.6511809849994
 20
1670.345538647902
 30
0.0
 11
506.6511809849994
 21
1120.102826341707
 31
0.0
  0
LINE
  5
518
330
19
100
AcDbEntity
  8
4
100
AcDbLine
 10
759.6511809849994
 20
1419.794241057477
 30
0.0
 11
759.6511809849994
 21
1207.794241057476
 31
0.0
  0
LINE
  5
519
330
19
100
AcDbEntity
  8
4
100
AcDbLine
 10
771.6511809849994
 20
1138.794241057476
 30
0.0
 11
686.6511809849994
 21
1138.794241057477
 31
0.0
  0
LINE
  5
51A
330
19
100
AcDbEntity
  8
4
100
AcDbLine
 10
582.2823072576243
 20
1151.799267507449
 30
0.0
 11
721.6679462786346
 21
1184.794241057476
 31
0.0
  0
LINE
  5
51B
330
19
100
AcDbEntity
  8
4
100
AcDbLine
 10
722.8506675869862
 20
1184.794241057476
 30
0.0
 11
588.6778601086967
 21
1151.616965026481
 31
0.0
  0
LINE
  5
51C
330
19
100
AcDbEntity
  8
4
100
AcDbLine
 10
582.2823072576243
 20
1153.794241057476
 30
0.0
 11
713.2402788741169
 21
1184.794241057476
 31
0.0
  0
LINE
  5
525
330
19
100
AcDbEntity
  8
4
100
AcDbLine
 10
448.9889957973278
 20
1151.799267507449
 30
0.0
 11
564.3133661726706
 21
1151.799267507449
 31
0.0
  0
LINE
  5
526
330
19
100
AcDbEntity
  8
4
100
AcDbLine
 10
584.151180984999
 20
1130.794241057476
 30
0.0
 11
429.151180984999
 21
1130.794241057476
 31
0.0
  0
LINE
  5
527
330
19
100
AcDbEntity
  8
4
100
AcDbLine
 10
431.0200547123745
 20
1153.794241057476
 30
0.0
 11
300.0620830958819
 21
1184.794241057476
 31
0.0
  0
LINE
  5
528
330
19
100
AcDbEntity
  8
4
100
AcDbLine
 10
290.4516943830126
 20
1184.794241057476
 30
0.0
 11
424.6245018613022
 21
1151.616965026481
 31
0.0
  0
LINE
  5
529
330
19
100
AcDbEntity
  8
4
100
AcDbLine
 10
431.0200547123745
 20
1151.799267507449
 30
0.0
 11
291.6344156913642
 21
1184.794241057476
 31
0.0
  0
LINE
  5
52A
330
19
100
AcDbEntity
  8
4
100
AcDbLine
 10
336.6511809849994
 20
1173.370368006803
 30
0.0
 11
336.6511809849994
 21
1148.794241057477
 31
0.0
  0
ARC
  5
52B
330
19
100
AcDbEntity
  8
4
100
AcDbCircle
 10
326.6511809849994
 20
1148.794241057477
 30
0.0
 40
10.0
100
AcDbArc
 50
270.0
 51
0.0
  0
LINE
  5
530
330
19
100
AcDbEntity
  8
4
100
AcDbLine
 10
448.9889957973273
 20
1153.794241057476
 30
0.0
 11
431.0200547123745
 21
1153.794241057476
 31
0.0
  0
ARC
  5
536
330
19
100
AcDbEntity
  8
4
100
AcDbCircle
 10
422.2560923796177
 20
1150.128384227771
 30
0.0
 40
2.0
100
AcDbArc
 50
14.03624346792646
 51
76.89891387042832
  0
LINE
  5
537
330
19
100
AcDbEntity
  8
4
100
AcDbLine
 10
431.0200547123745
 20
1151.799267507449
 30
0.0
 11
431.0200547123745
 21
1153.794241057476
 31
0.0
  0
LINE
  5
538
330
19
100
AcDbEntity
  8
4
100
AcDbLine
 10
431.0200547123745
 20
1151.799267507449
 30
0.0
 11
423.355250723846
 21
1151.799267507449
 31
0.0
  0
LINE
  5
539
330
19
100
AcDbEntity
  8
4
100
AcDbLine
 10
429.1511809849994
 20
1130.794241057476
 30
0.0
 11
424.1963773799084
 21
1150.613455477842
 31
0.0
  0
LINE
  5
53E
330
19
100
AcDbEntity
  8
4
100
AcDbLine
 10
463.6668597915706
 20
1184.794241057477
 30
0.0
 11
448.9889957973278
 21
1151.799267507449
 31
0.0
  0
LINE
  5
53F
330
19
100
AcDbEntity
  8
4
100
AcDbLine
 10
462.7793927840578
 20
1184.794241057477
 30
0.0
 11
448.9889957973278
 21
1153.794241057476
 31
0.0
  0
LINE
  5
540
330
19
100
AcDbEntity
  8
4
100
AcDbLine
 10
448.9889957973278
 20
1151.799267507449
 30
0.0
 11
448.9889957973278
 21
1153.794241057476
 31
0.0
  0
LINE
  5
55A
330
19
100
AcDbEntity
  8
4
100
AcDbLine
 10
564.3133661726715
 20
1153.794241057476
 30
0.0
 11
582.2823072576243
 21
1153.794241057476
 31
0.0
  0
LINE
  5
55B
330
19
100
AcDbEntity
  8
4
100
AcDbLine
 10
549.6355021784283
 20
1184.794241057477
 30
0.0
 11
564.3133661726711
 21
1151.799267507449
 31
0.0
  0
LINE
  5
55C
330
19
100
AcDbEntity
  8
4
100
AcDbLine
 10
550.5229691859392
 20
1184.794241057477
 30
0.0
 11
564.3133661726711
 21
1153.794241057476
 31
0.0
  0
LINE
  5
55D
330
19
100
AcDbEntity
  8
4
100
AcDbLine
 10
564.3133661726711
 20
1151.799267507449
 30
0.0
 11
564.3133661726711
 21
1153.794241057476
 31
0.0
  0
LINE
  5
55F
330
19
100
AcDbEntity
  8
4
100
AcDbLine
 10
582.2823072576243
 20
1151.799267507449
 30
0.0
 11
589.9471112461529
 21
1151.799267507449
 31
0.0
  0
LINE
  5
560
330
19
100
AcDbEntity
  8
4
100
AcDbLine
 10
582.2823072576243
 20
1151.799267507449
 30
0.0
 11
582.2823072576243
 21
1153.794241057476
 31
0.0
  0
ARC
  5
561
330
19
100
AcDbEntity
  8
4
100
AcDbCircle
 10
591.0462695903811
 20
1150.128384227771
 30
0.0
 40
2.0
100
AcDbArc
 50
103.1010861295717
 51
165.9637565320735
  0
LINE
  5
562
330
19
100
AcDbEntity
  8
4
100
AcDbLine
 10
584.1511809849994
 20
1130.794241057476
 30
0.0
 11
589.1059845900904
 21
1150.613455477842
 31
0.0
  0
LINE
  5
568
330
19
100
AcDbEntity
  8
4
100
AcDbLine
 10
676.6511809849994
 20
1173.370368006803
 30
0.0
 11
676.6511809849994
 21
1148.794241057477
 31
0.0
  0
ARC
  5
569
330
19
100
AcDbEntity
  8
4
100
AcDbCircle
 10
686.6511809849994
 20
1148.794241057477
 30
0.0
 40
10.0
100
AcDbArc
 50
180.0
 51
270.0
  0
LINE
  5
56A
330
19
100
AcDbEntity
  8
L-CENTER
 48
2.0
100
AcDbLine
 10
764.9487679583108
 20
1178.794241057476
 30
0.0
 11
718.3535940116881
 21
1178.794241057476
 31
0.0
  0
LINE
  5
56B
330
19
100
AcDbEntity
  8
L-CENTER
 48
2.0
100
AcDbLine
 10
741.6511809849994
 20
1155.496654084165
 30
0.0
 11
741.6511809849994
 21
1202.091828030788
 31
0.0
  0
ARC
  5
56C
330
19
100
AcDbEntity
  8
2
  6
DASHED
100
AcDbCircle
 10
741.6511809849994
 20
1178.794241057476
 30
0.0
 40
12.0
100
AcDbArc
 50
30.00000000000121
 51
149.9999999999988
  0
ARC
  5
56D
330
19
100
AcDbEntity
  8
4
100
AcDbCircle
 10
741.6511809849994
 20
1178.794241057476
 30
0.0
 40
12.0
100
AcDbArc
 50
149.9999999999988
 51
30.00000000000121
  0
LINE
  5
56E
330
19
100
AcDbEntity
  8
4
100
AcDbLine
 10
756.6511809849994
 20
1207.794241057476
 30
0.0
 11
756.6511809849994
 21
1184.794241057477
 31
0.0
  0
ARC
  5
56F
330
19
100
AcDbEntity
  8
4
100
AcDbCircle
 10
771.6511809849994
 20
1148.794241057476
 30
0.0
 40
10.0
100
AcDbArc
 50
270.0
 51
0.0
  0
LINE
  5
570
330
19
100
AcDbEntity
  8
4
100
AcDbLine
 10
771.6511809849994
 20
1488.794241057477
 30
0.0
 11
686.6511809849994
 21
1488.794241057477
 31
0.0
  0
LINE
  5
571
330
19
100
AcDbEntity
  8
4
100
AcDbLine
 10
590.3084724714413
 20
1476.899657770025
 30
0.0
 11
714.865466699287
 21
1445.194241057492
 31
0.0
  0
LINE
  5
572
330
19
100
AcDbEntity
  8
4
100
AcDbLine
 10
588.6001726889344
 20
1479.398274241742
 30
0.0
 11
722.973160198524
 21
1445.194241057493
 31
0.0
  0
LINE
  5
573
330
19
100
AcDbEntity
  8
4
100
AcDbLine
 10
467.6511809849994
 20
1504.794241057477
 30
0.0
 11
467.6511809849994
 21
1661.794241057477
 31
0.0
  0
LINE
  5
574
330
19
100
AcDbEntity
  8
4
100
AcDbLine
 10
516.6511809849994
 20
1663.794241057477
 30
0.0
 11
516.6511809849994
 21
1523.794241057477
 31
0.0
  0
LINE
  5
575
330
19
100
AcDbEntity
  8
4
100
AcDbLine
 10
545.6511809849994
 20
1504.794241057477
 30
0.0
 11
545.6511809849994
 21
1661.794241057477
 31
0.0
  0
LINE
  5
576
330
19
100
AcDbEntity
  8
4
100
AcDbLine
 10
496.6511809849994
 20
1663.794241057477
 30
0.0
 11
496.6511809849994
 21
1523.794241057477
 31
0.0
  0
ARC
  5
577
330
19
100
AcDbEntity
  8
4
100
AcDbCircle
 10
506.6511809849994
 20
1313.794241057477
 30
0.0
 40
20.0
100
AcDbArc
 50
203.5781784782018
 51
336.4218215217981
  0
ARC
  5
578
330
19
100
AcDbEntity
  8
4
100
AcDbCircle
 10
506.6511809849994
 20
1313.794241057477
 30
0.0
 40
16.0
100
AcDbArc
 50
30.00000000000014
 51
150.0000000000001
  0
ARC
  5
579
330
19
100
AcDbEntity
  8
4
100
AcDbCircle
 10
506.6511809849994
 20
1313.794241057477
 30
0.0
 40
16.0
100
AcDbArc
 50
209.9999999999999
 51
330.0000000000001
  0
LINE
  5
57A
330
19
100
AcDbEntity
  8
4
100
AcDbLine
 10
478.6511809849994
 20
1321.794241057477
 30
0.0
 11
534.6511809849994
 21
1321.794241057477
 31
0.0
  0
LINE
  5
57B
330
19
100
AcDbEntity
  8
4
100
AcDbLine
 10
478.6511809849994
 20
1305.794241057477
 30
0.0
 11
534.6511809849994
 21
1305.794241057477
 31
0.0
  0
ARC
  5
57C
330
19
100
AcDbEntity
  8
4
100
AcDbCircle
 10
506.6511809849994
 20
1313.794241057477
 30
0.0
 40
17.5
100
AcDbArc
 50
27.20289441221446
 51
152.7971055877856
  0
ARC
  5
57D
330
19
100
AcDbEntity
  8
4
100
AcDbCircle
 10
506.6511809849994
 20
1313.794241057477
 30
0.0
 40
17.5
100
AcDbArc
 50
207.2028944122144
 51
332.7971055877855
  0
ARC
  5
57E
330
19
100
AcDbEntity
  8
4
100
AcDbCircle
 10
506.6511809849994
 20
1313.794241057477
 30
0.0
 40
20.0
100
AcDbArc
 50
23.57817847820185
 51
156.4218215217982
  0
ARC
  5
57F
330
19
100
AcDbEntity
  8
4
100
AcDbCircle
 10
506.6511809849994
 20
1523.794241057477
 30
0.0
 40
10.0
100
AcDbArc
 50
180.0
 51
0.0
  0
LINE
  5
580
330
19
100
AcDbEntity
  8
4
100
AcDbLine
 10
466.6511809849994
 20
1503.794241057477
 30
0.0
 11
546.6511809849994
 21
1503.794241057477
 31
0.0
  0
LINE
  5
581
330
19
100
AcDbEntity
  8
4
100
AcDbLine
 10
526.6511809849994
 20
1464.194241057476
 30
0.0
 11
486.6511809849994
 21
1464.194241057476
 31
0.0
  0
LINE
  5
582
330
19
100
AcDbEntity
  8
4
100
AcDbLine
 10
486.6511809849994
 20
1450.621653948206
 30
0.0
 11
526.6511809849994
 21
1450.621653948192
 31
0.0
  0
LINE
  5
583
330
19
100
AcDbEntity
  8
4
100
AcDbLine
 10
429.1511809849994
 20
1497.194241057476
 30
0.0
 11
584.151180984999
 21
1497.194241057476
 31
0.0
  0
LINE
  5
584
330
19
100
AcDbEntity
  8
4
100
AcDbLine
 10
456.6511809849994
 20
1498.194241057476
 30
0.0
 11
556.6511809849994
 21
1498.194241057476
 31
0.0
  0
LINE
  5
585
330
19
100
AcDbEntity
  8
4
100
AcDbLine
 10
449.1511809849994
 20
1479.194241057476
 30
0.0
 11
564.1511809849994
 21
1479.194241057476
 31
0.0
  0
LINE
  5
586
330
19
100
AcDbEntity
  8
L-CENTER
 48
2.0
100
AcDbLine
 10
389.151180984999
 20
1407.819488192372
 30
0.0
 11
389.151180984999
 21
1462.993571995467
 31
0.0
  0
LWPOLYLINE
  5
587
330
19
100
AcDbEntity
  8
4
100
AcDbPolyline
 90
        6
 70
     1
 43
0.0
 10
389.6511809849994
 20
1313.794241057477
 10
378.1511809849994
 20
1333.712825344519
 10
355.1511809849994
 20
1333.712825344519
 10
343.6511809849994
 20
1313.794241057477
 10
355.1511809849994
 20
1293.875656770435
 10
378.1511809849994
 20
1293.875656770435
  0
CIRCLE
  5
588
330
19
100
AcDbEntity
  8
4
100
AcDbCircle
 10
366.6511809849994
 20
1313.794241057477
 30
0.0
 40
23.0
  0
CIRCLE
  5
589
330
19
100
AcDbEntity
  8
4
100
AcDbCircle
 10
366.6511809849994
 20
1313.794241057477
 30
0.0
 40
25.0
  0
LINE
  5
58A
330
19
100
AcDbEntity
  8
L-CENTER
 48
2.0
100
AcDbLine
 10
366.6511809849994
 20
1347.51362933786
 30
0.0
 11
366.6511809849994
 21
1279.56072821834
 31
0.0
  0
ARC
  5
58B
330
19
100
AcDbEntity
  8
4
100
AcDbCircle
 10
478.6511809849994
 20
1313.794241057477
 30
0.0
 40
8.0
100
AcDbArc
 50
90.0
 51
270.0
  0
ARC
  5
58C
330
19
100
AcDbEntity
  8
4
100
AcDbCircle
 10
389.151180984999
 20
1439.194241057476
 30
0.0
 40
17.999975
100
AcDbArc
 50
70.52866900000068
 51
109.4703400000002
  0
LINE
  5
58D
330
19
100
AcDbEntity
  8
4
100
AcDbLine
 10
398.151180984999
 20
1457.194241057476
 30
0.0
 11
380.151180984999
 21
1457.194241057476
 31
0.0
  0
LINE
  5
58E
330
19
100
AcDbEntity
  8
4
100
AcDbLine
 10
401.151180984999
 20
1448.194241057476
 30
0.0
 11
377.151180984999
 21
1448.194241057476
 31
0.0
  0
LINE
  5
58F
330
19
100
AcDbEntity
  8
4
100
AcDbLine
 10
377.151180984999
 20
1445.194241057476
 30
0.0
 11
401.151180984999
 21
1445.194241057476
 31
0.0
  0
LINE
  5
590
330
19
100
AcDbEntity
  8
4
100
AcDbLine
 10
424.702189281064
 20
1479.398274241735
 30
0.0
 11
290.3292017714766
 21
1445.194241057476
 31
0.0
  0
LINE
  5
591
330
19
100
AcDbEntity
  8
4
100
AcDbLine
 10
422.9938894985571
 20
1476.899657770019
 30
0.0
 11
298.4368952707136
 21
1445.194241057476
 31
0.0
  0
LINE
  5
592
330
19
100
AcDbEntity
  8
4
100
AcDbLine
 10
371.6511809849994
 20
1470.194241057476
 30
0.0
 11
321.6511809849994
 21
1470.194241057476
 31
0.0
  0
LINE
  5
593
330
19
100
AcDbEntity
  8
4
100
AcDbLine
 10
321.6511809849994
 20
1470.194241057476
 30
0.0
 11
321.6511809849994
 21
1453.339695602931
 31
0.0
  0
ARC
  5
594
330
19
100
AcDbEntity
  8
4
100
AcDbCircle
 10
326.6511809849994
 20
1478.794241057477
 30
0.0
 40
10.0
100
AcDbArc
 50
0.0
 51
90.0
  0
LINE
  5
595
330
19
100
AcDbEntity
  8
4
100
AcDbLine
 10
336.6511809849994
 20
1478.794241057477
 30
0.0
 11
336.6511809849994
 21
1470.194241057476
 31
0.0
  0
ARC
  5
596
330
19
100
AcDbEntity
  8
4
100
AcDbCircle
 10
380.151180984999
 20
1452.610501057476
 30
0.0
 40
4.583600000000001
100
AcDbArc
 50
49.11667400001003
 51
130.8813299999983
  0
LINE
  5
597
330
19
100
AcDbEntity
  8
4
100
AcDbLine
 10
377.151180984999
 20
1456.164701057477
 30
0.0
 11
377.151180984999
 21
1448.194241057476
 31
0.0
  0
LINE
  5
598
330
19
100
AcDbEntity
  8
4
100
AcDbLine
 10
383.151180984999
 20
1448.194241057476
 30
0.0
 11
383.151180984999
 21
1456.164701057477
 31
0.0
  0
LINE
  5
599
330
19
100
AcDbEntity
  8
4
100
AcDbLine
 10
377.151180984999
 20
1445.194241057476
 30
0.0
 11
377.151180984999
 21
1448.194241057476
 31
0.0
  0
LINE
  5
59A
330
19
100
AcDbEntity
  8
4
100
AcDbLine
 10
371.6511809849994
 20
1470.194241057476
 30
0.0
 11
371.6511809849994
 21
1465.894381220919
 31
0.0
  0
LINE
  5
59B
330
19
100
AcDbEntity
  8
4
100
AcDbLine
 10
424.4639544927809
 20
1477.194241057476
 30
0.0
 11
449.1511809849994
 21
1477.194241057476
 31
0.0
  0
ARC
  5
59C
330
19
100
AcDbEntity
  8
4
100
AcDbCircle
 10
398.151180984999
 20
1452.610501057476
 30
0.0
 40
4.583600000000001
100
AcDbArc
 50
49.11667400001003
 51
130.8813299999983
  0
LINE
  5
59D
330
19
100
AcDbEntity
  8
4
100
AcDbLine
 10
401.151180984999
 20
1456.164701057477
 30
0.0
 11
401.151180984999
 21
1448.194241057476
 31
0.0
  0
LINE
  5
59E
330
19
100
AcDbEntity
  8
4
100
AcDbLine
 10
395.151180984999
 20
1448.194241057476
 30
0.0
 11
395.151180984999
 21
1456.164701057477
 31
0.0
  0
LINE
  5
59F
330
19
100
AcDbEntity
  8
4
100
AcDbLine
 10
401.151180984999
 20
1445.194241057476
 30
0.0
 11
401.151180984999
 21
1448.194241057476
 31
0.0
  0
ARC
  5
5A0
330
19
100
AcDbEntity
  8
4
100
AcDbCircle
 10
422.5005309372873
 20
1478.837852117864
 30
0.0
 40
2.0
100
AcDbArc
 50
284.2810957359712
 51
345.9637565320933
  0
LINE
  5
5A1
330
19
100
AcDbEntity
  8
4
100
AcDbLine
 10
429.1511809849994
 20
1497.194241057476
 30
0.0
 11
424.440815937578
 21
1478.352780867792
 31
0.0
  0
LINE
  5
5A2
330
19
100
AcDbEntity
  8
4
100
AcDbLine
 10
486.6511809849994
 20
1464.194241057476
 30
0.0
 11
486.6511809849994
 21
1450.621653948206
 31
0.0
  0
LINE
  5
5A3
330
19
100
AcDbEntity
  8
4
100
AcDbLine
 10
449.1511809849994
 20
1479.194241057476
 30
0.0
 11
463.7226095564283
 21
1445.194241057476
 31
0.0
  0
LINE
  5
5A4
330
19
100
AcDbEntity
  8
4
100
AcDbLine
 10
449.1511809849994
 20
1477.194241057476
 30
0.0
 11
462.8654666992852
 21
1445.194241057476
 31
0.0
  0
LINE
  5
5A5
330
19
100
AcDbEntity
  8
4
100
AcDbLine
 10
466.6511809849994
 20
1498.194241057476
 30
0.0
 11
466.6511809849994
 21
1503.794241057477
 31
0.0
  0
ARC
  5
5A6
330
19
100
AcDbEntity
  8
4
100
AcDbCircle
 10
466.6511809849994
 20
1504.794241057477
 30
0.0
 40
1.0
100
AcDbArc
 50
270.0
 51
0.0
  0
LINE
  5
5A7
330
19
100
AcDbEntity
  8
4
100
AcDbLine
 10
466.6511809849994
 20
1503.794241057477
 30
0.0
 11
466.6511809849994
 21
1503.794241057477
 31
0.0
  0
LINE
  5
5A8
330
19
100
AcDbEntity
  8
4
100
AcDbLine
 10
456.6511809849994
 20
1498.194241057476
 30
0.0
 11
456.6511809849994
 21
1497.194241057476
 31
0.0
  0
LINE
  5
5A9
330
19
100
AcDbEntity
  8
4
100
AcDbLine
 10
449.1511809849994
 20
1477.194241057476
 30
0.0
 11
449.1511809849994
 21
1479.194241057476
 31
0.0
  0
LINE
  5
5AA
330
19
100
AcDbEntity
  8
L-CENTER
 48
2.0
100
AcDbLine
 10
624.1511809849999
 20
1407.819488192372
 30
0.0
 11
624.1511809849999
 21
1462.993571995467
 31
0.0
  0
ARC
  5
5AB
330
19
100
AcDbEntity
  8
4
100
AcDbCircle
 10
534.6511809849994
 20
1313.794241057477
 30
0.0
 40
8.0
100
AcDbArc
 50
270.0
 51
90.0
  0
LINE
  5
5AC
330
19
100
AcDbEntity
  8
4
100
AcDbLine
 10
564.1511809849994
 20
1477.194241057476
 30
0.0
 11
550.4368952707136
 21
1445.194241057476
 31
0.0
  0
LINE
  5
5AD
330
19
100
AcDbEntity
  8
4
100
AcDbLine
 10
564.1511809849994
 20
1479.194241057476
 30
0.0
 11
549.5797524135705
 21
1445.194241057476
 31
0.0
  0
LINE
  5
5AE
330
19
100
AcDbEntity
  8
4
100
AcDbLine
 10
526.6511809849994
 20
1464.194241057476
 30
0.0
 11
526.6511809849994
 21
1450.621653948192
 31
0.0
  0
LINE
  5
5AF
330
19
100
AcDbEntity
  8
4
100
AcDbLine
 10
546.6511809849994
 20
1498.194241057476
 30
0.0
 11
546.6511809849994
 21
1503.794241057477
 31
0.0
  0
LINE
  5
5B0
330
19
100
AcDbEntity
  8
4
100
AcDbLine
 10
546.6511809849994
 20
1503.794241057477
 30
0.0
 11
546.6511809849994
 21
1503.794241057477
 31
0.0
  0
ARC
  5
5B1
330
19
100
AcDbEntity
  8
4
100
AcDbCircle
 10
546.6511809849994
 20
1504.794241057477
 30
0.0
 40
1.0
100
AcDbArc
 50
180.0
 51
270.0
  0
LINE
  5
5B2
330
19
100
AcDbEntity
  8
4
100
AcDbLine
 10
564.1511809849994
 20
1477.194241057476
 30
0.0
 11
588.8044725159866
 21
1477.194241057476
 31
0.0
  0
LINE
  5
5B3
330
19
100
AcDbEntity
  8
4
100
AcDbLine
 10
556.6511809849994
 20
1498.194241057476
 30
0.0
 11
556.6511809849999
 21
1497.194241057476
 31
0.0
  0
LINE
  5
5B4
330
19
100
AcDbEntity
  8
4
100
AcDbLine
 10
564.1511809849994
 20
1477.194241057476
 30
0.0
 11
564.1511809849994
 21
1479.194241057476
 31
0.0
  0
ARC
  5
5B5
330
19
100
AcDbEntity
  8
4
100
AcDbCircle
 10
590.8018310327111
 20
1478.837852117871
 30
0.0
 40
2.0
100
AcDbArc
 50
194.0362434679336
 51
255.7189042640288
  0
LINE
  5
5B6
330
19
100
AcDbEntity
  8
4
100
AcDbLine
 10
584.1511809849994
 20
1497.194241057476
 30
0.0
 11
588.861546032419
 21
1478.352780867798
 31
0.0
  0
ARC
  5
5B7
330
19
100
AcDbEntity
  8
4
100
AcDbCircle
 10
624.1511809849999
 20
1439.194241057476
 30
0.0
 40
17.999975
100
AcDbArc
 50
70.52965999999977
 51
109.4713309999997
  0
ARC
  5
5B8
330
19
100
AcDbEntity
  8
4
100
AcDbCircle
 10
615.1511809849999
 20
1452.610501057476
 30
0.0
 40
4.583600000000001
100
AcDbArc
 50
49.11867000000167
 51
130.88332599999
  0
ARC
  5
5B9
330
19
100
AcDbEntity
  8
4
100
AcDbCircle
 10
633.1511809849999
 20
1452.610501057476
 30
0.0
 40
4.583600000000001
100
AcDbArc
 50
49.11867000000167
 51
130.88332599999
  0
LINE
  5
5BA
330
19
100
AcDbEntity
  8
4
100
AcDbLine
 10
636.1511809849999
 20
1445.194241057476
 30
0.0
 11
612.1511809849999
 21
1445.194241057476
 31
0.0
  0
LINE
  5
5BB
330
19
100
AcDbEntity
  8
4
100
AcDbLine
 10
612.1511809849999
 20
1448.194241057476
 30
0.0
 11
636.1511809849999
 21
1448.194241057476
 31
0.0
  0
LINE
  5
5BC
330
19
100
AcDbEntity
  8
4
100
AcDbLine
 10
630.1511809849999
 20
1448.194241057476
 30
0.0
 11
630.1511809849999
 21
1456.164701057477
 31
0.0
  0
LINE
  5
5BD
330
19
100
AcDbEntity
  8
4
100
AcDbLine
 10
612.1511809849999
 20
1456.164701057477
 30
0.0
 11
612.1511809849999
 21
1448.194241057476
 31
0.0
  0
LINE
  5
5BE
330
19
100
AcDbEntity
  8
4
100
AcDbLine
 10
618.1511809849999
 20
1448.194241057476
 30
0.0
 11
618.1511809849999
 21
1456.164701057477
 31
0.0
  0
LINE
  5
5BF
330
19
100
AcDbEntity
  8
4
100
AcDbLine
 10
612.1511809849999
 20
1445.194241057476
 30
0.0
 11
612.1511809849999
 21
1448.194241057476
 31
0.0
  0
LINE
  5
5C0
330
19
100
AcDbEntity
  8
4
100
AcDbLine
 10
636.1511809849999
 20
1456.164701057477
 30
0.0
 11
636.1511809849999
 21
1448.194241057476
 31
0.0
  0
LINE
  5
5C1
330
19
100
AcDbEntity
  8
4
100
AcDbLine
 10
636.1511809849999
 20
1445.194241057476
 30
0.0
 11
636.1511809849999
 21
1448.194241057476
 31
0.0
  0
LINE
  5
5C2
330
19
100
AcDbEntity
  8
4
100
AcDbLine
 10
615.1511809849999
 20
1457.194241057476
 30
0.0
 11
633.1511809849999
 21
1457.194241057476
 31
0.0
  0
ARC
  5
5C3
330
19
100
AcDbEntity
  8
4
100
AcDbCircle
 10
686.6511809849994
 20
1478.794241057477
 30
0.0
 40
10.0
100
AcDbArc
 50
90.0
 51
180.0
  0
LINE
  5
5C4
330
19
100
AcDbEntity
  8
4
100
AcDbLine
 10
676.6511809849994
 20
1478.794241057477
 30
0.0
 11
676.6511809849994
 21
1456.985290311841
 31
0.0
  0
LINE
  5
5C5
330
19
100
AcDbEntity
  8
4
100
AcDbLine
 10
469.6511809849994
 20
1663.794241057477
 30
0.0
 11
543.6511809849994
 21
1663.794241057477
 31
0.0
  0
LINE
  5
5C6
330
19
100
AcDbEntity
  8
4
100
AcDbLine
 10
467.6511809849994
 20
1661.794241057477
 30
0.0
 11
496.6511809849994
 21
1661.794241057477
 31
0.0
  0
LINE
  5
5C7
330
19
100
AcDbEntity
  8
4
100
AcDbLine
 10
467.6511809849994
 20
1661.794241057477
 30
0.0
 11
469.6511809849994
 21
1663.794241057477
 31
0.0
  0
LINE
  5
5C8
330
19
100
AcDbEntity
  8
4
100
AcDbLine
 10
516.6511809849994
 20
1661.794241057477
 30
0.0
 11
545.6511809849994
 21
1661.794241057477
 31
0.0
  0
LINE
  5
5C9
330
19
100
AcDbEntity
  8
4
100
AcDbLine
 10
545.6511809849994
 20
1661.794241057477
 30
0.0
 11
543.6511809849994
 21
1663.794241057477
 31
0.0
  0
LINE
  5
5CA
330
19
100
AcDbEntity
  8
4
100
AcDbLine
 10
781.6511809849994
 20
1478.794241057477
 30
0.0
 11
781.6511809849994
 21
1387.666066057476
 31
0.0
  0
LINE
  5
5CB
330
19
100
AcDbEntity
  8
L-CENTER
 48
2.0
100
AcDbLine
 10
741.6511809849994
 20
1407.819488192372
 30
0.0
 11
741.6511809849994
 21
1462.993571995467
 31
0.0
  0
LINE
  5
5CC
330
19
100
AcDbEntity
  8
4
100
AcDbLine
 10
754.6511809849994
 20
1418.794241057477
 30
0.0
 11
754.6511809849994
 21
1323.013785514769
 31
0.0
  0
LINE
  5
5CD
330
19
100
AcDbEntity
  8
4
100
AcDbLine
 10
809.1511809849994
 20
1306.294241057477
 30
0.0
 11
911.6511809849994
 21
1306.294241057477
 31
0.0
  0
LINE
  5
5CE
330
19
100
AcDbEntity
  8
4
100
AcDbLine
 10
809.1511809849994
 20
1321.294241057477
 30
0.0
 11
911.6511809849994
 21
1321.294241057477
 31
0.0
  0
LINE
  5
5CF
330
19
100
AcDbEntity
  8
4
100
AcDbLine
 10
793.6511809849994
 20
1284.794241057477
 30
0.0
 11
909.6511809849994
 21
1284.794241057477
 31
0.0
  0
LINE
  5
5D0
330
19
100
AcDbEntity
  8
4
100
AcDbLine
 10
793.6511809849994
 20
1342.794241057477
 30
0.0
 11
909.6511809849994
 21
1342.794241057477
 31
0.0
  0
CIRCLE
  5
5D1
330
19
100
AcDbEntity
  8
4
100
AcDbCircle
 10
748.6511809849994
 20
1313.794241057477
 30
0.0
 40
11.0
  0
LINE
  5
5D2
330
19
100
AcDbEntity
  8
L-CENTER
 48
2.0
100
AcDbLine
 10
748.6511809849994
 20
1331.234066701557
 30
0.0
 11
748.6511809849994
 21
1297.488789095298
 31
0.0
  0
ARC
  5
5D3
330
19
100
AcDbEntity
  8
4
100
AcDbCircle
 10
809.1511809849994
 20
1313.794241057477
 30
0.0
 40
7.5
100
AcDbArc
 50
90.0
 51
270.0
  0
LINE
  5
5D4
330
19
100
AcDbEntity
  8
4
100
AcDbLine
 10
791.6511809849994
 20
1346.294241057477
 30
0.0
 11
791.6511809849994
 21
1281.294241057477
 31
0.0
  0
LINE
  5
5D5
330
19
100
AcDbEntity
  8
4
100
AcDbLine
 10
777.4510859849993
 20
1358.794241057477
 30
0.0
 11
777.4510859849993
 21
1268.794241057476
 31
0.0
  0
LINE
  5
5D6
330
19
100
AcDbEntity
  8
L-CENTER
 48
2.0
100
AcDbLine
 10
795.3461174583995
 20
1251.922416057476
 30
0.0
 11
746.9184023256416
 21
1251.922416057476
 31
0.0
  0
LINE
  5
5D7
330
19
100
AcDbEntity
  8
4
100
AcDbLine
 10
776.4510859849993
 20
1263.922416057477
 30
0.0
 11
776.4510859849993
 21
1239.922416057477
 31
0.0
  0
LINE
  5
5D8
330
19
100
AcDbEntity
  8
4
100
AcDbLine
 10
779.4510859849993
 20
1239.922416057477
 30
0.0
 11
779.4510859849993
 21
1263.922416057477
 31
0.0
  0
ARC
  5
5D9
330
19
100
AcDbEntity
  8
4
100
AcDbCircle
 10
783.8673459849992
 20
1260.922416057477
 30
0.0
 40
4.58369
100
AcDbArc
 50
319.1186700000006
 51
40.88132999999934
  0
ARC
  5
5DA
330
19
100
AcDbEntity
  8
4
100
AcDbCircle
 10
783.8673459849992
 20
1242.922416057477
 30
0.0
 40
4.58369
100
AcDbArc
 50
319.1186700000006
 51
40.88132999999934
  0
LINE
  5
5DB
330
19
100
AcDbEntity
  8
4
100
AcDbLine
 10
776.4510859849993
 20
1239.922416057477
 30
0.0
 11
779.4510859849993
 21
1239.922416057477
 31
0.0
  0
LINE
  5
5DC
330
19
100
AcDbEntity
  8
4
100
AcDbLine
 10
787.4215409849994
 20
1239.922416057477
 30
0.0
 11
779.4510859849993
 21
1239.922416057477
 31
0.0
  0
ARC
  5
5DD
330
19
100
AcDbEntity
  8
4
100
AcDbCircle
 10
770.4510859849993
 20
1251.922416057476
 30
0.0
 40
18.00009
100
AcDbArc
 50
340.5289280000003
 51
19.47033699999977
  0
LINE
  5
5DE
330
19
100
AcDbEntity
  8
4
100
AcDbLine
 10
779.4510859849993
 20
1245.922416057477
 30
0.0
 11
787.4215409849994
 21
1245.922416057477
 31
0.0
  0
LINE
  5
5DF
330
19
100
AcDbEntity
  8
4
100
AcDbLine
 10
779.4510859849993
 20
1257.922416057477
 30
0.0
 11
787.4215409849994
 21
1257.922416057477
 31
0.0
  0
LINE
  5
5E0
330
19
100
AcDbEntity
  8
4
100
AcDbLine
 10
788.4510859849993
 20
1242.922416057477
 30
0.0
 11
788.4510859849993
 21
1260.922416057477
 31
0.0
  0
LINE
  5
5E1
330
19
100
AcDbEntity
  8
4
100
AcDbLine
 10
777.4510859849993
 20
1281.294241057477
 30
0.0
 11
791.6511809849994
 21
1281.294241057477
 31
0.0
  0
LINE
  5
5E2
330
19
100
AcDbEntity
  8
4
100
AcDbLine
 10
781.6511809849994
 20
1281.294241057476
 30
0.0
 11
781.6511809849994
 21
1263.922416057477
 31
0.0
  0
LINE
  5
5E3
330
19
100
AcDbEntity
  8
4
100
AcDbLine
 10
776.4510859849993
 20
1268.794241057476
 30
0.0
 11
777.4510859849993
 21
1268.794241057476
 31
0.0
  0
LINE
  5
5E4
330
19
100
AcDbEntity
  8
4
100
AcDbLine
 10
776.4510859849993
 20
1263.922416057477
 30
0.0
 11
779.4510859849993
 21
1263.922416057477
 31
0.0
  0
LINE
  5
5E5
330
19
100
AcDbEntity
  8
4
100
AcDbLine
 10
787.4215409849994
 20
1263.922416057477
 30
0.0
 11
779.4510859849993
 21
1263.922416057477
 31
0.0
  0
ARC
  5
5E6
330
19
100
AcDbEntity
  8
4
100
AcDbCircle
 10
793.6511809849994
 20
1282.794241057477
 30
0.0
 40
2.0
100
AcDbArc
 50
90.0
 51
180.0
  0
LINE
  5
5E7
330
19
100
AcDbEntity
  8
L-CENTER
 48
2.0
100
AcDbLine
 10
795.346117458399
 20
1375.666066057477
 30
0.0
 11
746.9184023256416
 21
1375.666066057476
 31
0.0
  0
LINE
  5
5E8
330
19
100
AcDbEntity
  8
4
100
AcDbLine
 10
781.6511809849994
 20
1363.666066057477
 30
0.0
 11
781.6511809849994
 21
1346.294241057477
 31
0.0
  0
LINE
  5
5E9
330
19
100
AcDbEntity
  8
4
100
AcDbLine
 10
777.4510859849993
 20
1346.294241057477
 30
0.0
 11
791.6511809849994
 21
1346.294241057477
 31
0.0
  0
LINE
  5
5EA
330
19
100
AcDbEntity
  8
4
100
AcDbLine
 10
777.4510859849993
 20
1358.794241057477
 30
0.0
 11
776.4510859849993
 21
1358.794241057477
 31
0.0
  0
ARC
  5
5EB
330
19
100
AcDbEntity
  8
4
100
AcDbCircle
 10
793.6511809849994
 20
1344.794241057477
 30
0.0
 40
2.0
100
AcDbArc
 50
180.0
 51
270.0
  0
LINE
  5
5EC
330
19
100
AcDbEntity
  8
4
100
AcDbLine
 10
776.4510859849993
 20
1387.666066057477
 30
0.0
 11
779.4510859849993
 21
1387.666066057477
 31
0.0
  0
ARC
  5
5ED
330
19
100
AcDbEntity
  8
4
100
AcDbCircle
 10
783.8673459849992
 20
1384.666066057477
 30
0.0
 40
4.583600000000001
100
AcDbArc
 50
319.1186699999987
 51
40.88332600000215
  0
LINE
  5
5EE
330
19
100
AcDbEntity
  8
4
100
AcDbLine
 10
788.4510859849993
 20
1384.666066057477
 30
0.0
 11
788.4510859849993
 21
1366.666066057477
 31
0.0
  0
ARC
  5
5EF
330
19
100
AcDbEntity
  8
4
100
AcDbCircle
 10
770.4510859849993
 20
1375.666066057477
 30
0.0
 40
17.999975
100
AcDbArc
 50
340.5296599999995
 51
19.47133099999955
  0
LINE
  5
5F0
330
19
100
AcDbEntity
  8
4
100
AcDbLine
 10
779.4510859849993
 20
1369.666066057477
 30
0.0
 11
787.4215409849994
 21
1369.666066057477
 31
0.0
  0
LINE
  5
5F1
330
19
100
AcDbEntity
  8
4
100
AcDbLine
 10
779.4510859849993
 20
1381.666066057477
 30
0.0
 11
787.4215409849994
 21
1381.666066057477
 31
0.0
  0
LINE
  5
5F2
330
19
100
AcDbEntity
  8
4
100
AcDbLine
 10
787.4215409849994
 20
1387.666066057477
 30
0.0
 11
779.4510859849993
 21
1387.666066057477
 31
0.0
  0
LINE
  5
5F3
330
19
100
AcDbEntity
  8
4
100
AcDbLine
 10
776.4510859849993
 20
1363.666066057477
 30
0.0
 11
779.4510859849993
 21
1363.666066057477
 31
0.0
  0
LINE
  5
5F4
330
19
100
AcDbEntity
  8
4
100
AcDbLine
 10
787.4215409849994
 20
1363.666066057477
 30
0.0
 11
779.4510859849993
 21
1363.666066057477
 31
0.0
  0
LINE
  5
5F5
330
19
100
AcDbEntity
  8
4
100
AcDbLine
 10
776.4510859849993
 20
1363.666066057477
 30
0.0
 11
776.4510859849993
 21
1387.666066057477
 31
0.0
  0
LINE
  5
5F6
330
19
100
AcDbEntity
  8
4
100
AcDbLine
 10
779.4510859849993
 20
1387.666066057477
 30
0.0
 11
779.4510859849993
 21
1363.666066057477
 31
0.0
  0
ARC
  5
5F7
330
19
100
AcDbEntity
  8
4
100
AcDbCircle
 10
783.8673459849992
 20
1366.666066057477
 30
0.0
 40
4.583600000000001
100
AcDbArc
 50
319.1186699999917
 51
40.88332599999197
  0
LINE
  5
5F8
330
19
100
AcDbEntity
  8
4
100
AcDbLine
 10
911.6511809849994
 20
1340.794241057477
 30
0.0
 11
911.6511809849994
 21
1286.794241057477
 31
0.0
  0
LINE
  5
5F9
330
19
100
AcDbEntity
  8
4
100
AcDbLine
 10
909.6511809849994
 20
1284.794241057477
 30
0.0
 11
911.6511809849994
 21
1286.794241057477
 31
0.0
  0
LINE
  5
5FA
330
19
100
AcDbEntity
  8
4
100
AcDbLine
 10
909.6511809849994
 20
1306.294241057477
 30
0.0
 11
909.6511809849994
 21
1284.794241057477
 31
0.0
  0
LINE
  5
5FB
330
19
100
AcDbEntity
  8
4
100
AcDbLine
 10
909.6511809849994
 20
1342.794241057477
 30
0.0
 11
911.6511809849994
 21
1340.794241057477
 31
0.0
  0
LINE
  5
5FC
330
19
100
AcDbEntity
  8
4
100
AcDbLine
 10
909.6511809849994
 20
1342.794241057477
 30
0.0
 11
909.6511809849994
 21
1321.294241057477
 31
0.0
  0
LINE
  5
5FD
330
19
100
AcDbEntity
  8
L-CENTER
 48
2.0
100
AcDbLine
 10
764.9487679583108
 20
1448.794241057477
 30
0.0
 11
718.3535940116881
 21
1448.794241057477
 31
0.0
  0
ARC
  5
5FE
330
19
100
AcDbEntity
  8
2
  6
DASHED
100
AcDbCircle
 10
741.6511809849994
 20
1448.794241057477
 30
0.0
 40
12.0
100
AcDbArc
 50
135.5729959991965
 51
44.42700400080346
  0
LINE
  5
5FF
330
19
100
AcDbEntity
  8
L-CENTER
 48
2.0
100
AcDbLine
 10
741.6511809849994
 20
1472.091828030788
 30
0.0
 11
741.6511809849994
 21
1425.496654084165
 31
0.0
  0
ARC
  5
600
330
19
100
AcDbEntity
  8
4
100
AcDbCircle
 10
741.6511809849994
 20
1439.194241057476
 30
0.0
 40
17.999975
100
AcDbArc
 50
70.52965999999977
 51
109.4713309999997
  0
ARC
  5
601
330
19
100
AcDbEntity
  8
4
100
AcDbCircle
 10
732.6511809849994
 20
1452.610501057476
 30
0.0
 40
4.583600000000001
100
AcDbArc
 50
49.11867000000167
 51
130.8833260000001
  0
ARC
  5
602
330
19
100
AcDbEntity
  8
4
100
AcDbCircle
 10
750.6511809849994
 20
1452.610501057476
 30
0.0
 40
4.583600000000001
100
AcDbArc
 50
49.11867000000167
 51
130.8833260000001
  0
LINE
  5
603
330
19
100
AcDbEntity
  8
4
100
AcDbLine
 10
729.6511809849994
 20
1448.194241057476
 30
0.0
 11
753.6511809849994
 21
1448.194241057476
 31
0.0
  0
LINE
  5
604
330
19
100
AcDbEntity
  8
4
100
AcDbLine
 10
753.6511809849994
 20
1445.194241057476
 30
0.0
 11
729.6511809849994
 21
1445.194241057476
 31
0.0
  0
LINE
  5
605
330
19
100
AcDbEntity
  8
4
100
AcDbLine
 10
729.6511809849994
 20
1456.164701057477
 30
0.0
 11
729.6511809849994
 21
1448.194241057476
 31
0.0
  0
LINE
  5
606
330
19
100
AcDbEntity
  8
4
100
AcDbLine
 10
735.6511809849994
 20
1448.194241057476
 30
0.0
 11
735.6511809849994
 21
1456.164701057477
 31
0.0
  0
LINE
  5
607
330
19
100
AcDbEntity
  8
4
100
AcDbLine
 10
729.6511809849994
 20
1445.194241057476
 30
0.0
 11
729.6511809849994
 21
1448.194241057476
 31
0.0
  0
LINE
  5
608
330
19
100
AcDbEntity
  8
4
100
AcDbLine
 10
753.6511809849994
 20
1456.164701057477
 30
0.0
 11
753.6511809849994
 21
1448.194241057476
 31
0.0
  0
LINE
  5
609
330
19
100
AcDbEntity
  8
4
100
AcDbLine
 10
747.6511809849994
 20
1448.194241057476
 30
0.0
 11
747.6511809849994
 21
1456.164701057477
 31
0.0
  0
LINE
  5
60A
330
19
100
AcDbEntity
  8
4
100
AcDbLine
 10
753.6511809849994
 20
1445.194241057476
 30
0.0
 11
753.6511809849994
 21
1448.194241057476
 31
0.0
  0
ARC
  5
60B
330
19
100
AcDbEntity
  8
4
100
AcDbCircle
 10
757.6511809849994
 20
1444.194241057476
 30
0.0
 40
1.0
100
AcDbArc
 50
0.0
 51
90.0
  0
LINE
  5
60C
330
19
100
AcDbEntity
  8
4
100
AcDbLine
 10
758.6511809849994
 20
1444.194241057476
 30
0.0
 11
758.6511809849994
 21
1423.194241057476
 31
0.0
  0
LINE
  5
60D
330
19
100
AcDbEntity
  8
4
100
AcDbLine
 10
756.6511809849994
 20
1423.194241057476
 30
0.0
 11
756.6511809849994
 21
1419.794241057477
 31
0.0
  0
ARC
  5
60E
330
19
100
AcDbEntity
  8
4
100
AcDbCircle
 10
741.6511809849994
 20
1448.794241057477
 30
0.0
 40
12.0
100
AcDbArc
 50
44.42700400080346
 51
135.5729959991965
  0
LINE
  5
60F
330
19
100
AcDbEntity
  8
4
100
AcDbLine
 10
732.6511809849994
 20
1457.194241057476
 30
0.0
 11
750.6511809849994
 21
1457.194241057476
 31
0.0
  0
ARC
  5
610
330
19
100
AcDbEntity
  8
4
100
AcDbCircle
 10
771.6511809849994
 20
1478.794241057477
 30
0.0
 40
10.0
100
AcDbArc
 50
0.0
 51
90.0
  0
LINE
  5
62F
330
19
100
AcDbEntity
  8
4
100
AcDbLine
 10
724.6511809849994
 20
1208.794241057476
 30
0.0
 11
724.6511809849994
 21
1206.794241057476
 31
0.0
  0
LINE
  5
630
330
19
100
AcDbEntity
  8
4
100
AcDbLine
 10
576.6511809849967
 20
1208.794241057476
 30
0.0
 11
576.6511809849967
 21
1206.794241057476
 31
0.0
  0
LINE
  5
632
330
19
100
AcDbEntity
  8
4
100
AcDbLine
 10
578.6511809849967
 20
1204.794241057476
 30
0.0
 11
722.6511809849994
 21
1204.794241057476
 31
0.0
  0
ARC
  5
633
330
19
100
AcDbEntity
  8
4
100
AcDbCircle
 10
578.6511809849967
 20
1206.794241057476
 30
0.0
 40
2.0
100
AcDbArc
 50
180.0
 51
270.0
  0
ARC
  5
634
330
19
100
AcDbEntity
  8
4
100
AcDbCircle
 10
722.6511809849994
 20
1206.794241057476
 30
0.0
 40
2.0
100
AcDbArc
 50
270.0
 51
0.0
  0
LINE
  5
635
330
19
100
AcDbEntity
  8
4
100
AcDbLine
 10
724.6511809849994
 20
1207.794241057477
 30
0.0
 11
776.4511809849996
 21
1207.794241057477
 31
0.0
  0
LINE
  5
64A
330
19
100
AcDbEntity
  8
4
100
AcDbLine
 10
231.6511809849994
 20
1363.666066057477
 30
0.0
 11
231.6511809849994
 21
1263.922416057477
 31
0.0
  0
LINE
  5
67E
330
19
100
AcDbEntity
  8
L-CENTER
 48
2.0
100
AcDbLine
 10
1879.14820918892
 20
314.6835652428106
 30
0.0
 11
1879.14820918892
 21
427.7779352428104
 31
0.0
  0
LINE
  5
67F
330
19
100
AcDbEntity
  8
4
100
AcDbLine
 10
1889.14820918892
 20
403.2307502428105
 30
0.0
 11
1889.14820918892
 21
416.2307502428105
 31
0.0
  0
LINE
  5
680
330
19
100
AcDbEntity
  8
4
100
AcDbLine
 10
1869.14820918892
 20
403.2307502428105
 30
0.0
 11
1869.14820918892
 21
416.2307502428105
 31
0.0
  0
ARC
  5
683
330
19
100
AcDbEntity
  8
4
100
AcDbCircle
 10
1879.14820918892
 20
371.2307502428105
 30
0.0
 40
38.99999
100
AcDbArc
 50
104.8571694421992
 51
75.1428329999985
  0
LINE
  5
684
330
19
100
AcDbEntity
  8
L-CENTER
 48
2.0
100
AcDbLine
 10
1935.695394188921
 20
371.2307502428105
 30
0.0
 11
1822.601024188921
 21
371.2307502428105
 31
0.0
  0
LINE
  5
686
330
19
100
AcDbEntity
  8
4
100
AcDbLine
 10
1869.14820918892
 20
403.2307502428105
 30
0.0
 11
1889.14820918892
 21
403.2307502428105
 31
0.0
  0
LINE
  5
688
330
19
100
AcDbEntity
  8
4
100
AcDbLine
 10
1889.14820918892
 20
416.2307502428105
 30
0.0
 11
1869.14820918892
 21
416.2307502428105
 31
0.0
  0
ENDSEC
  0
SECTION
  2
OBJECTS
  0
DICTIONARY
  5
9
330
0
100
AcDbDictionary
281
     1
  3
ACAD_COLOR
350
2E
  3
ACAD_GROUP
350
2C
  3
ACAD_LAYOUT
350
22
  3
ACAD_MATERIAL
350
B
  3
ACAD_MLEADERSTYLE
350
614
  3
ACAD_MLINESTYLE
350
17
  3
ACAD_PLOTSETTINGS
350
2D
  3
ACAD_PLOTSTYLENAME
350
8
  3
ACAD_SCALELIST
350
36
  3
ACAD_TABLESTYLE
350
613
  3
ACAD_VISUALSTYLE
350
2F
  3
ACDBHEADERROUNDTRIPXREC
350
68D
  3
AcDbVariableDictionary
350
611
  3
DWGPROPS
350
690
  0
DICTIONARY
  5
691
330
2B
100
AcDbDictionary
280
     1
281
     1
  3
ACAD_XREC_ROUNDTRIP
360
692
  0
DICTIONARY
  5
3
330
2
100
AcDbDictionary
280
     1
281
     1
  3
ACAD_LAYERSTATES
360
4
  0
DICTIONARY
  5
1E
330
1D
100
AcDbDictionary
280
     1
281
     1
  3
ADSK_XREC_LAYER_RECONCILED
360
1F
  0
DICTIONARY
  5
35B
330
35A
100
AcDbDictionary
280
     1
281
     1
  3
ADSK_XREC_LAYER_RECONCILED
360
35C
  0
DICTIONARY
  5
5
330
1
100
AcDbDictionary
280
     1
281
     1
  3
ADSK_XREC_LAYER_RECONCILED
360
6
  0
DICTIONARY
  5
6E
330
6D
100
AcDbDictionary
280
     1
281
     1
  3
ADSK_XREC_LAYER_RECONCILED
360
6F
  0
DICTIONARY
  5
7B
330
7A
100
AcDbDictionary
280
     1
281
     1
  3
ADSK_XREC_LAYER_RECONCILED
360
7C
  0
DICTIONARY
  5
8A
330
89
100
AcDbDictionary
280
     1
281
     1
  3
ADSK_XREC_LAYER_RECONCILED
360
8B
  0
DICTIONARY
  5
1A
330
19
100
AcDbDictionary
280
     1
281
     1
  3
ACAD_SORTENTS
360
1B
  0
DICTIONARY
  5
2E
102
{ACAD_REACTORS
330
9
102
}
330
9
100
AcDbDictionary
281
     1
  0
DICTIONARY
  5
2C
102
{ACAD_REACTORS
330
9
102
}
330
9
100
AcDbDictionary
281
     1
  0
DICTIONARY
  5
22
102
{ACAD_REACTORS
330
9
102
}
330
9
100
AcDbDictionary
281
     1
  3
Model
350
21
  3
ﾚｲｱｳﾄ1
350
28
  0
DICTIONARY
  5
B
102
{ACAD_REACTORS
330
9
102
}
330
9
100
AcDbDictionary
281
     1
  3
ByBlock
350
69
  3
ByLayer
350
12
  3
Global
350
A
  0
DICTIONARY
  5
614
102
{ACAD_REACTORS
330
9
102
}
330
9
100
AcDbDictionary
281
     1
  3
Standard
350
62D
  0
DICTIONARY
  5
17
102
{ACAD_REACTORS
330
9
102
}
330
9
100
AcDbDictionary
281
     1
  3
STANDARD
350
16
  0
DICTIONARY
  5
2D
102
{ACAD_REACTORS
330
9
102
}
330
9
100
AcDbDictionary
281
     1
  0
ACDBDICTIONARYWDFLT
  5
8
102
{ACAD_REACTORS
330
9
102
}
330
9
100
AcDbDictionary
281
     1
  3
Normal
350
7
100
AcDbDictionaryWithDefault
340
7
  0
DICTIONARY
  5
36
102
{ACAD_REACTORS
330
9
102
}
330
9
100
AcDbDictionary
281
     1
  3
*A1
350
58
  3
*A10
350
61
  3
*A11
350
62
  3
*A12
350
63
  3
*A13
350
64
  3
*A14
350
65
  3
*A15
350
66
  3
*A16
350
67
  3
*A17
350
68
  3
*A2
350
59
  3
*A3
350
5A
  3
*A4
350
5B
  3
*A5
350
5C
  3
*A6
350
5D
  3
*A7
350
5E
  3
*A8
350
5F
  3
*A9
350
60
  0
DICTIONARY
  5
613
102
{ACAD_REACTORS
330
9
102
}
330
9
100
AcDbDictionary
281
     1
  3
Standard
350
689
  0
DICTIONARY
  5
2F
102
{ACAD_REACTORS
330
9
102
}
330
9
100
AcDbDictionary
281
     1
  3
2dWireframe
350
61B
  3
Basic
350
61D
  3
Brighten
350
620
  3
ColorChange
350
624
  3
Conceptual
350
61E
  3
Dim
350
61F
  3
EdgeColorOff
350
627
  3
Facepattern
350
623
  3
Flat
350
617
  3
FlatWithEdges
350
618
  3
Gouraud
350
619
  3
GouraudWithEdges
350
61A
  3
Hidden
350
61C
  3
JitterOff
350
625
  3
Linepattern
350
622
  3
OverhangOff
350
626
  3
Realistic
350
30
  3
Shaded
350
62C
  3
Shaded with edges
350
62B
  3
Shades of Gray
350
628
  3
Sketchy
350
629
  3
Thicken
350
621
  3
Wireframe
350
31
  3
X-Ray
350
62A
  0
DICTIONARY
  5
68D
102
{ACAD_REACTORS
330
9
102
}
330
9
100
AcDbDictionary
281
     1
  3
COLORDICT
350
68E
  3
MATERIALDICT
350
68F
  0
DICTIONARY
  5
611
102
{ACAD_REACTORS
330
9
102
}
330
9
100
AcDbDictionary
281
     1
  3
CANNOSCALE
350
612
  3
CMLEADERSTYLE
350
663
  3
CTABLESTYLE
350
68A
  3
DIMASSOC
350
68B
  3
HIDETEXT
350
68C
  3
MSLTSCALE
350
693
  0
XRECORD
  5
690
102
{ACAD_REACTORS
330
9
102
}
330
9
100
AcDbXrecord
280
     1
  1
DWGPROPS COOKIE
  2

  3

  4

  6

  7

  8
sg-d04
  9

300
=
301
=
302
=
303
=
304
=
305
=
306
=
307
=
308
=
309
=
 40
0.0
 41
2449812.381805555
 42
2457871.457883715
  1

 90
        0
  0
XRECORD
  5
692
102
{ACAD_REACTORS
330
691
102
}
330
691
100
AcDbXrecord
280
     1
102
VTR_0.000_0.000_1.000_1.000_VISUALSTYLE
340
61B
102
VTR_0.000_0.000_1.000_1.000_GRIDDISPLAY
 70
     3
102
VTR_0.000_0.000_1.000_1.000_GRIDMAJOR
 70
     5
102
VTR_0.000_0.000_1.000_1.000_DEFAULTLIGHTING
280
     1
102
VTR_0.000_0.000_1.000_1.000_DEFAULTLIGHTINGTYPE
 70
     1
102
VTR_0.000_0.000_1.000_1.000_BRIGHTNESS
141
0.0
102
VTR_0.000_0.000_1.000_1.000_CONTRAST
142
0.0
  0
DICTIONARY
  5
4
102
{ACAD_REACTORS
330
3
102
}
330
3
100
AcDbDictionary
281
     1
  0
XRECORD
  5
1F
102
{ACAD_REACTORS
330
1E
102
}
330
1E
100
AcDbXrecord
280
     1
290
     1
  0
XRECORD
  5
35C
102
{ACAD_REACTORS
330
35B
102
}
330
35B
100
AcDbXrecord
280
     1
290
     1
  0
XRECORD
  5
6
102
{ACAD_REACTORS
330
5
102
}
330
5
100
AcDbXrecord
280
     1
290
     1
  0
XRECORD
  5
6F
102
{ACAD_REACTORS
330
6E
102
}
330
6E
100
AcDbXrecord
280
     1
290
     1
  0
XRECORD
  5
7C
102
{ACAD_REACTORS
330
7B
102
}
330
7B
100
AcDbXrecord
280
     1
290
     1
  0
XRECORD
  5
8B
102
{ACAD_REACTORS
330
8A
102
}
330
8A
100
AcDbXrecord
280
     1
290
     1
  0
SORTENTSTABLE
  5
1B
102
{ACAD_REACTORS
330
1A
102
}
330
1A
100
AcDbSortentsTable
330
19
331
0
  5
520
331
4D3
  5
4D4
331
4D4
  5
4D5
331
4D5
  5
4D7
331
4D6
  5
4D8
331
4D7
  5
4D9
331
4D8
  5
4DA
331
4D9
  5
4DB
331
4DA
  5
4DC
331
4DB
  5
4DD
331
4DC
  5
4DE
331
4DD
  5
4E0
331
4DE
  5
4E1
331
4E0
  5
4E2
331
4E1
  5
4E3
331
4E2
  5
4E4
331
4E3
  5
4E5
331
4E5
  5
4E8
331
4E6
  5
4E9
331
4E7
  5
4EA
331
4E8
  5
4EB
331
4E9
  5
4EC
331
4EA
  5
4ED
331
4EB
  5
4EE
331
4EC
  5
4EF
331
4ED
  5
4F0
331
4EE
  5
4F1
331
4EF
  5
4F2
331
4F0
  5
4F3
331
4F1
  5
4F4
331
4F2
  5
4F5
331
4F3
  5
4F6
331
4F4
  5
4F7
331
4F5
  5
4F8
331
4F6
  5
4F9
331
4F7
  5
4FA
331
4F8
  5
4FB
331
4F9
  5
4FC
331
4FA
  5
4FD
331
4FB
  5
4FE
331
4FC
  5
4FF
331
4FD
  5
500
331
4FE
  5
501
331
4FF
  5
502
331
500
  5
503
331
501
  5
504
331
502
  5
505
331
503
  5
506
331
504
  5
507
331
505
  5
508
331
506
  5
509
331
507
  5
50A
331
508
  5
50B
331
509
  5
50C
331
50A
  5
50D
331
50B
  5
50E
331
50C
  5
50F
331
50D
  5
510
331
50E
  5
511
331
50F
  5
512
331
510
  5
513
331
511
  5
514
331
512
  5
515
331
513
  5
516
331
514
  5
517
331
515
  5
518
331
516
  5
519
331
517
  5
51A
331
518
  5
51B
331
519
  5
51C
331
51A
  5
51D
331
51B
  5
51E
331
51C
  5
51F
331
525
  5
528
331
526
  5
529
331
527
  5
52A
331
528
  5
52B
331
529
  5
52C
331
52A
  5
52D
331
52B
  5
52E
331
530
  5
533
331
536
  5
539
331
537
  5
53A
331
538
  5
53B
331
539
  5
53C
331
53E
  5
541
331
53F
  5
542
331
540
  5
543
331
55A
  5
55D
331
55B
  5
55E
331
55C
  5
55F
331
55D
  5
560
331
55F
  5
562
331
560
  5
563
331
561
  5
564
331
562
  5
565
331
568
  5
56B
331
569
  5
56C
331
56A
  5
56D
331
56B
  5
56E
331
56C
  5
56F
331
56D
  5
570
331
56E
  5
571
331
56F
  5
572
331
570
  5
573
331
571
  5
574
331
572
  5
575
331
573
  5
576
331
574
  5
577
331
575
  5
578
331
576
  5
579
331
577
  5
57A
331
578
  5
57B
331
579
  5
57C
331
57A
  5
57D
331
57B
  5
57E
331
57C
  5
57F
331
57D
  5
580
331
57E
  5
581
331
57F
  5
582
331
580
  5
583
331
581
  5
584
331
582
  5
585
331
583
  5
586
331
584
  5
587
331
585
  5
588
331
586
  5
589
331
587
  5
58A
331
588
  5
58B
331
589
  5
58C
331
58A
  5
58D
331
58B
  5
58E
331
58C
  5
58F
331
58D
  5
590
331
58E
  5
591
331
58F
  5
592
331
590
  5
593
331
591
  5
594
331
592
  5
595
331
593
  5
596
331
594
  5
597
331
595
  5
598
331
596
  5
599
331
597
  5
59A
331
598
  5
59B
331
599
  5
59C
331
59A
  5
59D
331
59B
  5
59E
331
59C
  5
59F
331
59D
  5
5A0
331
59E
  5
5A1
331
59F
  5
5A2
331
5A0
  5
5A3
331
5A1
  5
5A4
331
5A2
  5
5A5
331
5A3
  5
5A6
331
5A4
  5
5A7
331
5A5
  5
5A8
331
5A6
  5
5A9
331
5A7
  5
5AA
331
5A8
  5
5AB
331
5A9
  5
5AC
331
5AA
  5
5AD
331
5AB
  5
5AE
331
5AC
  5
5AF
331
5AD
  5
5B0
331
5AE
  5
5B1
331
5AF
  5
5B2
331
5B0
  5
5B3
331
5B1
  5
5B4
331
5B2
  5
5B5
331
5B3
  5
5B6
331
5B4
  5
5B7
331
5B5
  5
5B8
331
5B6
  5
5B9
331
5B7
  5
5BA
331
5B8
  5
5BB
331
5B9
  5
5BC
331
5BA
  5
5BD
331
5BB
  5
5BE
331
5BC
  5
5BF
331
5BD
  5
5C0
331
5BE
  5
5C1
331
5BF
  5
5C2
331
5C0
  5
5C3
331
5C1
  5
5C4
331
5C2
  5
5C5
331
5C3
  5
5C6
331
5C4
  5
5C7
331
5C5
  5
5C8
331
5C6
  5
5C9
331
5C7
  5
5CA
331
5C8
  5
5CB
331
5C9
  5
5CC
331
5CA
  5
5CD
331
5CB
  5
5CE
331
5CC
  5
5CF
331
5CD
  5
5D0
331
5CE
  5
5D1
331
5CF
  5
5D2
331
5D0
  5
5D3
331
5D1
  5
5D4
331
5D2
  5
5D5
331
5D3
  5
5D6
331
5D4
  5
5D7
331
5D5
  5
5D8
331
5D6
  5
5D9
331
5D7
  5
5DA
331
5D8
  5
5DB
331
5D9
  5
5DC
331
5DA
  5
5DD
331
5DB
  5
5DE
331
5DC
  5
5DF
331
5DD
  5
5E0
331
5DE
  5
5E1
331
5DF
  5
5E2
331
5E0
  5
5E3
331
5E1
  5
5E4
331
5E2
  5
5E5
331
5E3
  5
5E6
331
5E4
  5
5E7
331
5E5
  5
5E8
331
5E6
  5
5E9
331
5E7
  5
5EA
331
5E8
  5
5EB
331
5E9
  5
5EC
331
5EA
  5
5ED
331
5EB
  5
5EE
331
5EC
  5
5EF
331
5ED
  5
5F0
331
5EE
  5
5F1
331
5EF
  5
5F2
331
5F0
  5
5F3
331
5F1
  5
5F4
331
5F2
  5
5F5
331
5F3
  5
5F6
331
5F4
  5
5F7
331
5F5
  5
5F8
331
5F6
  5
5F9
331
5F7
  5
5FA
331
5F8
  5
5FB
331
5F9
  5
5FC
331
5FA
  5
5FD
331
5FB
  5
5FE
331
5FC
  5
5FF
331
5FD
  5
600
331
5FE
  5
601
331
5FF
  5
602
331
600
  5
603
331
601
  5
604
331
602
  5
605
331
603
  5
606
331
604
  5
607
331
605
  5
608
331
606
  5
609
331
607
  5
60A
331
608
  5
60B
331
609
  5
60C
331
60A
  5
60D
331
60B
  5
60E
331
60C
  5
60F
331
60D
  5
610
331
60E
  5
62F
331
60F
  5
630
331
610
  5
631
331
62F
  5
632
331
630
  5
633
331
632
  5
4D6
331
633
  5
635
331
634
  5
636
331
635
  5
4D3
331
64A
  5
4E7
  0
LAYOUT
  5
21
102
{ACAD_REACTORS
330
22
102
}
330
22
100
AcDbPlotSettings
  1

  2
Bullzip PDF Printer.pc3
  4
A3
  6

 40
0.2
 41
0.0
 42
0.0
 43
0.0
 44
420.2
 45
297.1
 46
25.0
 47
12.0
 48
131.9999998100004
 49
10.0
140
2423.999994560001
141
1644.999996185
142
1.0
143
6.0
 70
 11936
 72
     1
 73
     0
 74
     4
  7
monochrome.ctb
 75
     0
147
0.1744210990985904
148
-131.9999998100004
149
-10.0
100
AcDbLayout
  1
Model
 70
     0
 71
     0
 10
0.0
 20
0.0
 11
12.0
 21
9.0
 12
0.0
 22
0.0
 32
0.0
 14
218.2280011494172
 24
61.08253722567599
 34
0.0
 15
1935.695394188921
 25
1670.345538647902
 35
0.0
146
0.0
 13
0.0
 23
0.0
 33
0.0
 16
1.0
 26
0.0
 36
0.0
 17
0.0
 27
1.0
 37
0.0
 76
     0
330
19
331
33
1001
ACAD_PSEXT
1000
Bullzip PDF Printer.pc3
1000
Bullzip PDF Printer
1000
BULLZIP
1000
Bullzip PDF Printer 10.1.0.1871
1070
     0
  0
LAYOUT
  5
28
102
{ACAD_REACTORS
330
22
102
}
330
22
100
AcDbPlotSettings
  1

  2
SR-LP8300F
  4

  6

 40
0.0
 41
0.0
 42
0.0
 43
0.0
 44
0.0
 45
0.0
 46
0.0
 47
0.0
 48
0.0
 49
0.0
140
0.0
141
0.0
142
1.0
143
1.0
 70
   688
 72
     0
 73
     0
 74
     5
  7
monochrome.ctb
 75
    16
147
1.0
148
0.0
149
0.0
100
AcDbLayout
  1
ﾚｲｱｳﾄ1
 70
     0
 71
     1
 10
0.0
 20
0.0
 11
12.0
 21
9.0
 12
0.0
 22
0.0
 32
0.0
 14
1.000000000000000E+20
 24
1.000000000000000E+20
 34
1.000000000000000E+20
 15
-1.000000000000000E+20
 25
-1.000000000000000E+20
 35
-1.000000000000000E+20
146
0.0
 13
0.0
 23
0.0
 33
0.0
 16
1.0
 26
0.0
 36
0.0
 17
0.0
 27
1.0
 37
0.0
 76
     0
330
25
  0
MATERIAL
  5
69
102
{ACAD_REACTORS
330
B
102
}
102
{ACAD_XDICTIONARY
360
698
102
}
330
B
100
AcDbMaterial
  1
ByBlock
 72
     0
 73
     2
 43
0.0208333333333333
 43
0.0
 43
0.0
 43
0.0
 43
0.0
 43
0.0208333333333333
 43
0.0
 43
0.0
 43
0.0
 43
0.0
 43
1.0
 43
0.0
 43
0.0
 43
0.0
 43
0.0
 43
1.0
 77
     0
 78
     2
 47
0.0208333333333333
 47
0.0
 47
0.0
 47
0.0
 47
0.0
 47
0.0208333333333333
 47
0.0
 47
0.0
 47
0.0
 47
0.0
 47
1.0
 47
0.0
 47
0.0
 47
0.0
 47
0.0
 47
1.0
171
     0
172
     2
 49
0.0208333333333333
 49
0.0
 49
0.0
 49
0.0
 49
0.0
 49
0.0208333333333333
 49
0.0
 49
0.0
 49
0.0
 49
0.0
 49
1.0
 49
0.0
 49
0.0
 49
0.0
 49
0.0
 49
1.0
175
     0
176
     2
142
0.0208333333333333
142
0.0
142
0.0
142
0.0
142
0.0
142
0.0208333333333333
142
0.0
142
0.0
142
0.0
142
0.0
142
1.0
142
0.0
142
0.0
142
0.0
142
0.0
142
1.0
179
     0
270
     2
144
0.0208333333333333
144
0.0
144
0.0
144
0.0
144
0.0
144
0.0208333333333333
144
0.0
144
0.0
144
0.0
144
0.0
144
1.0
144
0.0
144
0.0
144
0.0
144
0.0
144
1.0
274
     2
147
0.0208333333333333
147
0.0
147
0.0
147
0.0
147
0.0
147
0.0208333333333333
147
0.0
147
0.0
147
0.0
147
0.0
147
1.0
147
0.0
147
0.0
147
0.0
147
0.0
147
1.0
  0
MATERIAL
  5
12
102
{ACAD_REACTORS
330
B
102
}
102
{ACAD_XDICTIONARY
360
694
102
}
330
B
100
AcDbMaterial
  1
ByLayer
 72
     0
 73
     2
 43
0.0208333333333333
 43
0.0
 43
0.0
 43
0.0
 43
0.0
 43
0.0208333333333333
 43
0.0
 43
0.0
 43
0.0
 43
0.0
 43
1.0
 43
0.0
 43
0.0
 43
0.0
 43
0.0
 43
1.0
 77
     0
 78
     2
 47
0.0208333333333333
 47
0.0
 47
0.0
 47
0.0
 47
0.0
 47
0.0208333333333333
 47
0.0
 47
0.0
 47
0.0
 47
0.0
 47
1.0
 47
0.0
 47
0.0
 47
0.0
 47
0.0
 47
1.0
171
     0
172
     2
 49
0.0208333333333333
 49
0.0
 49
0.0
 49
0.0
 49
0.0
 49
0.0208333333333333
 49
0.0
 49
0.0
 49
0.0
 49
0.0
 49
1.0
 49
0.0
 49
0.0
 49
0.0
 49
0.0
 49
1.0
175
     0
176
     2
142
0.0208333333333333
142
0.0
142
0.0
142
0.0
142
0.0
142
0.0208333333333333
142
0.0
142
0.0
142
0.0
142
0.0
142
1.0
142
0.0
142
0.0
142
0.0
142
0.0
142
1.0
179
     0
270
     2
144
0.0208333333333333
144
0.0
144
0.0
144
0.0
144
0.0
144
0.0208333333333333
144
0.0
144
0.0
144
0.0
144
0.0
144
1.0
144
0.0
144
0.0
144
0.0
144
0.0
144
1.0
274
     2
147
0.0208333333333333
147
0.0
147
0.0
147
0.0
147
0.0
147
0.0208333333333333
147
0.0
147
0.0
147
0.0
147
0.0
147
1.0
147
0.0
147
0.0
147
0.0
147
0.0
147
1.0
  0
MATERIAL
  5
A
102
{ACAD_REACTORS
330
B
102
}
102
{ACAD_XDICTIONARY
360
696
102
}
330
B
100
AcDbMaterial
  1
Global
 72
     0
 73
     2
 43
0.0208333333333333
 43
0.0
 43
0.0
 43
0.0
 43
0.0
 43
0.0208333333333333
 43
0.0
 43
0.0
 43
0.0
 43
0.0
 43
1.0
 43
0.0
 43
0.0
 43
0.0
 43
0.0
 43
1.0
 77
     0
 78
     2
 47
0.0208333333333333
 47
0.0
 47
0.0
 47
0.0
 47
0.0
 47
0.0208333333333333
 47
0.0
 47
0.0
 47
0.0
 47
0.0
 47
1.0
 47
0.0
 47
0.0
 47
0.0
 47
0.0
 47
1.0
171
     0
172
     2
 49
0.0208333333333333
 49
0.0
 49
0.0
 49
0.0
 49
0.0
 49
0.0208333333333333
 49
0.0
 49
0.0
 49
0.0
 49
0.0
 49
1.0
 49
0.0
 49
0.0
 49
0.0
 49
0.0
 49
1.0
175
     0
176
     2
142
0.0208333333333333
142
0.0
142
0.0
142
0.0
142
0.0
142
0.0208333333333333
142
0.0
142
0.0
142
0.0
142
0.0
142
1.0
142
0.0
142
0.0
142
0.0
142
0.0
142
1.0
179
     0
270
     2
144
0.0208333333333333
144
0.0
144
0.0
144
0.0
144
0.0
144
0.0208333333333333
144
0.0
144
0.0
144
0.0
144
0.0
144
1.0
144
0.0
144
0.0
144
0.0
144
0.0
144
1.0
274
     2
147
0.0208333333333333
147
0.0
147
0.0
147
0.0
147
0.0
147
0.0208333333333333
147
0.0
147
0.0
147
0.0
147
0.0
147
1.0
147
0.0
147
0.0
147
0.0
147
0.0
147
1.0
  0
MLEADERSTYLE
  5
62D
102
{ACAD_REACTORS
330
614
102
}
102
{ACAD_XDICTIONARY
360
6CA
102
}
330
614
100
AcDbMLeaderStyle
170
     2
171
     1
172
     0
 90
        2
 40
0.0
 41
0.0
173
     1
 91
-1056964608
340
F
 92
       -2
290
     1
 42
0.09
291
     1
 43
0.36
  3
Standard
341
0
 44
0.18
300

342
10
174
     1
178
     6
175
     1
176
     0
 93
-1056964608
 45
0.18
292
     0
297
     0
 46
0.18
343
0
 94
-1056964608
 47
1.0
 49
1.0
140
1.0
293
     1
141
0.0
294
     1
177
     0
142
1.0
295
     0
296
     0
143
0.125
1001
ACAD_MLEADERVER
1070
     2
  0
MLINESTYLE
  5
16
102
{ACAD_REACTORS
330
17
102
}
330
17
100
AcDbMlineStyle
  2
STANDARD
 70
     0
  3

 62
     0
 51
90.0
 52
90.0
 71
     2
 49
0.5
 62
   256
  6
BYLAYER
 49
-0.5
 62
   256
  6
BYLAYER
  0
ACDBPLACEHOLDER
  5
7
102
{ACAD_REACTORS
330
8
102
}
330
8
  0
SCALE
  5
58
102
{ACAD_REACTORS
330
36
102
}
330
36
100
AcDbScale
 70
     0
300
1:1
140
1.0
141
1.0
290
     1
  0
SCALE
  5
61
102
{ACAD_REACTORS
330
36
102
}
330
36
100
AcDbScale
 70
     0
300
3/8" = 1'-0"
140
0.375
141
12.0
290
     0
  0
SCALE
  5
62
102
{ACAD_REACTORS
330
36
102
}
330
36
100
AcDbScale
 70
     0
300
1/2" = 1'-0"
140
0.5
141
12.0
290
     0
  0
SCALE
  5
63
102
{ACAD_REACTORS
330
36
102
}
330
36
100
AcDbScale
 70
     0
300
3/4" = 1'-0"
140
0.75
141
12.0
290
     0
  0
SCALE
  5
64
102
{ACAD_REACTORS
330
36
102
}
330
36
100
AcDbScale
 70
     0
300
1" = 1'-0"
140
1.0
141
12.0
290
     0
  0
SCALE
  5
65
102
{ACAD_REACTORS
330
36
102
}
330
36
100
AcDbScale
 70
     0
300
1-1/2" = 1'-0"
140
1.5
141
12.0
290
     0
  0
SCALE
  5
66
102
{ACAD_REACTORS
330
36
102
}
330
36
100
AcDbScale
 70
     0
300
3" = 1'-0"
140
3.0
141
12.0
290
     0
  0
SCALE
  5
67
102
{ACAD_REACTORS
330
36
102
}
330
36
100
AcDbScale
 70
     0
300
6" = 1'-0"
140
6.0
141
12.0
290
     0
  0
SCALE
  5
68
102
{ACAD_REACTORS
330
36
102
}
330
36
100
AcDbScale
 70
     0
300
1'-0" = 1'-0"
140
12.0
141
12.0
290
     0
  0
SCALE
  5
59
102
{ACAD_REACTORS
330
36
102
}
330
36
100
AcDbScale
 70
     0
300
1/128" = 1'-0"
140
0.0078125
141
12.0
290
     0
  0
SCALE
  5
5A
102
{ACAD_REACTORS
330
36
102
}
330
36
100
AcDbScale
 70
     0
300
1/64" = 1'-0"
140
0.015625
141
12.0
290
     0
  0
SCALE
  5
5B
102
{ACAD_REACTORS
330
36
102
}
330
36
100
AcDbScale
 70
     0
300
1/32" = 1'-0"
140
0.03125
141
12.0
290
     0
  0
SCALE
  5
5C
102
{ACAD_REACTORS
330
36
102
}
330
36
100
AcDbScale
 70
     0
300
1/16" = 1'-0"
140
0.0625
141
12.0
290
     0
  0
SCALE
  5
5D
102
{ACAD_REACTORS
330
36
102
}
330
36
100
AcDbScale
 70
     0
300
3/32" = 1'-0"
140
0.09375
141
12.0
290
     0
  0
SCALE
  5
5E
102
{ACAD_REACTORS
330
36
102
}
330
36
100
AcDbScale
 70
     0
300
1/8" = 1'-0"
140
0.125
141
12.0
290
     0
  0
SCALE
  5
5F
102
{ACAD_REACTORS
330
36
102
}
330
36
100
AcDbScale
 70
     0
300
3/16" = 1'-0"
140
0.1875
141
12.0
290
     0
  0
SCALE
  5
60
102
{ACAD_REACTORS
330
36
102
}
330
36
100
AcDbScale
 70
     0
300
1/4" = 1'-0"
140
0.25
141
12.0
290
     0
  0
TABLESTYLE
  5
689
102
{ACAD_REACTORS
330
613
102
}
330
613
100
AcDbTableStyle
  3
Standard
 70
     0
 71
     0
 40
0.06
 41
0.06
280
     0
281
     0
  7
STANDARD
140
0.18
170
     2
 62
     0
 63
   257
283
     0
274
    -2
284
     1
 64
     0
275
    -2
285
     1
 65
     0
276
    -2
286
     1
 66
     0
277
    -2
287
     1
 67
     0
278
    -2
288
     1
 68
     0
279
    -2
289
     1
 69
     0
  7
STANDARD
140
0.25
170
     5
 62
     0
 63
   257
283
     0
274
    -2
284
     1
 64
     0
275
    -2
285
     1
 65
     0
276
    -2
286
     1
 66
     0
277
    -2
287
     1
 67
     0
278
    -2
288
     1
 68
     0
279
    -2
289
     1
 69
     0
  7
STANDARD
140
0.18
170
     5
 62
     0
 63
   257
283
     0
274
    -2
284
     1
 64
     0
275
    -2
285
     1
 65
     0
276
    -2
286
     1
 66
     0
277
    -2
287
     1
 67
     0
278
    -2
288
     1
 68
     0
279
    -2
289
     1
 69
     0
  0
VISUALSTYLE
  5
61B
102
{ACAD_REACTORS
330
2F
102
}
102
{ACAD_XDICTIONARY
360
6A6
102
}
330
2F
100
AcDbVisualStyle
  2
2dWireframe
 70
     4
 71
     0
 72
     2
 73
     0
 90
        0
 40
0.6
 41
30.0
 62
     5
 63
     7
 74
     1
 91
        4
 64
     7
 65
   257
 75
     1
175
     1
 42
1.0
 92
        0
 66
   257
 43
1.0
 76
     1
 77
     6
 78
     2
 67
     7
 79
     5
170
     0
171
     0
290
     0
174
     0
 93
        1
 44
0.0
173
     0
291
     0
 45
0.0
1001
ACAD
1000
AcDbSavedByObjectVersion
1070
     0
  0
VISUALSTYLE
  5
61D
102
{ACAD_REACTORS
330
2F
102
}
102
{ACAD_XDICTIONARY
360
6AA
102
}
330
2F
100
AcDbVisualStyle
  2
Basic
 70
     7
 71
     1
 72
     0
 73
     1
 90
        0
 40
0.6
 41
30.0
 62
     5
 63
     7
 74
     0
 91
        4
 64
     7
 65
   257
 75
     1
175
     1
 42
1.0
 92
        8
 66
     7
 43
1.0
 76
     1
 77
     6
 78
     2
 67
     7
 79
     5
170
     0
171
     0
290
     0
174
     0
 93
        1
 44
0.0
173
     0
291
     1
 45
0.0
1001
ACAD
1000
AcDbSavedByObjectVersion
1070
     0
  0
VISUALSTYLE
  5
620
102
{ACAD_REACTORS
330
2F
102
}
102
{ACAD_XDICTIONARY
360
6B0
102
}
330
2F
100
AcDbVisualStyle
  2
Brighten
 70
    12
 71
     2
 72
     2
 73
     0
 90
        0
 40
0.6
 41
30.0
 62
     5
 63
     7
 74
     1
 91
        4
 64
     7
 65
   257
 75
     1
175
     1
 42
1.0
 92
        8
 66
     7
 43
1.0
 76
     1
 77
     6
 78
     2
 67
     7
 79
     5
170
     0
171
     0
290
     0
174
     0
 93
        1
 44
50.0
173
     0
291
     1
 45
0.0
1001
ACAD
1000
AcDbSavedByObjectVersion
1070
     0
  0
VISUALSTYLE
  5
624
102
{ACAD_REACTORS
330
2F
102
}
102
{ACAD_XDICTIONARY
360
6B8
102
}
330
2F
100
AcDbVisualStyle
  2
ColorChange
 70
    16
 71
     2
 72
     2
 73
     3
 90
        0
 40
0.6
 41
30.0
 62
     5
 63
     8
 74
     1
 91
        4
 64
     7
 65
   257
 75
     1
175
     1
 42
1.0
 92
        8
 66
     8
 43
1.0
 76
     1
 77
     6
 78
     2
 67
     7
 79
     5
170
     0
171
     0
290
     0
174
     0
 93
        1
 44
0.0
173
     0
291
     1
 45
0.0
1001
ACAD
1000
AcDbSavedByObjectVersion
1070
     0
  0
VISUALSTYLE
  5
61E
102
{ACAD_REACTORS
330
2F
102
}
102
{ACAD_XDICTIONARY
360
6AC
102
}
330
2F
100
AcDbVisualStyle
  2
Conceptual
 70
     9
 71
     3
 72
     2
 73
     0
 90
        0
 40
0.6
 41
30.0
 62
     5
 63
     7
 74
     2
 91
        2
 64
     7
 65
   257
 75
     1
175
     1
 42
40.0
 92
        8
 66
     7
 43
1.0
 76
     1
 77
     6
 78
     2
 67
     7
 79
     3
170
     0
171
     0
290
     0
174
     0
 93
        1
 44
0.0
173
     0
291
     0
 45
0.0
1001
ACAD
1000
AcDbSavedByObjectVersion
1070
     0
  0
VISUALSTYLE
  5
61F
102
{ACAD_REACTORS
330
2F
102
}
102
{ACAD_XDICTIONARY
360
6AE
102
}
330
2F
100
AcDbVisualStyle
  2
Dim
 70
    11
 71
     2
 72
     2
 73
     0
 90
        0
 40
0.6
 41
30.0
 62
     5
 63
     7
 74
     1
 91
        4
 64
     7
 65
   257
 75
     1
175
     1
 42
1.0
 92
        8
 66
     7
 43
1.0
 76
     1
 77
     6
 78
     2
 67
     7
 79
     5
170
     0
171
     0
290
     0
174
     0
 93
        1
 44
-50.0
173
     0
291
     1
 45
0.0
1001
ACAD
1000
AcDbSavedByObjectVersion
1070
     0
  0
VISUALSTYLE
  5
627
102
{ACAD_REACTORS
330
2F
102
}
102
{ACAD_XDICTIONARY
360
6BE
102
}
330
2F
100
AcDbVisualStyle
  2
EdgeColorOff
 70
    22
 71
     2
 72
     2
 73
     0
 90
        0
 40
0.6
 41
30.0
 62
     5
 63
     7
 74
     1
 91
        4
 64
     7
 65
   257
 75
     1
175
     1
 42
1.0
 92
        8
 66
     7
 43
1.0
 76
     1
 77
     6
 78
     2
 67
     7
 79
     5
170
     0
171
     0
290
     0
174
     0
 93
        1
 44
0.0
173
     0
291
     1
 45
0.0
1001
ACAD
1000
AcDbSavedByObjectVersion
1070
     0
  0
VISUALSTYLE
  5
623
102
{ACAD_REACTORS
330
2F
102
}
102
{ACAD_XDICTIONARY
360
6B6
102
}
330
2F
100
AcDbVisualStyle
  2
Facepattern
 70
    15
 71
     2
 72
     2
 73
     0
 90
        0
 40
0.6
 41
30.0
 62
     5
 63
     7
 74
     1
 91
        4
 64
     7
 65
   257
 75
     1
175
     1
 42
1.0
 92
        8
 66
     7
 43
1.0
 76
     1
 77
     6
 78
     2
 67
     7
 79
     5
170
     0
171
     0
290
     0
174
     0
 93
        1
 44
0.0
173
     0
291
     1
 45
0.0
1001
ACAD
1000
AcDbSavedByObjectVersion
1070
     0
  0
VISUALSTYLE
  5
617
102
{ACAD_REACTORS
330
2F
102
}
102
{ACAD_XDICTIONARY
360
69E
102
}
330
2F
100
AcDbVisualStyle
  2
Flat
 70
     0
 71
     2
 72
     1
 73
     1
 90
        2
 40
0.6
 41
30.0
 62
     5
 63
     7
 74
     0
 91
        4
 64
     7
 65
   257
 75
     1
175
     1
 42
1.0
 92
        8
 66
     7
 43
1.0
 76
     1
 77
     6
 78
     2
 67
     7
 79
     5
170
     0
171
     0
290
     0
174
     0
 93
       13
 44
0.0
173
     0
291
     1
 45
0.0
1001
ACAD
1000
AcDbSavedByObjectVersion
1070
     0
  0
VISUALSTYLE
  5
618
102
{ACAD_REACTORS
330
2F
102
}
102
{ACAD_XDICTIONARY
360
6A0
102
}
330
2F
100
AcDbVisualStyle
  2
FlatWithEdges
 70
     1
 71
     2
 72
     1
 73
     1
 90
        2
 40
0.6
 41
30.0
 62
     5
 63
     7
 74
     1
 91
        4
 64
     7
 65
   257
 75
     1
175
     1
 42
1.0
 92
        0
 66
   257
 43
1.0
 76
     1
 77
     6
 78
     2
 67
     7
 79
     5
170
     0
171
     0
290
     0
174
     0
 93
       13
 44
0.0
173
     0
291
     1
 45
0.0
1001
ACAD
1000
AcDbSavedByObjectVersion
1070
     0
  0
VISUALSTYLE
  5
619
102
{ACAD_REACTORS
330
2F
102
}
102
{ACAD_XDICTIONARY
360
6A2
102
}
330
2F
100
AcDbVisualStyle
  2
Gouraud
 70
     2
 71
     2
 72
     2
 73
     1
 90
        2
 40
0.6
 41
30.0
 62
     5
 63
     7
 74
     0
 91
        4
 64
     7
 65
   257
 75
     1
175
     1
 42
1.0
 92
        0
 66
     7
 43
1.0
 76
     1
 77
     6
 78
     2
 67
     7
 79
     5
170
     0
171
     0
290
     0
174
     0
 93
       13
 44
0.0
173
     0
291
     1
 45
0.0
1001
ACAD
1000
AcDbSavedByObjectVersion
1070
     0
  0
VISUALSTYLE
  5
61A
102
{ACAD_REACTORS
330
2F
102
}
102
{ACAD_XDICTIONARY
360
6A4
102
}
330
2F
100
AcDbVisualStyle
  2
GouraudWithEdges
 70
     3
 71
     2
 72
     2
 73
     1
 90
        2
 40
0.6
 41
30.0
 62
     5
 63
     7
 74
     1
 91
        4
 64
     7
 65
   257
 75
     1
175
     1
 42
1.0
 92
        0
 66
   257
 43
1.0
 76
     1
 77
     6
 78
     2
 67
     7
 79
     5
170
     0
171
     0
290
     0
174
     0
 93
       13
 44
0.0
173
     0
291
     1
 45
0.0
1001
ACAD
1000
AcDbSavedByObjectVersion
1070
     0
  0
VISUALSTYLE
  5
61C
102
{ACAD_REACTORS
330
2F
102
}
102
{ACAD_XDICTIONARY
360
6A8
102
}
330
2F
100
AcDbVisualStyle
  2
Hidden
 70
     6
 71
     1
 72
     2
 73
     2
 90
        0
 40
0.6
 41
30.0
 62
     5
 63
     7
 74
     2
 91
        2
 64
     7
 65
   257
 75
     2
175
     1
 42
40.0
 92
        0
 66
   257
 43
1.0
 76
     1
 77
     6
 78
     2
 67
     7
 79
     3
170
     0
171
     0
290
     0
174
     0
 93
        1
 44
0.0
173
     0
291
     0
 45
0.0
1001
ACAD
1000
AcDbSavedByObjectVersion
1070
     0
  0
VISUALSTYLE
  5
625
102
{ACAD_REACTORS
330
2F
102
}
102
{ACAD_XDICTIONARY
360
6BA
102
}
330
2F
100
AcDbVisualStyle
  2
JitterOff
 70
    20
 71
     2
 72
     2
 73
     0
 90
        0
 40
0.6
 41
30.0
 62
     5
 63
     7
 74
     1
 91
        4
 64
     7
 65
   257
 75
     1
175
     1
 42
1.0
 92
       10
 66
     7
 43
1.0
 76
     1
 77
     6
 78
     2
 67
     7
 79
     5
170
     0
171
     0
290
     0
174
     0
 93
        1
 44
0.0
173
     0
291
     1
 45
0.0
1001
ACAD
1000
AcDbSavedByObjectVersion
1070
     0
  0
VISUALSTYLE
  5
622
102
{ACAD_REACTORS
330
2F
102
}
102
{ACAD_XDICTIONARY
360
6B4
102
}
330
2F
100
AcDbVisualStyle
  2
Linepattern
 70
    14
 71
     2
 72
     2
 73
     0
 90
        0
 40
0.6
 41
30.0
 62
     5
 63
     7
 74
     1
 91
        4
 64
     7
 65
   257
 75
     7
175
     7
 42
1.0
 92
        8
 66
     7
 43
1.0
 76
     1
 77
     6
 78
     2
 67
     7
 79
     5
170
     0
171
     0
290
     0
174
     0
 93
        1
 44
0.0
173
     0
291
     1
 45
0.0
1001
ACAD
1000
AcDbSavedByObjectVersion
1070
     0
  0
VISUALSTYLE
  5
626
102
{ACAD_REACTORS
330
2F
102
}
102
{ACAD_XDICTIONARY
360
6BC
102
}
330
2F
100
AcDbVisualStyle
  2
OverhangOff
 70
    21
 71
     2
 72
     2
 73
     0
 90
        0
 40
0.6
 41
30.0
 62
     5
 63
     7
 74
     1
 91
        4
 64
     7
 65
   257
 75
     1
175
     1
 42
1.0
 92
        9
 66
     7
 43
1.0
 76
     1
 77
     6
 78
     2
 67
     7
 79
     5
170
     0
171
     0
290
     0
174
     0
 93
        1
 44
0.0
173
     0
291
     1
 45
0.0
1001
ACAD
1000
AcDbSavedByObjectVersion
1070
     0
  0
VISUALSTYLE
  5
30
102
{ACAD_REACTORS
330
2F
102
}
102
{ACAD_XDICTIONARY
360
69A
102
}
330
2F
100
AcDbVisualStyle
  2
Realistic
 70
     8
 71
     2
 72
     3
 73
     0
 90
        2
 40
0.6
 41
30.0
 62
     5
 63
     7
 74
     0
 91
        0
 64
     7
 65
   257
 75
     1
175
     1
 42
1.0
 92
        8
 66
   257
 43
1.0
 76
     1
 77
     6
 78
     2
 67
     7
 79
     3
170
     0
171
     0
290
     0
174
     0
 93
       13
 44
0.0
173
     0
291
     0
 45
0.0
1001
ACAD
1000
AcDbSavedByObjectVersion
1070
     0
  0
VISUALSTYLE
  5
62C
102
{ACAD_REACTORS
330
2F
102
}
102
{ACAD_XDICTIONARY
360
6C8
102
}
330
2F
100
AcDbVisualStyle
  2
Shaded
 70
    27
 71
     2
 72
     2
 73
     1
 90
        2
 40
0.6
 41
30.0
 62
     5
 63
     7
 74
     0
 91
        4
 64
     7
 65
   257
 75
     1
175
     1
 42
1.0
 92
        8
 66
   257
 43
1.0
 76
     1
 77
     6
 78
     2
 67
   251
 79
     3
170
     0
171
     0
290
     0
174
     0
 93
        5
 44
0.0
173
     0
291
     0
 45
0.0
1001
ACAD
1000
AcDbSavedByObjectVersion
1070
     0
  0
VISUALSTYLE
  5
62B
102
{ACAD_REACTORS
330
2F
102
}
102
{ACAD_XDICTIONARY
360
6C6
102
}
330
2F
100
AcDbVisualStyle
  2
Shaded with edges
 70
    26
 71
     2
 72
     2
 73
     1
 90
        2
 40
0.6
 41
30.0
 62
     5
 63
     7
 74
     1
 91
       10
 64
     7
 65
   257
 75
     2
175
     1
 42
1.0
 92
        8
 66
   257
 43
1.0
 76
     1
 77
     6
 78
     2
 67
     7
 79
     3
170
     0
171
     0
290
     0
174
     0
 93
        5
 44
0.0
173
     0
291
     0
 45
0.0
1001
ACAD
1000
AcDbSavedByObjectVersion
1070
     0
  0
VISUALSTYLE
  5
628
102
{ACAD_REACTORS
330
2F
102
}
102
{ACAD_XDICTIONARY
360
6C0
102
}
330
2F
100
AcDbVisualStyle
  2
Shades of Gray
 70
    23
 71
     2
 72
     2
 73
     3
 90
        0
 40
0.6
 41
30.0
 62
     5
 63
     7
 74
     2
 91
        2
 64
     7
 65
     7
 75
     1
175
     1
 42
40.0
 92
        8
 66
     7
 43
1.0
 76
     1
 77
     6
 78
     2
 67
     7
 79
     3
170
     0
171
     0
290
     0
174
     0
 93
        1
 44
0.0
173
     0
291
     0
 45
0.0
1001
ACAD
1000
AcDbSavedByObjectVersion
1070
     0
  0
VISUALSTYLE
  5
629
102
{ACAD_REACTORS
330
2F
102
}
102
{ACAD_XDICTIONARY
360
6C2
102
}
330
2F
100
AcDbVisualStyle
  2
Sketchy
 70
    24
 71
     1
 72
     2
 73
     2
 90
        0
 40
0.6
 41
30.0
 62
     5
 63
     7
 74
     2
 91
        2
 64
     7
 65
     7
 75
     1
175
     1
 42
40.0
 92
       11
 66
     7
 43
1.0
 76
     1
 77
     6
 78
     2
 67
     7
 79
     6
170
     0
171
     0
290
     0
174
     0
 93
        1
 44
0.0
173
     0
291
     0
 45
0.0
1001
ACAD
1000
AcDbSavedByObjectVersion
1070
     0
  0
VISUALSTYLE
  5
621
102
{ACAD_REACTORS
330
2F
102
}
102
{ACAD_XDICTIONARY
360
6B2
102
}
330
2F
100
AcDbVisualStyle
  2
Thicken
 70
    13
 71
     2
 72
     2
 73
     0
 90
        0
 40
0.6
 41
30.0
 62
     5
 63
     7
 74
     1
 91
        4
 64
     7
 65
   257
 75
     1
175
     1
 42
1.0
 92
       12
 66
     7
 43
1.0
 76
     1
 77
     6
 78
     2
 67
     7
 79
     5
170
     0
171
     0
290
     0
174
     0
 93
        1
 44
0.0
173
     0
291
     1
 45
0.0
1001
ACAD
1000
AcDbSavedByObjectVersion
1070
     0
  0
VISUALSTYLE
  5
31
102
{ACAD_REACTORS
330
2F
102
}
102
{ACAD_XDICTIONARY
360
69C
102
}
330
2F
100
AcDbVisualStyle
  2
Wireframe
 70
     5
 71
     0
 72
     2
 73
     0
 90
        0
 40
0.6
 41
30.0
 62
     5
 63
     7
 74
     1
 91
        4
 64
     7
 65
   257
 75
     1
175
     1
 42
1.0
 92
        0
 66
   257
 43
1.0
 76
     1
 77
     6
 78
     2
 67
     7
 79
     3
170
     0
171
     0
290
     0
174
     0
 93
        1
 44
0.0
173
     0
291
     0
 45
0.0
1001
ACAD
1000
AcDbSavedByObjectVersion
1070
     0
  0
VISUALSTYLE
  5
62A
102
{ACAD_REACTORS
330
2F
102
}
102
{ACAD_XDICTIONARY
360
6C4
102
}
330
2F
100
AcDbVisualStyle
  2
X-Ray
 70
    25
 71
     2
 72
     2
 73
     1
 90
        1
 40
0.5
 41
30.0
 62
     5
 63
     7
 74
     1
 91
        0
 64
     7
 65
   257
 75
     1
175
     1
 42
1.0
 92
        8
 66
     7
 43
1.0
 76
     1
 77
     6
 78
     2
 67
     7
 79
     3
170
     0
171
     0
290
     0
174
     0
 93
       13
 44
0.0
173
     0
291
     0
 45
0.0
1001
ACAD
1000
AcDbSavedByObjectVersion
1070
     0
  0
XRECORD
  5
68E
102
{ACAD_REACTORS
330
68D
102
}
330
68D
100
AcDbXrecord
280
     1
340
2E
  0
XRECORD
  5
68F
102
{ACAD_REACTORS
330
68D
102
}
330
68D
100
AcDbXrecord
280
     1
340
B
  0
DICTIONARYVAR
  5
612
102
{ACAD_REACTORS
330
611
102
}
330
611
100
DictionaryVariables
280
     0
  1
1:1
  0
DICTIONARYVAR
  5
663
102
{ACAD_REACTORS
330
611
102
}
330
611
100
DictionaryVariables
280
     0
  1
Standard
  0
DICTIONARYVAR
  5
68A
102
{ACAD_REACTORS
330
611
102
}
330
611
100
DictionaryVariables
280
     0
  1
Standard
  0
DICTIONARYVAR
  5
68B
102
{ACAD_REACTORS
330
611
102
}
330
611
100
DictionaryVariables
280
     0
  1
0
  0
DICTIONARYVAR
  5
68C
102
{ACAD_REACTORS
330
611
102
}
330
611
100
DictionaryVariables
280
     0
  1
1
  0
DICTIONARYVAR
  5
693
102
{ACAD_REACTORS
330
611
102
}
330
611
100
DictionaryVariables
280
     0
  1
1
  0
DICTIONARY
  5
698
330
69
100
AcDbDictionary
280
     1
281
     1
  3
ACAD_XREC_ROUNDTRIP
360
699
  0
DICTIONARY
  5
694
330
12
100
AcDbDictionary
280
     1
281
     1
  3
ACAD_XREC_ROUNDTRIP
360
695
  0
DICTIONARY
  5
696
330
A
100
AcDbDictionary
280
     1
281
     1
  3
ACAD_XREC_ROUNDTRIP
360
697
  0
DICTIONARY
  5
6CA
330
62D
100
AcDbDictionary
280
     1
281
     1
  3
ACAD_XREC_ROUNDTRIP
360
6CB
  0
DICTIONARY
  5
6A6
330
61B
100
AcDbDictionary
280
     1
281
     1
  3
ACAD_XREC_ROUNDTRIP
360
6A7
  0
DICTIONARY
  5
6AA
330
61D
100
AcDbDictionary
280
     1
281
     1
  3
ACAD_XREC_ROUNDTRIP
360
6AB
  0
DICTIONARY
  5
6B0
330
620
100
AcDbDictionary
280
     1
281
     1
  3
ACAD_XREC_ROUNDTRIP
360
6B1
  0
DICTIONARY
  5
6B8
330
624
100
AcDbDictionary
280
     1
281
     1
  3
ACAD_XREC_ROUNDTRIP
360
6B9
  0
DICTIONARY
  5
6AC
330
61E
100
AcDbDictionary
280
     1
281
     1
  3
ACAD_XREC_ROUNDTRIP
360
6AD
  0
DICTIONARY
  5
6AE
330
61F
100
AcDbDictionary
280
     1
281
     1
  3
ACAD_XREC_ROUNDTRIP
360
6AF
  0
DICTIONARY
  5
6BE
330
627
100
AcDbDictionary
280
     1
281
     1
  3
ACAD_XREC_ROUNDTRIP
360
6BF
  0
DICTIONARY
  5
6B6
330
623
100
AcDbDictionary
280
     1
281
     1
  3
ACAD_XREC_ROUNDTRIP
360
6B7
  0
DICTIONARY
  5
69E
330
617
100
AcDbDictionary
280
     1
281
     1
  3
ACAD_XREC_ROUNDTRIP
360
69F
  0
DICTIONARY
  5
6A0
330
618
100
AcDbDictionary
280
     1
281
     1
  3
ACAD_XREC_ROUNDTRIP
360
6A1
  0
DICTIONARY
  5
6A2
330
619
100
AcDbDictionary
280
     1
281
     1
  3
ACAD_XREC_ROUNDTRIP
360
6A3
  0
DICTIONARY
  5
6A4
330
61A
100
AcDbDictionary
280
     1
281
     1
  3
ACAD_XREC_ROUNDTRIP
360
6A5
  0
DICTIONARY
  5
6A8
330
61C
100
AcDbDictionary
280
     1
281
     1
  3
ACAD_XREC_ROUNDTRIP
360
6A9
  0
DICTIONARY
  5
6BA
330
625
100
AcDbDictionary
280
     1
281
     1
  3
ACAD_XREC_ROUNDTRIP
360
6BB
  0
DICTIONARY
  5
6B4
330
622
100
AcDbDictionary
280
     1
281
     1
  3
ACAD_XREC_ROUNDTRIP
360
6B5
  0
DICTIONARY
  5
6BC
330
626
100
AcDbDictionary
280
     1
281
     1
  3
ACAD_XREC_ROUNDTRIP
360
6BD
  0
DICTIONARY
  5
69A
330
30
100
AcDbDictionary
280
     1
281
     1
  3
ACAD_XREC_ROUNDTRIP
360
69B
  0
DICTIONARY
  5
6C8
330
62C
100
AcDbDictionary
280
     1
281
     1
  3
ACAD_XREC_ROUNDTRIP
360
6C9
  0
DICTIONARY
  5
6C6
330
62B
100
AcDbDictionary
280
     1
281
     1
  3
ACAD_XREC_ROUNDTRIP
360
6C7
  0
DICTIONARY
  5
6C0
330
628
100
AcDbDictionary
280
     1
281
     1
  3
ACAD_XREC_ROUNDTRIP
360
6C1
  0
DICTIONARY
  5
6C2
330
629
100
AcDbDictionary
280
     1
281
     1
  3
ACAD_XREC_ROUNDTRIP
360
6C3
  0
DICTIONARY
  5
6B2
330
621
100
AcDbDictionary
280
     1
281
     1
  3
ACAD_XREC_ROUNDTRIP
360
6B3
  0
DICTIONARY
  5
69C
330
31
100
AcDbDictionary
280
     1
281
     1
  3
ACAD_XREC_ROUNDTRIP
360
69D
  0
DICTIONARY
  5
6C4
330
62A
100
AcDbDictionary
280
     1
281
     1
  3
ACAD_XREC_ROUNDTRIP
360
6C5
  0
XRECORD
  5
699
102
{ACAD_REACTORS
330
698
102
}
330
698
100
AcDbXrecord
280
     1
102
MATERIAL
148
0.0
149
0.0
149
0.0
 93
        0
 94
      127
282
     0
 72
     0
 77
     0
171
     0
175
     0
179
     0
273
     0
  0
XRECORD
  5
695
102
{ACAD_REACTORS
330
694
102
}
330
694
100
AcDbXrecord
280
     1
102
MATERIAL
148
0.0
149
0.0
149
0.0
 93
        0
 94
      127
282
     0
 72
     0
 77
     0
171
     0
175
     0
179
     0
273
     0
  0
XRECORD
  5
697
102
{ACAD_REACTORS
330
696
102
}
330
696
100
AcDbXrecord
280
     1
102
MATERIAL
148
0.0
149
0.0
149
0.0
 93
        0
 94
      127
282
     0
 72
     0
 77
     0
171
     0
175
     0
179
     0
273
     0
  0
XRECORD
  5
6CB
102
{ACAD_REACTORS
330
6CA
102
}
330
6CA
100
AcDbXrecord
280
     1
102
ACAD_ROUNDTRIP_2010_MLEADER_STYLE
  0
XRECORD
  5
6A7
102
{ACAD_REACTORS
330
6A6
102
}
330
6A6
100
AcDbXrecord
280
     1
102
RTVSPropertyOp0
 70
     1
102
RTVSPropertyOp1
 70
     1
102
RTVSPropertyOp2
 70
     1
102
RTVSPropertyOp3
 70
     1
102
RTVSPropertyOp4
 70
     1
102
RTVSPropertyOp5
 70
     1
102
RTVSPropertyOp6
 70
     1
102
RTVSPropertyOp7
 70
     1
102
RTVSPropertyOp8
 70
     1
102
RTVSPropertyOp9
 70
     1
102
RTVSPropertyOp10
 70
     1
102
RTVSPropertyOp11
 70
     1
102
RTVSPropertyOp12
 70
     1
102
RTVSPropertyOp13
 70
     1
102
RTVSPropertyOp14
 70
     1
102
RTVSPropertyOp15
 70
     1
102
RTVSPropertyOp16
 70
     1
102
RTVSPropertyOp17
 70
     1
102
RTVSPropertyOp18
 70
     1
102
RTVSPropertyOp19
 70
     1
102
RTVSPropertyOp20
 70
     1
102
RTVSPropertyOp21
 70
     1
102
RTVSPropertyOp22
 70
     1
102
RTVSPropertyOp23
 70
     1
102
RTVSPropertyOp24
 70
     1
102
RTVSPropertyOp25
 70
     1
102
RTVSPropertyOp26
 70
     1
102
RTVSPropertyOp27
 70
     1
102
RTVSPropertyOp28
 70
     1
102
RTVSPropertyOp29
 70
     1
102
RTVSPropertyOp30
 70
     1
102
RTVSPropertyOp31
 70
     1
102
RTVSPropertyOp32
 70
     1
102
RTVSPropertyOp33
 70
     1
102
RTVSPropertyOp34
 70
     1
102
RTVSPropertyOp35
 70
     1
102
RTVSPropertyOp36
 70
     1
102
RTVSPropertyOp37
 70
     1
102
RTVSPropertyOp38
 70
     1
102
RTVSPropertyOp39
 70
     1
102
RTVSPropertyOp40
 70
     1
102
RTVSPropertyOp41
 70
     1
102
RTVSPropertyOp42
 70
     1
102
RTVSPropertyOp43
 70
     1
102
RTVSPropertyOp44
 70
     1
102
RTVSPropertyOp45
 70
     1
102
RTVSPropertyOp46
 70
     1
102
RTVSPropertyOp47
 70
     1
102
RTVSPropertyOp48
 70
     1
102
RTVSPropertyOp49
 70
     1
102
RTVSPropertyOp50
 70
     1
102
RTVSPropertyOp51
 70
     0
102
RTVSPropertyOp52
 70
     0
102
RTVSPropertyOp53
 70
     1
102
RTVSPropertyOp54
 70
     1
102
RTVSPropertyOp55
 70
     1
102
RTVSPropertyOp56
 70
     1
102
RTVSPropertyOp57
 70
     1
102
RTVSPost2010Prop28
280
     1
102
RTVSPost2010PropOp28
 70
     1
102
RTVSPost2010Prop29
280
     1
102
RTVSPost2010PropOp29
 70
     1
102
RTVSPost2010Prop30
280
     0
102
RTVSPost2010PropOp30
 70
     1
102
RTVSPost2010Prop31
280
     0
102
RTVSPost2010PropOp31
 70
     1
102
RTVSPost2010Prop32
280
     0
102
RTVSPost2010PropOp32
 70
     1
102
RTVSPost2010Prop33
280
     0
102
RTVSPost2010PropOp33
 70
     1
102
RTVSPost2010Prop34
280
     0
102
RTVSPost2010PropOp34
 70
     1
102
RTVSPost2010Prop35
280
     0
102
RTVSPost2010PropOp35
 70
     1
102
RTVSPost2010Prop36
280
     0
102
RTVSPost2010PropOp36
 70
     1
102
RTVSPost2010Prop37
 90
       50
102
RTVSPost2010PropOp37
 70
     1
102
RTVSPost2010Prop38
140
0.0
102
RTVSPost2010PropOp38
 70
     1
102
RTVSPost2010Prop39
140
1.0
102
RTVSPost2010PropOp39
 70
     1
102
RTVSPost2010Prop40
 90
        0
102
RTVSPost2010PropOp40
 70
     1
102
RTVSPost2010Prop41ColorIndex
 90
       18
102
RTVSPost2010Prop41ColorRGB
 90
        0
102
RTVSPost2010PropOp41
 70
     1
102
RTVSPost2010Prop42
 90
       50
102
RTVSPost2010PropOp42
 70
     1
102
RTVSPost2010Prop43
 90
        3
102
RTVSPost2010PropOp43
 70
     1
102
RTVSPost2010Prop44ColorIndex
 90
        5
102
RTVSPost2010Prop44ColorRGB
 90
      255
102
RTVSPost2010PropOp44
 70
     1
102
RTVSPost2010Prop45
280
     0
102
RTVSPost2010PropOp45
 70
     1
102
RTVSPost2010Prop46
 90
       50
102
RTVSPost2010PropOp46
 70
     1
102
RTVSPost2010Prop47
 90
       50
102
RTVSPost2010PropOp47
 70
     1
102
RTVSPost2010Prop48
 90
       50
102
RTVSPost2010PropOp48
 70
     1
102
RTVSPost2010Prop49
280
     0
102
RTVSPost2010PropOp49
 70
     1
102
RTVSPost2010Prop50
 90
       50
102
RTVSPost2010PropOp50
 70
     1
102
RTVSPost2010Prop51ColorIndex
 90
      256
102
RTVSPost2010Prop51ColorRGB
 90
-16777216
102
RTVSPost2010PropOp51
 70
     0
102
RTVSPost2010Prop52
140
1.0
102
RTVSPost2010PropOp52
 70
     0
102
RTVSPost2010Prop53
 90
        2
102
RTVSPost2010PropOp53
 70
     1
102
RTVSPost2010Prop54
  1
strokes_ogs.tif
102
RTVSPost2010PropOp54
 70
     1
102
RTVSPost2010Prop55
280
     0
102
RTVSPost2010PropOp55
 70
     1
102
RTVSPost2010Prop56
140
1.0
102
RTVSPost2010PropOp56
 70
     1
102
RTVSPost2010Prop57
140
1.0
102
RTVSPost2010PropOp57
 70
     1
  0
XRECORD
  5
6AB
102
{ACAD_REACTORS
330
6AA
102
}
330
6AA
100
AcDbXrecord
280
     1
102
RTVSPropertyOp0
 70
     1
102
RTVSPropertyOp1
 70
     1
102
RTVSPropertyOp2
 70
     1
102
RTVSPropertyOp3
 70
     1
102
RTVSPropertyOp4
 70
     1
102
RTVSPropertyOp5
 70
     1
102
RTVSPropertyOp6
 70
     1
102
RTVSPropertyOp7
 70
     1
102
RTVSPropertyOp8
 70
     1
102
RTVSPropertyOp9
 70
     1
102
RTVSPropertyOp10
 70
     1
102
RTVSPropertyOp11
 70
     1
102
RTVSPropertyOp12
 70
     1
102
RTVSPropertyOp13
 70
     1
102
RTVSPropertyOp14
 70
     1
102
RTVSPropertyOp15
 70
     1
102
RTVSPropertyOp16
 70
     1
102
RTVSPropertyOp17
 70
     1
102
RTVSPropertyOp18
 70
     1
102
RTVSPropertyOp19
 70
     1
102
RTVSPropertyOp20
 70
     1
102
RTVSPropertyOp21
 70
     1
102
RTVSPropertyOp22
 70
     1
102
RTVSPropertyOp23
 70
     1
102
RTVSPropertyOp24
 70
     1
102
RTVSPropertyOp25
 70
     1
102
RTVSPropertyOp26
 70
     1
102
RTVSPropertyOp27
 70
     1
102
RTVSPropertyOp28
 70
     1
102
RTVSPropertyOp29
 70
     1
102
RTVSPropertyOp30
 70
     1
102
RTVSPropertyOp31
 70
     1
102
RTVSPropertyOp32
 70
     1
102
RTVSPropertyOp33
 70
     1
102
RTVSPropertyOp34
 70
     1
102
RTVSPropertyOp35
 70
     1
102
RTVSPropertyOp36
 70
     1
102
RTVSPropertyOp37
 70
     1
102
RTVSPropertyOp38
 70
     1
102
RTVSPropertyOp39
 70
     1
102
RTVSPropertyOp40
 70
     1
102
RTVSPropertyOp41
 70
     1
102
RTVSPropertyOp42
 70
     1
102
RTVSPropertyOp43
 70
     1
102
RTVSPropertyOp44
 70
     1
102
RTVSPropertyOp45
 70
     1
102
RTVSPropertyOp46
 70
     1
102
RTVSPropertyOp47
 70
     1
102
RTVSPropertyOp48
 70
     1
102
RTVSPropertyOp49
 70
     1
102
RTVSPropertyOp50
 70
     1
102
RTVSPropertyOp51
 70
     0
102
RTVSPropertyOp52
 70
     0
102
RTVSPropertyOp53
 70
     1
102
RTVSPropertyOp54
 70
     1
102
RTVSPropertyOp55
 70
     1
102
RTVSPropertyOp56
 70
     1
102
RTVSPropertyOp57
 70
     1
102
RTVSPost2010Prop28
280
     0
102
RTVSPost2010PropOp28
 70
     1
102
RTVSPost2010Prop29
280
     1
102
RTVSPost2010PropOp29
 70
     1
102
RTVSPost2010Prop30
280
     1
102
RTVSPost2010PropOp30
 70
     1
102
RTVSPost2010Prop31
280
     0
102
RTVSPost2010PropOp31
 70
     1
102
RTVSPost2010Prop32
280
     0
102
RTVSPost2010PropOp32
 70
     1
102
RTVSPost2010Prop33
280
     0
102
RTVSPost2010PropOp33
 70
     1
102
RTVSPost2010Prop34
280
     0
102
RTVSPost2010PropOp34
 70
     1
102
RTVSPost2010Prop35
280
     0
102
RTVSPost2010PropOp35
 70
     1
102
RTVSPost2010Prop36
280
     0
102
RTVSPost2010PropOp36
 70
     1
102
RTVSPost2010Prop37
 90
       50
102
RTVSPost2010PropOp37
 70
     1
102
RTVSPost2010Prop38
140
0.0
102
RTVSPost2010PropOp38
 70
     1
102
RTVSPost2010Prop39
140
1.0
102
RTVSPost2010PropOp39
 70
     1
102
RTVSPost2010Prop40
 90
        0
102
RTVSPost2010PropOp40
 70
     1
102
RTVSPost2010Prop41ColorIndex
 90
       18
102
RTVSPost2010Prop41ColorRGB
 90
        0
102
RTVSPost2010PropOp41
 70
     1
102
RTVSPost2010Prop42
 90
       50
102
RTVSPost2010PropOp42
 70
     1
102
RTVSPost2010Prop43
 90
        3
102
RTVSPost2010PropOp43
 70
     1
102
RTVSPost2010Prop44ColorIndex
 90
        5
102
RTVSPost2010Prop44ColorRGB
 90
      255
102
RTVSPost2010PropOp44
 70
     1
102
RTVSPost2010Prop45
280
     0
102
RTVSPost2010PropOp45
 70
     1
102
RTVSPost2010Prop46
 90
       50
102
RTVSPost2010PropOp46
 70
     1
102
RTVSPost2010Prop47
 90
       50
102
RTVSPost2010PropOp47
 70
     1
102
RTVSPost2010Prop48
 90
       50
102
RTVSPost2010PropOp48
 70
     1
102
RTVSPost2010Prop49
280
     0
102
RTVSPost2010PropOp49
 70
     1
102
RTVSPost2010Prop50
 90
       50
102
RTVSPost2010PropOp50
 70
     1
102
RTVSPost2010Prop51ColorIndex
 90
      256
102
RTVSPost2010Prop51ColorRGB
 90
-16777216
102
RTVSPost2010PropOp51
 70
     0
102
RTVSPost2010Prop52
140
1.0
102
RTVSPost2010PropOp52
 70
     0
102
RTVSPost2010Prop53
 90
        2
102
RTVSPost2010PropOp53
 70
     1
102
RTVSPost2010Prop54
  1
strokes_ogs.tif
102
RTVSPost2010PropOp54
 70
     1
102
RTVSPost2010Prop55
280
     0
102
RTVSPost2010PropOp55
 70
     1
102
RTVSPost2010Prop56
140
1.0
102
RTVSPost2010PropOp56
 70
     1
102
RTVSPost2010Prop57
140
1.0
102
RTVSPost2010PropOp57
 70
     1
  0
XRECORD
  5
6B1
102
{ACAD_REACTORS
330
6B0
102
}
330
6B0
100
AcDbXrecord
280
     1
102
RTVSPropertyOp0
 70
     1
102
RTVSPropertyOp1
 70
     1
102
RTVSPropertyOp2
 70
     1
102
RTVSPropertyOp3
 70
     1
102
RTVSPropertyOp4
 70
     1
102
RTVSPropertyOp5
 70
     1
102
RTVSPropertyOp6
 70
     1
102
RTVSPropertyOp7
 70
     1
102
RTVSPropertyOp8
 70
     1
102
RTVSPropertyOp9
 70
     1
102
RTVSPropertyOp10
 70
     1
102
RTVSPropertyOp11
 70
     1
102
RTVSPropertyOp12
 70
     1
102
RTVSPropertyOp13
 70
     1
102
RTVSPropertyOp14
 70
     1
102
RTVSPropertyOp15
 70
     1
102
RTVSPropertyOp16
 70
     1
102
RTVSPropertyOp17
 70
     1
102
RTVSPropertyOp18
 70
     1
102
RTVSPropertyOp19
 70
     1
102
RTVSPropertyOp20
 70
     1
102
RTVSPropertyOp21
 70
     1
102
RTVSPropertyOp22
 70
     1
102
RTVSPropertyOp23
 70
     1
102
RTVSPropertyOp24
 70
     1
102
RTVSPropertyOp25
 70
     1
102
RTVSPropertyOp26
 70
     1
102
RTVSPropertyOp27
 70
     1
102
RTVSPropertyOp28
 70
     1
102
RTVSPropertyOp29
 70
     1
102
RTVSPropertyOp30
 70
     1
102
RTVSPropertyOp31
 70
     1
102
RTVSPropertyOp32
 70
     1
102
RTVSPropertyOp33
 70
     1
102
RTVSPropertyOp34
 70
     1
102
RTVSPropertyOp35
 70
     1
102
RTVSPropertyOp36
 70
     1
102
RTVSPropertyOp37
 70
     1
102
RTVSPropertyOp38
 70
     1
102
RTVSPropertyOp39
 70
     1
102
RTVSPropertyOp40
 70
     1
102
RTVSPropertyOp41
 70
     1
102
RTVSPropertyOp42
 70
     1
102
RTVSPropertyOp43
 70
     1
102
RTVSPropertyOp44
 70
     1
102
RTVSPropertyOp45
 70
     1
102
RTVSPropertyOp46
 70
     1
102
RTVSPropertyOp47
 70
     1
102
RTVSPropertyOp48
 70
     1
102
RTVSPropertyOp49
 70
     1
102
RTVSPropertyOp50
 70
     1
102
RTVSPropertyOp51
 70
     0
102
RTVSPropertyOp52
 70
     0
102
RTVSPropertyOp53
 70
     1
102
RTVSPropertyOp54
 70
     1
102
RTVSPropertyOp55
 70
     1
102
RTVSPropertyOp56
 70
     1
102
RTVSPropertyOp57
 70
     1
102
RTVSPost2010Prop28
280
     0
102
RTVSPost2010PropOp28
 70
     1
102
RTVSPost2010Prop29
280
     1
102
RTVSPost2010PropOp29
 70
     1
102
RTVSPost2010Prop30
280
     1
102
RTVSPost2010PropOp30
 70
     1
102
RTVSPost2010Prop31
280
     0
102
RTVSPost2010PropOp31
 70
     1
102
RTVSPost2010Prop32
280
     0
102
RTVSPost2010PropOp32
 70
     1
102
RTVSPost2010Prop33
280
     0
102
RTVSPost2010PropOp33
 70
     1
102
RTVSPost2010Prop34
280
     0
102
RTVSPost2010PropOp34
 70
     1
102
RTVSPost2010Prop35
280
     0
102
RTVSPost2010PropOp35
 70
     1
102
RTVSPost2010Prop36
280
     0
102
RTVSPost2010PropOp36
 70
     1
102
RTVSPost2010Prop37
 90
       50
102
RTVSPost2010PropOp37
 70
     1
102
RTVSPost2010Prop38
140
0.0
102
RTVSPost2010PropOp38
 70
     1
102
RTVSPost2010Prop39
140
1.0
102
RTVSPost2010PropOp39
 70
     1
102
RTVSPost2010Prop40
 90
        0
102
RTVSPost2010PropOp40
 70
     1
102
RTVSPost2010Prop41ColorIndex
 90
       18
102
RTVSPost2010Prop41ColorRGB
 90
        0
102
RTVSPost2010PropOp41
 70
     1
102
RTVSPost2010Prop42
 90
       50
102
RTVSPost2010PropOp42
 70
     1
102
RTVSPost2010Prop43
 90
        3
102
RTVSPost2010PropOp43
 70
     1
102
RTVSPost2010Prop44ColorIndex
 90
        5
102
RTVSPost2010Prop44ColorRGB
 90
      255
102
RTVSPost2010PropOp44
 70
     1
102
RTVSPost2010Prop45
280
     0
102
RTVSPost2010PropOp45
 70
     1
102
RTVSPost2010Prop46
 90
       50
102
RTVSPost2010PropOp46
 70
     1
102
RTVSPost2010Prop47
 90
       50
102
RTVSPost2010PropOp47
 70
     1
102
RTVSPost2010Prop48
 90
       50
102
RTVSPost2010PropOp48
 70
     1
102
RTVSPost2010Prop49
280
     0
102
RTVSPost2010PropOp49
 70
     1
102
RTVSPost2010Prop50
 90
       50
102
RTVSPost2010PropOp50
 70
     1
102
RTVSPost2010Prop51ColorIndex
 90
      256
102
RTVSPost2010Prop51ColorRGB
 90
-16777216
102
RTVSPost2010PropOp51
 70
     0
102
RTVSPost2010Prop52
140
1.0
102
RTVSPost2010PropOp52
 70
     0
102
RTVSPost2010Prop53
 90
        2
102
RTVSPost2010PropOp53
 70
     1
102
RTVSPost2010Prop54
  1
strokes_ogs.tif
102
RTVSPost2010PropOp54
 70
     1
102
RTVSPost2010Prop55
280
     0
102
RTVSPost2010PropOp55
 70
     1
102
RTVSPost2010Prop56
140
1.0
102
RTVSPost2010PropOp56
 70
     1
102
RTVSPost2010Prop57
140
1.0
102
RTVSPost2010PropOp57
 70
     1
  0
XRECORD
  5
6B9
102
{ACAD_REACTORS
330
6B8
102
}
330
6B8
100
AcDbXrecord
280
     1
102
RTVSPropertyOp0
 70
     1
102
RTVSPropertyOp1
 70
     1
102
RTVSPropertyOp2
 70
     1
102
RTVSPropertyOp3
 70
     1
102
RTVSPropertyOp4
 70
     1
102
RTVSPropertyOp5
 70
     1
102
RTVSPropertyOp6
 70
     1
102
RTVSPropertyOp7
 70
     1
102
RTVSPropertyOp8
 70
     1
102
RTVSPropertyOp9
 70
     1
102
RTVSPropertyOp10
 70
     1
102
RTVSPropertyOp11
 70
     1
102
RTVSPropertyOp12
 70
     1
102
RTVSPropertyOp13
 70
     1
102
RTVSPropertyOp14
 70
     1
102
RTVSPropertyOp15
 70
     1
102
RTVSPropertyOp16
 70
     1
102
RTVSPropertyOp17
 70
     1
102
RTVSPropertyOp18
 70
     1
102
RTVSPropertyOp19
 70
     1
102
RTVSPropertyOp20
 70
     1
102
RTVSPropertyOp21
 70
     1
102
RTVSPropertyOp22
 70
     1
102
RTVSPropertyOp23
 70
     1
102
RTVSPropertyOp24
 70
     1
102
RTVSPropertyOp25
 70
     1
102
RTVSPropertyOp26
 70
     1
102
RTVSPropertyOp27
 70
     1
102
RTVSPropertyOp28
 70
     1
102
RTVSPropertyOp29
 70
     1
102
RTVSPropertyOp30
 70
     1
102
RTVSPropertyOp31
 70
     1
102
RTVSPropertyOp32
 70
     1
102
RTVSPropertyOp33
 70
     1
102
RTVSPropertyOp34
 70
     1
102
RTVSPropertyOp35
 70
     1
102
RTVSPropertyOp36
 70
     1
102
RTVSPropertyOp37
 70
     1
102
RTVSPropertyOp38
 70
     1
102
RTVSPropertyOp39
 70
     1
102
RTVSPropertyOp40
 70
     1
102
RTVSPropertyOp41
 70
     1
102
RTVSPropertyOp42
 70
     1
102
RTVSPropertyOp43
 70
     1
102
RTVSPropertyOp44
 70
     1
102
RTVSPropertyOp45
 70
     1
102
RTVSPropertyOp46
 70
     1
102
RTVSPropertyOp47
 70
     1
102
RTVSPropertyOp48
 70
     1
102
RTVSPropertyOp49
 70
     1
102
RTVSPropertyOp50
 70
     1
102
RTVSPropertyOp51
 70
     0
102
RTVSPropertyOp52
 70
     0
102
RTVSPropertyOp53
 70
     1
102
RTVSPropertyOp54
 70
     1
102
RTVSPropertyOp55
 70
     1
102
RTVSPropertyOp56
 70
     1
102
RTVSPropertyOp57
 70
     1
102
RTVSPost2010Prop28
280
     0
102
RTVSPost2010PropOp28
 70
     1
102
RTVSPost2010Prop29
280
     1
102
RTVSPost2010PropOp29
 70
     1
102
RTVSPost2010Prop30
280
     1
102
RTVSPost2010PropOp30
 70
     1
102
RTVSPost2010Prop31
280
     0
102
RTVSPost2010PropOp31
 70
     1
102
RTVSPost2010Prop32
280
     0
102
RTVSPost2010PropOp32
 70
     1
102
RTVSPost2010Prop33
280
     0
102
RTVSPost2010PropOp33
 70
     1
102
RTVSPost2010Prop34
280
     0
102
RTVSPost2010PropOp34
 70
     1
102
RTVSPost2010Prop35
280
     0
102
RTVSPost2010PropOp35
 70
     1
102
RTVSPost2010Prop36
280
     0
102
RTVSPost2010PropOp36
 70
     1
102
RTVSPost2010Prop37
 90
       50
102
RTVSPost2010PropOp37
 70
     1
102
RTVSPost2010Prop38
140
0.0
102
RTVSPost2010PropOp38
 70
     1
102
RTVSPost2010Prop39
140
1.0
102
RTVSPost2010PropOp39
 70
     1
102
RTVSPost2010Prop40
 90
        0
102
RTVSPost2010PropOp40
 70
     1
102
RTVSPost2010Prop41ColorIndex
 90
       18
102
RTVSPost2010Prop41ColorRGB
 90
        0
102
RTVSPost2010PropOp41
 70
     1
102
RTVSPost2010Prop42
 90
       50
102
RTVSPost2010PropOp42
 70
     1
102
RTVSPost2010Prop43
 90
        3
102
RTVSPost2010PropOp43
 70
     1
102
RTVSPost2010Prop44ColorIndex
 90
        5
102
RTVSPost2010Prop44ColorRGB
 90
      255
102
RTVSPost2010PropOp44
 70
     1
102
RTVSPost2010Prop45
280
     0
102
RTVSPost2010PropOp45
 70
     1
102
RTVSPost2010Prop46
 90
       50
102
RTVSPost2010PropOp46
 70
     1
102
RTVSPost2010Prop47
 90
       50
102
RTVSPost2010PropOp47
 70
     1
102
RTVSPost2010Prop48
 90
       50
102
RTVSPost2010PropOp48
 70
     1
102
RTVSPost2010Prop49
280
     0
102
RTVSPost2010PropOp49
 70
     1
102
RTVSPost2010Prop50
 90
       50
102
RTVSPost2010PropOp50
 70
     1
102
RTVSPost2010Prop51ColorIndex
 90
      256
102
RTVSPost2010Prop51ColorRGB
 90
-16777216
102
RTVSPost2010PropOp51
 70
     0
102
RTVSPost2010Prop52
140
1.0
102
RTVSPost2010PropOp52
 70
     0
102
RTVSPost2010Prop53
 90
        2
102
RTVSPost2010PropOp53
 70
     1
102
RTVSPost2010Prop54
  1
strokes_ogs.tif
102
RTVSPost2010PropOp54
 70
     1
102
RTVSPost2010Prop55
280
     0
102
RTVSPost2010PropOp55
 70
     1
102
RTVSPost2010Prop56
140
1.0
102
RTVSPost2010PropOp56
 70
     1
102
RTVSPost2010Prop57
140
1.0
102
RTVSPost2010PropOp57
 70
     1
  0
XRECORD
  5
6AD
102
{ACAD_REACTORS
330
6AC
102
}
330
6AC
100
AcDbXrecord
280
     1
102
RTVSPropertyOp0
 70
     1
102
RTVSPropertyOp1
 70
     1
102
RTVSPropertyOp2
 70
     1
102
RTVSPropertyOp3
 70
     1
102
RTVSPropertyOp4
 70
     1
102
RTVSPropertyOp5
 70
     1
102
RTVSPropertyOp6
 70
     1
102
RTVSPropertyOp7
 70
     1
102
RTVSPropertyOp8
 70
     1
102
RTVSPropertyOp9
 70
     1
102
RTVSPropertyOp10
 70
     1
102
RTVSPropertyOp11
 70
     1
102
RTVSPropertyOp12
 70
     1
102
RTVSPropertyOp13
 70
     1
102
RTVSPropertyOp14
 70
     1
102
RTVSPropertyOp15
 70
     1
102
RTVSPropertyOp16
 70
     1
102
RTVSPropertyOp17
 70
     1
102
RTVSPropertyOp18
 70
     1
102
RTVSPropertyOp19
 70
     1
102
RTVSPropertyOp20
 70
     1
102
RTVSPropertyOp21
 70
     1
102
RTVSPropertyOp22
 70
     1
102
RTVSPropertyOp23
 70
     1
102
RTVSPropertyOp24
 70
     1
102
RTVSPropertyOp25
 70
     1
102
RTVSPropertyOp26
 70
     1
102
RTVSPropertyOp27
 70
     1
102
RTVSPropertyOp28
 70
     1
102
RTVSPropertyOp29
 70
     1
102
RTVSPropertyOp30
 70
     1
102
RTVSPropertyOp31
 70
     1
102
RTVSPropertyOp32
 70
     1
102
RTVSPropertyOp33
 70
     1
102
RTVSPropertyOp34
 70
     1
102
RTVSPropertyOp35
 70
     1
102
RTVSPropertyOp36
 70
     1
102
RTVSPropertyOp37
 70
     1
102
RTVSPropertyOp38
 70
     1
102
RTVSPropertyOp39
 70
     1
102
RTVSPropertyOp40
 70
     1
102
RTVSPropertyOp41
 70
     1
102
RTVSPropertyOp42
 70
     1
102
RTVSPropertyOp43
 70
     1
102
RTVSPropertyOp44
 70
     1
102
RTVSPropertyOp45
 70
     1
102
RTVSPropertyOp46
 70
     1
102
RTVSPropertyOp47
 70
     1
102
RTVSPropertyOp48
 70
     1
102
RTVSPropertyOp49
 70
     1
102
RTVSPropertyOp50
 70
     1
102
RTVSPropertyOp51
 70
     0
102
RTVSPropertyOp52
 70
     0
102
RTVSPropertyOp53
 70
     1
102
RTVSPropertyOp54
 70
     1
102
RTVSPropertyOp55
 70
     1
102
RTVSPropertyOp56
 70
     1
102
RTVSPropertyOp57
 70
     1
102
RTVSPost2010Prop28
280
     0
102
RTVSPost2010PropOp28
 70
     1
102
RTVSPost2010Prop29
280
     1
102
RTVSPost2010PropOp29
 70
     1
102
RTVSPost2010Prop30
280
     1
102
RTVSPost2010PropOp30
 70
     1
102
RTVSPost2010Prop31
280
     0
102
RTVSPost2010PropOp31
 70
     1
102
RTVSPost2010Prop32
280
     0
102
RTVSPost2010PropOp32
 70
     1
102
RTVSPost2010Prop33
280
     0
102
RTVSPost2010PropOp33
 70
     1
102
RTVSPost2010Prop34
280
     0
102
RTVSPost2010PropOp34
 70
     1
102
RTVSPost2010Prop35
280
     0
102
RTVSPost2010PropOp35
 70
     1
102
RTVSPost2010Prop36
280
     0
102
RTVSPost2010PropOp36
 70
     1
102
RTVSPost2010Prop37
 90
       50
102
RTVSPost2010PropOp37
 70
     1
102
RTVSPost2010Prop38
140
0.0
102
RTVSPost2010PropOp38
 70
     1
102
RTVSPost2010Prop39
140
1.0
102
RTVSPost2010PropOp39
 70
     1
102
RTVSPost2010Prop40
 90
        0
102
RTVSPost2010PropOp40
 70
     1
102
RTVSPost2010Prop41ColorIndex
 90
       18
102
RTVSPost2010Prop41ColorRGB
 90
        0
102
RTVSPost2010PropOp41
 70
     1
102
RTVSPost2010Prop42
 90
       50
102
RTVSPost2010PropOp42
 70
     1
102
RTVSPost2010Prop43
 90
        3
102
RTVSPost2010PropOp43
 70
     1
102
RTVSPost2010Prop44ColorIndex
 90
        5
102
RTVSPost2010Prop44ColorRGB
 90
      255
102
RTVSPost2010PropOp44
 70
     1
102
RTVSPost2010Prop45
280
     0
102
RTVSPost2010PropOp45
 70
     1
102
RTVSPost2010Prop46
 90
       50
102
RTVSPost2010PropOp46
 70
     1
102
RTVSPost2010Prop47
 90
       50
102
RTVSPost2010PropOp47
 70
     1
102
RTVSPost2010Prop48
 90
       50
102
RTVSPost2010PropOp48
 70
     1
102
RTVSPost2010Prop49
280
     0
102
RTVSPost2010PropOp49
 70
     1
102
RTVSPost2010Prop50
 90
       50
102
RTVSPost2010PropOp50
 70
     1
102
RTVSPost2010Prop51ColorIndex
 90
      256
102
RTVSPost2010Prop51ColorRGB
 90
-16777216
102
RTVSPost2010PropOp51
 70
     0
102
RTVSPost2010Prop52
140
1.0
102
RTVSPost2010PropOp52
 70
     0
102
RTVSPost2010Prop53
 90
        2
102
RTVSPost2010PropOp53
 70
     1
102
RTVSPost2010Prop54
  1
strokes_ogs.tif
102
RTVSPost2010PropOp54
 70
     1
102
RTVSPost2010Prop55
280
     0
102
RTVSPost2010PropOp55
 70
     1
102
RTVSPost2010Prop56
140
1.0
102
RTVSPost2010PropOp56
 70
     1
102
RTVSPost2010Prop57
140
1.0
102
RTVSPost2010PropOp57
 70
     1
  0
XRECORD
  5
6AF
102
{ACAD_REACTORS
330
6AE
102
}
330
6AE
100
AcDbXrecord
280
     1
102
RTVSPropertyOp0
 70
     1
102
RTVSPropertyOp1
 70
     1
102
RTVSPropertyOp2
 70
     1
102
RTVSPropertyOp3
 70
     1
102
RTVSPropertyOp4
 70
     1
102
RTVSPropertyOp5
 70
     1
102
RTVSPropertyOp6
 70
     1
102
RTVSPropertyOp7
 70
     1
102
RTVSPropertyOp8
 70
     1
102
RTVSPropertyOp9
 70
     1
102
RTVSPropertyOp10
 70
     1
102
RTVSPropertyOp11
 70
     1
102
RTVSPropertyOp12
 70
     1
102
RTVSPropertyOp13
 70
     1
102
RTVSPropertyOp14
 70
     1
102
RTVSPropertyOp15
 70
     1
102
RTVSPropertyOp16
 70
     1
102
RTVSPropertyOp17
 70
     1
102
RTVSPropertyOp18
 70
     1
102
RTVSPropertyOp19
 70
     1
102
RTVSPropertyOp20
 70
     1
102
RTVSPropertyOp21
 70
     1
102
RTVSPropertyOp22
 70
     1
102
RTVSPropertyOp23
 70
     1
102
RTVSPropertyOp24
 70
     1
102
RTVSPropertyOp25
 70
     1
102
RTVSPropertyOp26
 70
     1
102
RTVSPropertyOp27
 70
     1
102
RTVSPropertyOp28
 70
     1
102
RTVSPropertyOp29
 70
     1
102
RTVSPropertyOp30
 70
     1
102
RTVSPropertyOp31
 70
     1
102
RTVSPropertyOp32
 70
     1
102
RTVSPropertyOp33
 70
     1
102
RTVSPropertyOp34
 70
     1
102
RTVSPropertyOp35
 70
     1
102
RTVSPropertyOp36
 70
     1
102
RTVSPropertyOp37
 70
     1
102
RTVSPropertyOp38
 70
     1
102
RTVSPropertyOp39
 70
     1
102
RTVSPropertyOp40
 70
     1
102
RTVSPropertyOp41
 70
     1
102
RTVSPropertyOp42
 70
     1
102
RTVSPropertyOp43
 70
     1
102
RTVSPropertyOp44
 70
     1
102
RTVSPropertyOp45
 70
     1
102
RTVSPropertyOp46
 70
     1
102
RTVSPropertyOp47
 70
     1
102
RTVSPropertyOp48
 70
     1
102
RTVSPropertyOp49
 70
     1
102
RTVSPropertyOp50
 70
     1
102
RTVSPropertyOp51
 70
     0
102
RTVSPropertyOp52
 70
     0
102
RTVSPropertyOp53
 70
     1
102
RTVSPropertyOp54
 70
     1
102
RTVSPropertyOp55
 70
     1
102
RTVSPropertyOp56
 70
     1
102
RTVSPropertyOp57
 70
     1
102
RTVSPost2010Prop28
280
     0
102
RTVSPost2010PropOp28
 70
     1
102
RTVSPost2010Prop29
280
     1
102
RTVSPost2010PropOp29
 70
     1
102
RTVSPost2010Prop30
280
     1
102
RTVSPost2010PropOp30
 70
     1
102
RTVSPost2010Prop31
280
     0
102
RTVSPost2010PropOp31
 70
     1
102
RTVSPost2010Prop32
280
     0
102
RTVSPost2010PropOp32
 70
     1
102
RTVSPost2010Prop33
280
     0
102
RTVSPost2010PropOp33
 70
     1
102
RTVSPost2010Prop34
280
     0
102
RTVSPost2010PropOp34
 70
     1
102
RTVSPost2010Prop35
280
     0
102
RTVSPost2010PropOp35
 70
     1
102
RTVSPost2010Prop36
280
     0
102
RTVSPost2010PropOp36
 70
     1
102
RTVSPost2010Prop37
 90
       50
102
RTVSPost2010PropOp37
 70
     1
102
RTVSPost2010Prop38
140
0.0
102
RTVSPost2010PropOp38
 70
     1
102
RTVSPost2010Prop39
140
1.0
102
RTVSPost2010PropOp39
 70
     1
102
RTVSPost2010Prop40
 90
        0
102
RTVSPost2010PropOp40
 70
     1
102
RTVSPost2010Prop41ColorIndex
 90
       18
102
RTVSPost2010Prop41ColorRGB
 90
        0
102
RTVSPost2010PropOp41
 70
     1
102
RTVSPost2010Prop42
 90
       50
102
RTVSPost2010PropOp42
 70
     1
102
RTVSPost2010Prop43
 90
        3
102
RTVSPost2010PropOp43
 70
     1
102
RTVSPost2010Prop44ColorIndex
 90
        5
102
RTVSPost2010Prop44ColorRGB
 90
      255
102
RTVSPost2010PropOp44
 70
     1
102
RTVSPost2010Prop45
280
     0
102
RTVSPost2010PropOp45
 70
     1
102
RTVSPost2010Prop46
 90
       50
102
RTVSPost2010PropOp46
 70
     1
102
RTVSPost2010Prop47
 90
       50
102
RTVSPost2010PropOp47
 70
     1
102
RTVSPost2010Prop48
 90
       50
102
RTVSPost2010PropOp48
 70
     1
102
RTVSPost2010Prop49
280
     0
102
RTVSPost2010PropOp49
 70
     1
102
RTVSPost2010Prop50
 90
       50
102
RTVSPost2010PropOp50
 70
     1
102
RTVSPost2010Prop51ColorIndex
 90
      256
102
RTVSPost2010Prop51ColorRGB
 90
-16777216
102
RTVSPost2010PropOp51
 70
     0
102
RTVSPost2010Prop52
140
1.0
102
RTVSPost2010PropOp52
 70
     0
102
RTVSPost2010Prop53
 90
        2
102
RTVSPost2010PropOp53
 70
     1
102
RTVSPost2010Prop54
  1
strokes_ogs.tif
102
RTVSPost2010PropOp54
 70
     1
102
RTVSPost2010Prop55
280
     0
102
RTVSPost2010PropOp55
 70
     1
102
RTVSPost2010Prop56
140
1.0
102
RTVSPost2010PropOp56
 70
     1
102
RTVSPost2010Prop57
140
1.0
102
RTVSPost2010PropOp57
 70
     1
  0
XRECORD
  5
6BF
102
{ACAD_REACTORS
330
6BE
102
}
330
6BE
100
AcDbXrecord
280
     1
102
RTVSPropertyOp0
 70
     0
102
RTVSPropertyOp1
 70
     0
102
RTVSPropertyOp2
 70
     0
102
RTVSPropertyOp3
 70
     0
102
RTVSPropertyOp4
 70
     0
102
RTVSPropertyOp5
 70
     0
102
RTVSPropertyOp6
 70
     0
102
RTVSPropertyOp7
 70
     0
102
RTVSPropertyOp8
 70
     0
102
RTVSPropertyOp9
 70
     0
102
RTVSPropertyOp10
 70
     0
102
RTVSPropertyOp11
 70
     0
102
RTVSPropertyOp12
 70
     0
102
RTVSPropertyOp13
 70
     0
102
RTVSPropertyOp14
 70
     0
102
RTVSPropertyOp15
 70
     0
102
RTVSPropertyOp16
 70
     0
102
RTVSPropertyOp17
 70
     0
102
RTVSPropertyOp18
 70
     0
102
RTVSPropertyOp19
 70
     0
102
RTVSPropertyOp20
 70
     0
102
RTVSPropertyOp21
 70
     0
102
RTVSPropertyOp22
 70
     0
102
RTVSPropertyOp23
 70
     0
102
RTVSPropertyOp24
 70
     0
102
RTVSPropertyOp25
 70
     0
102
RTVSPropertyOp26
 70
     0
102
RTVSPropertyOp27
 70
     0
102
RTVSPropertyOp28
 70
     1
102
RTVSPropertyOp29
 70
     1
102
RTVSPropertyOp30
 70
     1
102
RTVSPropertyOp31
 70
     1
102
RTVSPropertyOp32
 70
     1
102
RTVSPropertyOp33
 70
     1
102
RTVSPropertyOp34
 70
     1
102
RTVSPropertyOp35
 70
     1
102
RTVSPropertyOp36
 70
     1
102
RTVSPropertyOp37
 70
     1
102
RTVSPropertyOp38
 70
     1
102
RTVSPropertyOp39
 70
     1
102
RTVSPropertyOp40
 70
     1
102
RTVSPropertyOp41
 70
     1
102
RTVSPropertyOp42
 70
     1
102
RTVSPropertyOp43
 70
     1
102
RTVSPropertyOp44
 70
     1
102
RTVSPropertyOp45
 70
     1
102
RTVSPropertyOp46
 70
     1
102
RTVSPropertyOp47
 70
     1
102
RTVSPropertyOp48
 70
     1
102
RTVSPropertyOp49
 70
     1
102
RTVSPropertyOp50
 70
     1
102
RTVSPropertyOp51
 70
     0
102
RTVSPropertyOp52
 70
     0
102
RTVSPropertyOp53
 70
     1
102
RTVSPropertyOp54
 70
     1
102
RTVSPropertyOp55
 70
     1
102
RTVSPropertyOp56
 70
     1
102
RTVSPropertyOp57
 70
     1
102
RTVSPost2010Prop28
280
     0
102
RTVSPost2010PropOp28
 70
     1
102
RTVSPost2010Prop29
280
     1
102
RTVSPost2010PropOp29
 70
     1
102
RTVSPost2010Prop30
280
     1
102
RTVSPost2010PropOp30
 70
     1
102
RTVSPost2010Prop31
280
     0
102
RTVSPost2010PropOp31
 70
     1
102
RTVSPost2010Prop32
280
     0
102
RTVSPost2010PropOp32
 70
     1
102
RTVSPost2010Prop33
280
     0
102
RTVSPost2010PropOp33
 70
     1
102
RTVSPost2010Prop34
280
     0
102
RTVSPost2010PropOp34
 70
     1
102
RTVSPost2010Prop35
280
     0
102
RTVSPost2010PropOp35
 70
     1
102
RTVSPost2010Prop36
280
     0
102
RTVSPost2010PropOp36
 70
     1
102
RTVSPost2010Prop37
 90
       50
102
RTVSPost2010PropOp37
 70
     1
102
RTVSPost2010Prop38
140
0.0
102
RTVSPost2010PropOp38
 70
     1
102
RTVSPost2010Prop39
140
1.0
102
RTVSPost2010PropOp39
 70
     1
102
RTVSPost2010Prop40
 90
        0
102
RTVSPost2010PropOp40
 70
     1
102
RTVSPost2010Prop41ColorIndex
 90
       18
102
RTVSPost2010Prop41ColorRGB
 90
        0
102
RTVSPost2010PropOp41
 70
     1
102
RTVSPost2010Prop42
 90
       50
102
RTVSPost2010PropOp42
 70
     1
102
RTVSPost2010Prop43
 90
        3
102
RTVSPost2010PropOp43
 70
     1
102
RTVSPost2010Prop44ColorIndex
 90
        5
102
RTVSPost2010Prop44ColorRGB
 90
      255
102
RTVSPost2010PropOp44
 70
     1
102
RTVSPost2010Prop45
280
     0
102
RTVSPost2010PropOp45
 70
     1
102
RTVSPost2010Prop46
 90
       50
102
RTVSPost2010PropOp46
 70
     1
102
RTVSPost2010Prop47
 90
       50
102
RTVSPost2010PropOp47
 70
     1
102
RTVSPost2010Prop48
 90
       50
102
RTVSPost2010PropOp48
 70
     1
102
RTVSPost2010Prop49
280
     0
102
RTVSPost2010PropOp49
 70
     1
102
RTVSPost2010Prop50
 90
       50
102
RTVSPost2010PropOp50
 70
     1
102
RTVSPost2010Prop51ColorIndex
 90
      256
102
RTVSPost2010Prop51ColorRGB
 90
-16777216
102
RTVSPost2010PropOp51
 70
     0
102
RTVSPost2010Prop52
140
1.0
102
RTVSPost2010PropOp52
 70
     0
102
RTVSPost2010Prop53
 90
        2
102
RTVSPost2010PropOp53
 70
     1
102
RTVSPost2010Prop54
  1
strokes_ogs.tif
102
RTVSPost2010PropOp54
 70
     1
102
RTVSPost2010Prop55
280
     0
102
RTVSPost2010PropOp55
 70
     1
102
RTVSPost2010Prop56
140
1.0
102
RTVSPost2010PropOp56
 70
     1
102
RTVSPost2010Prop57
140
1.0
102
RTVSPost2010PropOp57
 70
     1
  0
XRECORD
  5
6B7
102
{ACAD_REACTORS
330
6B6
102
}
330
6B6
100
AcDbXrecord
280
     1
102
RTVSPropertyOp0
 70
     1
102
RTVSPropertyOp1
 70
     1
102
RTVSPropertyOp2
 70
     1
102
RTVSPropertyOp3
 70
     1
102
RTVSPropertyOp4
 70
     1
102
RTVSPropertyOp5
 70
     1
102
RTVSPropertyOp6
 70
     1
102
RTVSPropertyOp7
 70
     1
102
RTVSPropertyOp8
 70
     1
102
RTVSPropertyOp9
 70
     1
102
RTVSPropertyOp10
 70
     1
102
RTVSPropertyOp11
 70
     1
102
RTVSPropertyOp12
 70
     1
102
RTVSPropertyOp13
 70
     1
102
RTVSPropertyOp14
 70
     1
102
RTVSPropertyOp15
 70
     1
102
RTVSPropertyOp16
 70
     1
102
RTVSPropertyOp17
 70
     1
102
RTVSPropertyOp18
 70
     1
102
RTVSPropertyOp19
 70
     1
102
RTVSPropertyOp20
 70
     1
102
RTVSPropertyOp21
 70
     1
102
RTVSPropertyOp22
 70
     1
102
RTVSPropertyOp23
 70
     1
102
RTVSPropertyOp24
 70
     1
102
RTVSPropertyOp25
 70
     1
102
RTVSPropertyOp26
 70
     1
102
RTVSPropertyOp27
 70
     1
102
RTVSPropertyOp28
 70
     1
102
RTVSPropertyOp29
 70
     1
102
RTVSPropertyOp30
 70
     1
102
RTVSPropertyOp31
 70
     1
102
RTVSPropertyOp32
 70
     1
102
RTVSPropertyOp33
 70
     1
102
RTVSPropertyOp34
 70
     1
102
RTVSPropertyOp35
 70
     1
102
RTVSPropertyOp36
 70
     1
102
RTVSPropertyOp37
 70
     1
102
RTVSPropertyOp38
 70
     1
102
RTVSPropertyOp39
 70
     1
102
RTVSPropertyOp40
 70
     1
102
RTVSPropertyOp41
 70
     1
102
RTVSPropertyOp42
 70
     1
102
RTVSPropertyOp43
 70
     1
102
RTVSPropertyOp44
 70
     1
102
RTVSPropertyOp45
 70
     1
102
RTVSPropertyOp46
 70
     1
102
RTVSPropertyOp47
 70
     1
102
RTVSPropertyOp48
 70
     1
102
RTVSPropertyOp49
 70
     1
102
RTVSPropertyOp50
 70
     1
102
RTVSPropertyOp51
 70
     0
102
RTVSPropertyOp52
 70
     0
102
RTVSPropertyOp53
 70
     1
102
RTVSPropertyOp54
 70
     1
102
RTVSPropertyOp55
 70
     1
102
RTVSPropertyOp56
 70
     1
102
RTVSPropertyOp57
 70
     1
102
RTVSPost2010Prop28
280
     0
102
RTVSPost2010PropOp28
 70
     1
102
RTVSPost2010Prop29
280
     1
102
RTVSPost2010PropOp29
 70
     1
102
RTVSPost2010Prop30
280
     1
102
RTVSPost2010PropOp30
 70
     1
102
RTVSPost2010Prop31
280
     0
102
RTVSPost2010PropOp31
 70
     1
102
RTVSPost2010Prop32
280
     0
102
RTVSPost2010PropOp32
 70
     1
102
RTVSPost2010Prop33
280
     0
102
RTVSPost2010PropOp33
 70
     1
102
RTVSPost2010Prop34
280
     0
102
RTVSPost2010PropOp34
 70
     1
102
RTVSPost2010Prop35
280
     0
102
RTVSPost2010PropOp35
 70
     1
102
RTVSPost2010Prop36
280
     0
102
RTVSPost2010PropOp36
 70
     1
102
RTVSPost2010Prop37
 90
       50
102
RTVSPost2010PropOp37
 70
     1
102
RTVSPost2010Prop38
140
0.0
102
RTVSPost2010PropOp38
 70
     1
102
RTVSPost2010Prop39
140
1.0
102
RTVSPost2010PropOp39
 70
     1
102
RTVSPost2010Prop40
 90
        0
102
RTVSPost2010PropOp40
 70
     1
102
RTVSPost2010Prop41ColorIndex
 90
       18
102
RTVSPost2010Prop41ColorRGB
 90
        0
102
RTVSPost2010PropOp41
 70
     1
102
RTVSPost2010Prop42
 90
       50
102
RTVSPost2010PropOp42
 70
     1
102
RTVSPost2010Prop43
 90
        3
102
RTVSPost2010PropOp43
 70
     1
102
RTVSPost2010Prop44ColorIndex
 90
        5
102
RTVSPost2010Prop44ColorRGB
 90
      255
102
RTVSPost2010PropOp44
 70
     1
102
RTVSPost2010Prop45
280
     0
102
RTVSPost2010PropOp45
 70
     1
102
RTVSPost2010Prop46
 90
       50
102
RTVSPost2010PropOp46
 70
     1
102
RTVSPost2010Prop47
 90
       50
102
RTVSPost2010PropOp47
 70
     1
102
RTVSPost2010Prop48
 90
       50
102
RTVSPost2010PropOp48
 70
     1
102
RTVSPost2010Prop49
280
     0
102
RTVSPost2010PropOp49
 70
     1
102
RTVSPost2010Prop50
 90
       50
102
RTVSPost2010PropOp50
 70
     1
102
RTVSPost2010Prop51ColorIndex
 90
      256
102
RTVSPost2010Prop51ColorRGB
 90
-16777216
102
RTVSPost2010PropOp51
 70
     0
102
RTVSPost2010Prop52
140
1.0
102
RTVSPost2010PropOp52
 70
     0
102
RTVSPost2010Prop53
 90
        2
102
RTVSPost2010PropOp53
 70
     1
102
RTVSPost2010Prop54
  1
strokes_ogs.tif
102
RTVSPost2010PropOp54
 70
     1
102
RTVSPost2010Prop55
280
     0
102
RTVSPost2010PropOp55
 70
     1
102
RTVSPost2010Prop56
140
1.0
102
RTVSPost2010PropOp56
 70
     1
102
RTVSPost2010Prop57
140
1.0
102
RTVSPost2010PropOp57
 70
     1
  0
XRECORD
  5
69F
102
{ACAD_REACTORS
330
69E
102
}
330
69E
100
AcDbXrecord
280
     1
102
RTVSPropertyOp0
 70
     1
102
RTVSPropertyOp1
 70
     1
102
RTVSPropertyOp2
 70
     1
102
RTVSPropertyOp3
 70
     1
102
RTVSPropertyOp4
 70
     1
102
RTVSPropertyOp5
 70
     1
102
RTVSPropertyOp6
 70
     1
102
RTVSPropertyOp7
 70
     1
102
RTVSPropertyOp8
 70
     1
102
RTVSPropertyOp9
 70
     1
102
RTVSPropertyOp10
 70
     1
102
RTVSPropertyOp11
 70
     1
102
RTVSPropertyOp12
 70
     1
102
RTVSPropertyOp13
 70
     1
102
RTVSPropertyOp14
 70
     1
102
RTVSPropertyOp15
 70
     1
102
RTVSPropertyOp16
 70
     1
102
RTVSPropertyOp17
 70
     1
102
RTVSPropertyOp18
 70
     1
102
RTVSPropertyOp19
 70
     1
102
RTVSPropertyOp20
 70
     1
102
RTVSPropertyOp21
 70
     1
102
RTVSPropertyOp22
 70
     1
102
RTVSPropertyOp23
 70
     1
102
RTVSPropertyOp24
 70
     1
102
RTVSPropertyOp25
 70
     1
102
RTVSPropertyOp26
 70
     1
102
RTVSPropertyOp27
 70
     1
102
RTVSPropertyOp28
 70
     1
102
RTVSPropertyOp29
 70
     1
102
RTVSPropertyOp30
 70
     1
102
RTVSPropertyOp31
 70
     1
102
RTVSPropertyOp32
 70
     1
102
RTVSPropertyOp33
 70
     1
102
RTVSPropertyOp34
 70
     1
102
RTVSPropertyOp35
 70
     1
102
RTVSPropertyOp36
 70
     1
102
RTVSPropertyOp37
 70
     1
102
RTVSPropertyOp38
 70
     1
102
RTVSPropertyOp39
 70
     1
102
RTVSPropertyOp40
 70
     1
102
RTVSPropertyOp41
 70
     1
102
RTVSPropertyOp42
 70
     1
102
RTVSPropertyOp43
 70
     1
102
RTVSPropertyOp44
 70
     1
102
RTVSPropertyOp45
 70
     1
102
RTVSPropertyOp46
 70
     1
102
RTVSPropertyOp47
 70
     1
102
RTVSPropertyOp48
 70
     1
102
RTVSPropertyOp49
 70
     1
102
RTVSPropertyOp50
 70
     1
102
RTVSPropertyOp51
 70
     0
102
RTVSPropertyOp52
 70
     0
102
RTVSPropertyOp53
 70
     1
102
RTVSPropertyOp54
 70
     1
102
RTVSPropertyOp55
 70
     1
102
RTVSPropertyOp56
 70
     1
102
RTVSPropertyOp57
 70
     1
102
RTVSPost2010Prop28
280
     0
102
RTVSPost2010PropOp28
 70
     1
102
RTVSPost2010Prop29
280
     1
102
RTVSPost2010PropOp29
 70
     1
102
RTVSPost2010Prop30
280
     1
102
RTVSPost2010PropOp30
 70
     1
102
RTVSPost2010Prop31
280
     0
102
RTVSPost2010PropOp31
 70
     1
102
RTVSPost2010Prop32
280
     0
102
RTVSPost2010PropOp32
 70
     1
102
RTVSPost2010Prop33
280
     0
102
RTVSPost2010PropOp33
 70
     1
102
RTVSPost2010Prop34
280
     0
102
RTVSPost2010PropOp34
 70
     1
102
RTVSPost2010Prop35
280
     0
102
RTVSPost2010PropOp35
 70
     1
102
RTVSPost2010Prop36
280
     0
102
RTVSPost2010PropOp36
 70
     1
102
RTVSPost2010Prop37
 90
       50
102
RTVSPost2010PropOp37
 70
     1
102
RTVSPost2010Prop38
140
0.0
102
RTVSPost2010PropOp38
 70
     1
102
RTVSPost2010Prop39
140
1.0
102
RTVSPost2010PropOp39
 70
     1
102
RTVSPost2010Prop40
 90
        0
102
RTVSPost2010PropOp40
 70
     1
102
RTVSPost2010Prop41ColorIndex
 90
       18
102
RTVSPost2010Prop41ColorRGB
 90
        0
102
RTVSPost2010PropOp41
 70
     1
102
RTVSPost2010Prop42
 90
       50
102
RTVSPost2010PropOp42
 70
     1
102
RTVSPost2010Prop43
 90
        3
102
RTVSPost2010PropOp43
 70
     1
102
RTVSPost2010Prop44ColorIndex
 90
        5
102
RTVSPost2010Prop44ColorRGB
 90
      255
102
RTVSPost2010PropOp44
 70
     1
102
RTVSPost2010Prop45
280
     0
102
RTVSPost2010PropOp45
 70
     1
102
RTVSPost2010Prop46
 90
       50
102
RTVSPost2010PropOp46
 70
     1
102
RTVSPost2010Prop47
 90
       50
102
RTVSPost2010PropOp47
 70
     1
102
RTVSPost2010Prop48
 90
       50
102
RTVSPost2010PropOp48
 70
     1
102
RTVSPost2010Prop49
280
     0
102
RTVSPost2010PropOp49
 70
     1
102
RTVSPost2010Prop50
 90
       50
102
RTVSPost2010PropOp50
 70
     1
102
RTVSPost2010Prop51ColorIndex
 90
      256
102
RTVSPost2010Prop51ColorRGB
 90
-16777216
102
RTVSPost2010PropOp51
 70
     0
102
RTVSPost2010Prop52
140
1.0
102
RTVSPost2010PropOp52
 70
     0
102
RTVSPost2010Prop53
 90
        2
102
RTVSPost2010PropOp53
 70
     1
102
RTVSPost2010Prop54
  1
strokes_ogs.tif
102
RTVSPost2010PropOp54
 70
     1
102
RTVSPost2010Prop55
280
     0
102
RTVSPost2010PropOp55
 70
     1
102
RTVSPost2010Prop56
140
1.0
102
RTVSPost2010PropOp56
 70
     1
102
RTVSPost2010Prop57
140
1.0
102
RTVSPost2010PropOp57
 70
     1
  0
XRECORD
  5
6A1
102
{ACAD_REACTORS
330
6A0
102
}
330
6A0
100
AcDbXrecord
280
     1
102
RTVSPropertyOp0
 70
     1
102
RTVSPropertyOp1
 70
     1
102
RTVSPropertyOp2
 70
     1
102
RTVSPropertyOp3
 70
     1
102
RTVSPropertyOp4
 70
     1
102
RTVSPropertyOp5
 70
     1
102
RTVSPropertyOp6
 70
     1
102
RTVSPropertyOp7
 70
     1
102
RTVSPropertyOp8
 70
     1
102
RTVSPropertyOp9
 70
     1
102
RTVSPropertyOp10
 70
     1
102
RTVSPropertyOp11
 70
     1
102
RTVSPropertyOp12
 70
     1
102
RTVSPropertyOp13
 70
     1
102
RTVSPropertyOp14
 70
     1
102
RTVSPropertyOp15
 70
     1
102
RTVSPropertyOp16
 70
     1
102
RTVSPropertyOp17
 70
     1
102
RTVSPropertyOp18
 70
     1
102
RTVSPropertyOp19
 70
     1
102
RTVSPropertyOp20
 70
     1
102
RTVSPropertyOp21
 70
     1
102
RTVSPropertyOp22
 70
     1
102
RTVSPropertyOp23
 70
     1
102
RTVSPropertyOp24
 70
     1
102
RTVSPropertyOp25
 70
     1
102
RTVSPropertyOp26
 70
     1
102
RTVSPropertyOp27
 70
     1
102
RTVSPropertyOp28
 70
     1
102
RTVSPropertyOp29
 70
     1
102
RTVSPropertyOp30
 70
     1
102
RTVSPropertyOp31
 70
     1
102
RTVSPropertyOp32
 70
     1
102
RTVSPropertyOp33
 70
     1
102
RTVSPropertyOp34
 70
     1
102
RTVSPropertyOp35
 70
     1
102
RTVSPropertyOp36
 70
     1
102
RTVSPropertyOp37
 70
     1
102
RTVSPropertyOp38
 70
     1
102
RTVSPropertyOp39
 70
     1
102
RTVSPropertyOp40
 70
     1
102
RTVSPropertyOp41
 70
     1
102
RTVSPropertyOp42
 70
     1
102
RTVSPropertyOp43
 70
     1
102
RTVSPropertyOp44
 70
     1
102
RTVSPropertyOp45
 70
     1
102
RTVSPropertyOp46
 70
     1
102
RTVSPropertyOp47
 70
     1
102
RTVSPropertyOp48
 70
     1
102
RTVSPropertyOp49
 70
     1
102
RTVSPropertyOp50
 70
     1
102
RTVSPropertyOp51
 70
     0
102
RTVSPropertyOp52
 70
     0
102
RTVSPropertyOp53
 70
     1
102
RTVSPropertyOp54
 70
     1
102
RTVSPropertyOp55
 70
     1
102
RTVSPropertyOp56
 70
     1
102
RTVSPropertyOp57
 70
     1
102
RTVSPost2010Prop28
280
     0
102
RTVSPost2010PropOp28
 70
     1
102
RTVSPost2010Prop29
280
     1
102
RTVSPost2010PropOp29
 70
     1
102
RTVSPost2010Prop30
280
     1
102
RTVSPost2010PropOp30
 70
     1
102
RTVSPost2010Prop31
280
     0
102
RTVSPost2010PropOp31
 70
     1
102
RTVSPost2010Prop32
280
     0
102
RTVSPost2010PropOp32
 70
     1
102
RTVSPost2010Prop33
280
     0
102
RTVSPost2010PropOp33
 70
     1
102
RTVSPost2010Prop34
280
     0
102
RTVSPost2010PropOp34
 70
     1
102
RTVSPost2010Prop35
280
     0
102
RTVSPost2010PropOp35
 70
     1
102
RTVSPost2010Prop36
280
     0
102
RTVSPost2010PropOp36
 70
     1
102
RTVSPost2010Prop37
 90
       50
102
RTVSPost2010PropOp37
 70
     1
102
RTVSPost2010Prop38
140
0.0
102
RTVSPost2010PropOp38
 70
     1
102
RTVSPost2010Prop39
140
1.0
102
RTVSPost2010PropOp39
 70
     1
102
RTVSPost2010Prop40
 90
        0
102
RTVSPost2010PropOp40
 70
     1
102
RTVSPost2010Prop41ColorIndex
 90
       18
102
RTVSPost2010Prop41ColorRGB
 90
        0
102
RTVSPost2010PropOp41
 70
     1
102
RTVSPost2010Prop42
 90
       50
102
RTVSPost2010PropOp42
 70
     1
102
RTVSPost2010Prop43
 90
        3
102
RTVSPost2010PropOp43
 70
     1
102
RTVSPost2010Prop44ColorIndex
 90
        5
102
RTVSPost2010Prop44ColorRGB
 90
      255
102
RTVSPost2010PropOp44
 70
     1
102
RTVSPost2010Prop45
280
     0
102
RTVSPost2010PropOp45
 70
     1
102
RTVSPost2010Prop46
 90
       50
102
RTVSPost2010PropOp46
 70
     1
102
RTVSPost2010Prop47
 90
       50
102
RTVSPost2010PropOp47
 70
     1
102
RTVSPost2010Prop48
 90
       50
102
RTVSPost2010PropOp48
 70
     1
102
RTVSPost2010Prop49
280
     0
102
RTVSPost2010PropOp49
 70
     1
102
RTVSPost2010Prop50
 90
       50
102
RTVSPost2010PropOp50
 70
     1
102
RTVSPost2010Prop51ColorIndex
 90
      256
102
RTVSPost2010Prop51ColorRGB
 90
-16777216
102
RTVSPost2010PropOp51
 70
     0
102
RTVSPost2010Prop52
140
1.0
102
RTVSPost2010PropOp52
 70
     0
102
RTVSPost2010Prop53
 90
        2
102
RTVSPost2010PropOp53
 70
     1
102
RTVSPost2010Prop54
  1
strokes_ogs.tif
102
RTVSPost2010PropOp54
 70
     1
102
RTVSPost2010Prop55
280
     0
102
RTVSPost2010PropOp55
 70
     1
102
RTVSPost2010Prop56
140
1.0
102
RTVSPost2010PropOp56
 70
     1
102
RTVSPost2010Prop57
140
1.0
102
RTVSPost2010PropOp57
 70
     1
  0
XRECORD
  5
6A3
102
{ACAD_REACTORS
330
6A2
102
}
330
6A2
100
AcDbXrecord
280
     1
102
RTVSPropertyOp0
 70
     1
102
RTVSPropertyOp1
 70
     1
102
RTVSPropertyOp2
 70
     1
102
RTVSPropertyOp3
 70
     1
102
RTVSPropertyOp4
 70
     1
102
RTVSPropertyOp5
 70
     1
102
RTVSPropertyOp6
 70
     1
102
RTVSPropertyOp7
 70
     1
102
RTVSPropertyOp8
 70
     1
102
RTVSPropertyOp9
 70
     1
102
RTVSPropertyOp10
 70
     1
102
RTVSPropertyOp11
 70
     1
102
RTVSPropertyOp12
 70
     1
102
RTVSPropertyOp13
 70
     1
102
RTVSPropertyOp14
 70
     1
102
RTVSPropertyOp15
 70
     1
102
RTVSPropertyOp16
 70
     1
102
RTVSPropertyOp17
 70
     1
102
RTVSPropertyOp18
 70
     1
102
RTVSPropertyOp19
 70
     1
102
RTVSPropertyOp20
 70
     1
102
RTVSPropertyOp21
 70
     1
102
RTVSPropertyOp22
 70
     1
102
RTVSPropertyOp23
 70
     1
102
RTVSPropertyOp24
 70
     1
102
RTVSPropertyOp25
 70
     1
102
RTVSPropertyOp26
 70
     1
102
RTVSPropertyOp27
 70
     1
102
RTVSPropertyOp28
 70
     1
102
RTVSPropertyOp29
 70
     1
102
RTVSPropertyOp30
 70
     1
102
RTVSPropertyOp31
 70
     1
102
RTVSPropertyOp32
 70
     1
102
RTVSPropertyOp33
 70
     1
102
RTVSPropertyOp34
 70
     1
102
RTVSPropertyOp35
 70
     1
102
RTVSPropertyOp36
 70
     1
102
RTVSPropertyOp37
 70
     1
102
RTVSPropertyOp38
 70
     1
102
RTVSPropertyOp39
 70
     1
102
RTVSPropertyOp40
 70
     1
102
RTVSPropertyOp41
 70
     1
102
RTVSPropertyOp42
 70
     1
102
RTVSPropertyOp43
 70
     1
102
RTVSPropertyOp44
 70
     1
102
RTVSPropertyOp45
 70
     1
102
RTVSPropertyOp46
 70
     1
102
RTVSPropertyOp47
 70
     1
102
RTVSPropertyOp48
 70
     1
102
RTVSPropertyOp49
 70
     1
102
RTVSPropertyOp50
 70
     1
102
RTVSPropertyOp51
 70
     0
102
RTVSPropertyOp52
 70
     0
102
RTVSPropertyOp53
 70
     1
102
RTVSPropertyOp54
 70
     1
102
RTVSPropertyOp55
 70
     1
102
RTVSPropertyOp56
 70
     1
102
RTVSPropertyOp57
 70
     1
102
RTVSPost2010Prop28
280
     0
102
RTVSPost2010PropOp28
 70
     1
102
RTVSPost2010Prop29
280
     1
102
RTVSPost2010PropOp29
 70
     1
102
RTVSPost2010Prop30
280
     1
102
RTVSPost2010PropOp30
 70
     1
102
RTVSPost2010Prop31
280
     0
102
RTVSPost2010PropOp31
 70
     1
102
RTVSPost2010Prop32
280
     0
102
RTVSPost2010PropOp32
 70
     1
102
RTVSPost2010Prop33
280
     0
102
RTVSPost2010PropOp33
 70
     1
102
RTVSPost2010Prop34
280
     0
102
RTVSPost2010PropOp34
 70
     1
102
RTVSPost2010Prop35
280
     0
102
RTVSPost2010PropOp35
 70
     1
102
RTVSPost2010Prop36
280
     0
102
RTVSPost2010PropOp36
 70
     1
102
RTVSPost2010Prop37
 90
       50
102
RTVSPost2010PropOp37
 70
     1
102
RTVSPost2010Prop38
140
0.0
102
RTVSPost2010PropOp38
 70
     1
102
RTVSPost2010Prop39
140
1.0
102
RTVSPost2010PropOp39
 70
     1
102
RTVSPost2010Prop40
 90
        0
102
RTVSPost2010PropOp40
 70
     1
102
RTVSPost2010Prop41ColorIndex
 90
       18
102
RTVSPost2010Prop41ColorRGB
 90
        0
102
RTVSPost2010PropOp41
 70
     1
102
RTVSPost2010Prop42
 90
       50
102
RTVSPost2010PropOp42
 70
     1
102
RTVSPost2010Prop43
 90
        3
102
RTVSPost2010PropOp43
 70
     1
102
RTVSPost2010Prop44ColorIndex
 90
        5
102
RTVSPost2010Prop44ColorRGB
 90
      255
102
RTVSPost2010PropOp44
 70
     1
102
RTVSPost2010Prop45
280
     0
102
RTVSPost2010PropOp45
 70
     1
102
RTVSPost2010Prop46
 90
       50
102
RTVSPost2010PropOp46
 70
     1
102
RTVSPost2010Prop47
 90
       50
102
RTVSPost2010PropOp47
 70
     1
102
RTVSPost2010Prop48
 90
       50
102
RTVSPost2010PropOp48
 70
     1
102
RTVSPost2010Prop49
280
     0
102
RTVSPost2010PropOp49
 70
     1
102
RTVSPost2010Prop50
 90
       50
102
RTVSPost2010PropOp50
 70
     1
102
RTVSPost2010Prop51ColorIndex
 90
      256
102
RTVSPost2010Prop51ColorRGB
 90
-16777216
102
RTVSPost2010PropOp51
 70
     0
102
RTVSPost2010Prop52
140
1.0
102
RTVSPost2010PropOp52
 70
     0
102
RTVSPost2010Prop53
 90
        2
102
RTVSPost2010PropOp53
 70
     1
102
RTVSPost2010Prop54
  1
strokes_ogs.tif
102
RTVSPost2010PropOp54
 70
     1
102
RTVSPost2010Prop55
280
     0
102
RTVSPost2010PropOp55
 70
     1
102
RTVSPost2010Prop56
140
1.0
102
RTVSPost2010PropOp56
 70
     1
102
RTVSPost2010Prop57
140
1.0
102
RTVSPost2010PropOp57
 70
     1
  0
XRECORD
  5
6A5
102
{ACAD_REACTORS
330
6A4
102
}
330
6A4
100
AcDbXrecord
280
     1
102
RTVSPropertyOp0
 70
     1
102
RTVSPropertyOp1
 70
     1
102
RTVSPropertyOp2
 70
     1
102
RTVSPropertyOp3
 70
     1
102
RTVSPropertyOp4
 70
     1
102
RTVSPropertyOp5
 70
     1
102
RTVSPropertyOp6
 70
     1
102
RTVSPropertyOp7
 70
     1
102
RTVSPropertyOp8
 70
     1
102
RTVSPropertyOp9
 70
     1
102
RTVSPropertyOp10
 70
     1
102
RTVSPropertyOp11
 70
     1
102
RTVSPropertyOp12
 70
     1
102
RTVSPropertyOp13
 70
     1
102
RTVSPropertyOp14
 70
     1
102
RTVSPropertyOp15
 70
     1
102
RTVSPropertyOp16
 70
     1
102
RTVSPropertyOp17
 70
     1
102
RTVSPropertyOp18
 70
     1
102
RTVSPropertyOp19
 70
     1
102
RTVSPropertyOp20
 70
     1
102
RTVSPropertyOp21
 70
     1
102
RTVSPropertyOp22
 70
     1
102
RTVSPropertyOp23
 70
     1
102
RTVSPropertyOp24
 70
     1
102
RTVSPropertyOp25
 70
     1
102
RTVSPropertyOp26
 70
     1
102
RTVSPropertyOp27
 70
     1
102
RTVSPropertyOp28
 70
     1
102
RTVSPropertyOp29
 70
     1
102
RTVSPropertyOp30
 70
     1
102
RTVSPropertyOp31
 70
     1
102
RTVSPropertyOp32
 70
     1
102
RTVSPropertyOp33
 70
     1
102
RTVSPropertyOp34
 70
     1
102
RTVSPropertyOp35
 70
     1
102
RTVSPropertyOp36
 70
     1
102
RTVSPropertyOp37
 70
     1
102
RTVSPropertyOp38
 70
     1
102
RTVSPropertyOp39
 70
     1
102
RTVSPropertyOp40
 70
     1
102
RTVSPropertyOp41
 70
     1
102
RTVSPropertyOp42
 70
     1
102
RTVSPropertyOp43
 70
     1
102
RTVSPropertyOp44
 70
     1
102
RTVSPropertyOp45
 70
     1
102
RTVSPropertyOp46
 70
     1
102
RTVSPropertyOp47
 70
     1
102
RTVSPropertyOp48
 70
     1
102
RTVSPropertyOp49
 70
     1
102
RTVSPropertyOp50
 70
     1
102
RTVSPropertyOp51
 70
     0
102
RTVSPropertyOp52
 70
     0
102
RTVSPropertyOp53
 70
     1
102
RTVSPropertyOp54
 70
     1
102
RTVSPropertyOp55
 70
     1
102
RTVSPropertyOp56
 70
     1
102
RTVSPropertyOp57
 70
     1
102
RTVSPost2010Prop28
280
     0
102
RTVSPost2010PropOp28
 70
     1
102
RTVSPost2010Prop29
280
     1
102
RTVSPost2010PropOp29
 70
     1
102
RTVSPost2010Prop30
280
     1
102
RTVSPost2010PropOp30
 70
     1
102
RTVSPost2010Prop31
280
     0
102
RTVSPost2010PropOp31
 70
     1
102
RTVSPost2010Prop32
280
     0
102
RTVSPost2010PropOp32
 70
     1
102
RTVSPost2010Prop33
280
     0
102
RTVSPost2010PropOp33
 70
     1
102
RTVSPost2010Prop34
280
     0
102
RTVSPost2010PropOp34
 70
     1
102
RTVSPost2010Prop35
280
     0
102
RTVSPost2010PropOp35
 70
     1
102
RTVSPost2010Prop36
280
     0
102
RTVSPost2010PropOp36
 70
     1
102
RTVSPost2010Prop37
 90
       50
102
RTVSPost2010PropOp37
 70
     1
102
RTVSPost2010Prop38
140
0.0
102
RTVSPost2010PropOp38
 70
     1
102
RTVSPost2010Prop39
140
1.0
102
RTVSPost2010PropOp39
 70
     1
102
RTVSPost2010Prop40
 90
        0
102
RTVSPost2010PropOp40
 70
     1
102
RTVSPost2010Prop41ColorIndex
 90
       18
102
RTVSPost2010Prop41ColorRGB
 90
        0
102
RTVSPost2010PropOp41
 70
     1
102
RTVSPost2010Prop42
 90
       50
102
RTVSPost2010PropOp42
 70
     1
102
RTVSPost2010Prop43
 90
        3
102
RTVSPost2010PropOp43
 70
     1
102
RTVSPost2010Prop44ColorIndex
 90
        5
102
RTVSPost2010Prop44ColorRGB
 90
      255
102
RTVSPost2010PropOp44
 70
     1
102
RTVSPost2010Prop45
280
     0
102
RTVSPost2010PropOp45
 70
     1
102
RTVSPost2010Prop46
 90
       50
102
RTVSPost2010PropOp46
 70
     1
102
RTVSPost2010Prop47
 90
       50
102
RTVSPost2010PropOp47
 70
     1
102
RTVSPost2010Prop48
 90
       50
102
RTVSPost2010PropOp48
 70
     1
102
RTVSPost2010Prop49
280
     0
102
RTVSPost2010PropOp49
 70
     1
102
RTVSPost2010Prop50
 90
       50
102
RTVSPost2010PropOp50
 70
     1
102
RTVSPost2010Prop51ColorIndex
 90
      256
102
RTVSPost2010Prop51ColorRGB
 90
-16777216
102
RTVSPost2010PropOp51
 70
     0
102
RTVSPost2010Prop52
140
1.0
102
RTVSPost2010PropOp52
 70
     0
102
RTVSPost2010Prop53
 90
        2
102
RTVSPost2010PropOp53
 70
     1
102
RTVSPost2010Prop54
  1
strokes_ogs.tif
102
RTVSPost2010PropOp54
 70
     1
102
RTVSPost2010Prop55
280
     0
102
RTVSPost2010PropOp55
 70
     1
102
RTVSPost2010Prop56
140
1.0
102
RTVSPost2010PropOp56
 70
     1
102
RTVSPost2010Prop57
140
1.0
102
RTVSPost2010PropOp57
 70
     1
  0
XRECORD
  5
6A9
102
{ACAD_REACTORS
330
6A8
102
}
330
6A8
100
AcDbXrecord
280
     1
102
RTVSPropertyOp0
 70
     1
102
RTVSPropertyOp1
 70
     1
102
RTVSPropertyOp2
 70
     1
102
RTVSPropertyOp3
 70
     1
102
RTVSPropertyOp4
 70
     1
102
RTVSPropertyOp5
 70
     1
102
RTVSPropertyOp6
 70
     1
102
RTVSPropertyOp7
 70
     1
102
RTVSPropertyOp8
 70
     1
102
RTVSPropertyOp9
 70
     1
102
RTVSPropertyOp10
 70
     1
102
RTVSPropertyOp11
 70
     1
102
RTVSPropertyOp12
 70
     1
102
RTVSPropertyOp13
 70
     1
102
RTVSPropertyOp14
 70
     1
102
RTVSPropertyOp15
 70
     1
102
RTVSPropertyOp16
 70
     1
102
RTVSPropertyOp17
 70
     1
102
RTVSPropertyOp18
 70
     1
102
RTVSPropertyOp19
 70
     1
102
RTVSPropertyOp20
 70
     1
102
RTVSPropertyOp21
 70
     1
102
RTVSPropertyOp22
 70
     1
102
RTVSPropertyOp23
 70
     1
102
RTVSPropertyOp24
 70
     1
102
RTVSPropertyOp25
 70
     1
102
RTVSPropertyOp26
 70
     1
102
RTVSPropertyOp27
 70
     1
102
RTVSPropertyOp28
 70
     1
102
RTVSPropertyOp29
 70
     1
102
RTVSPropertyOp30
 70
     1
102
RTVSPropertyOp31
 70
     1
102
RTVSPropertyOp32
 70
     1
102
RTVSPropertyOp33
 70
     1
102
RTVSPropertyOp34
 70
     1
102
RTVSPropertyOp35
 70
     1
102
RTVSPropertyOp36
 70
     1
102
RTVSPropertyOp37
 70
     1
102
RTVSPropertyOp38
 70
     1
102
RTVSPropertyOp39
 70
     1
102
RTVSPropertyOp40
 70
     1
102
RTVSPropertyOp41
 70
     1
102
RTVSPropertyOp42
 70
     1
102
RTVSPropertyOp43
 70
     1
102
RTVSPropertyOp44
 70
     1
102
RTVSPropertyOp45
 70
     1
102
RTVSPropertyOp46
 70
     1
102
RTVSPropertyOp47
 70
     1
102
RTVSPropertyOp48
 70
     1
102
RTVSPropertyOp49
 70
     1
102
RTVSPropertyOp50
 70
     1
102
RTVSPropertyOp51
 70
     0
102
RTVSPropertyOp52
 70
     0
102
RTVSPropertyOp53
 70
     1
102
RTVSPropertyOp54
 70
     1
102
RTVSPropertyOp55
 70
     1
102
RTVSPropertyOp56
 70
     1
102
RTVSPropertyOp57
 70
     1
102
RTVSPost2010Prop28
280
     0
102
RTVSPost2010PropOp28
 70
     1
102
RTVSPost2010Prop29
280
     1
102
RTVSPost2010PropOp29
 70
     1
102
RTVSPost2010Prop30
280
     1
102
RTVSPost2010PropOp30
 70
     1
102
RTVSPost2010Prop31
280
     0
102
RTVSPost2010PropOp31
 70
     1
102
RTVSPost2010Prop32
280
     0
102
RTVSPost2010PropOp32
 70
     1
102
RTVSPost2010Prop33
280
     0
102
RTVSPost2010PropOp33
 70
     1
102
RTVSPost2010Prop34
280
     0
102
RTVSPost2010PropOp34
 70
     1
102
RTVSPost2010Prop35
280
     0
102
RTVSPost2010PropOp35
 70
     1
102
RTVSPost2010Prop36
280
     0
102
RTVSPost2010PropOp36
 70
     1
102
RTVSPost2010Prop37
 90
       50
102
RTVSPost2010PropOp37
 70
     1
102
RTVSPost2010Prop38
140
0.0
102
RTVSPost2010PropOp38
 70
     1
102
RTVSPost2010Prop39
140
1.0
102
RTVSPost2010PropOp39
 70
     1
102
RTVSPost2010Prop40
 90
        0
102
RTVSPost2010PropOp40
 70
     1
102
RTVSPost2010Prop41ColorIndex
 90
       18
102
RTVSPost2010Prop41ColorRGB
 90
        0
102
RTVSPost2010PropOp41
 70
     1
102
RTVSPost2010Prop42
 90
       50
102
RTVSPost2010PropOp42
 70
     1
102
RTVSPost2010Prop43
 90
        3
102
RTVSPost2010PropOp43
 70
     1
102
RTVSPost2010Prop44ColorIndex
 90
        5
102
RTVSPost2010Prop44ColorRGB
 90
      255
102
RTVSPost2010PropOp44
 70
     1
102
RTVSPost2010Prop45
280
     0
102
RTVSPost2010PropOp45
 70
     1
102
RTVSPost2010Prop46
 90
       50
102
RTVSPost2010PropOp46
 70
     1
102
RTVSPost2010Prop47
 90
       50
102
RTVSPost2010PropOp47
 70
     1
102
RTVSPost2010Prop48
 90
       50
102
RTVSPost2010PropOp48
 70
     1
102
RTVSPost2010Prop49
280
     0
102
RTVSPost2010PropOp49
 70
     1
102
RTVSPost2010Prop50
 90
       50
102
RTVSPost2010PropOp50
 70
     1
102
RTVSPost2010Prop51ColorIndex
 90
      256
102
RTVSPost2010Prop51ColorRGB
 90
-16777216
102
RTVSPost2010PropOp51
 70
     0
102
RTVSPost2010Prop52
140
1.0
102
RTVSPost2010PropOp52
 70
     0
102
RTVSPost2010Prop53
 90
        2
102
RTVSPost2010PropOp53
 70
     1
102
RTVSPost2010Prop54
  1
strokes_ogs.tif
102
RTVSPost2010PropOp54
 70
     1
102
RTVSPost2010Prop55
280
     0
102
RTVSPost2010PropOp55
 70
     1
102
RTVSPost2010Prop56
140
1.0
102
RTVSPost2010PropOp56
 70
     1
102
RTVSPost2010Prop57
140
1.0
102
RTVSPost2010PropOp57
 70
     1
  0
XRECORD
  5
6BB
102
{ACAD_REACTORS
330
6BA
102
}
330
6BA
100
AcDbXrecord
280
     1
102
RTVSPropertyOp0
 70
     0
102
RTVSPropertyOp1
 70
     0
102
RTVSPropertyOp2
 70
     0
102
RTVSPropertyOp3
 70
     0
102
RTVSPropertyOp4
 70
     0
102
RTVSPropertyOp5
 70
     0
102
RTVSPropertyOp6
 70
     0
102
RTVSPropertyOp7
 70
     0
102
RTVSPropertyOp8
 70
     0
102
RTVSPropertyOp9
 70
     0
102
RTVSPropertyOp10
 70
     0
102
RTVSPropertyOp11
 70
     0
102
RTVSPropertyOp12
 70
     0
102
RTVSPropertyOp13
 70
     0
102
RTVSPropertyOp14
 70
     0
102
RTVSPropertyOp15
 70
     0
102
RTVSPropertyOp16
 70
     0
102
RTVSPropertyOp17
 70
     0
102
RTVSPropertyOp18
 70
     0
102
RTVSPropertyOp19
 70
     0
102
RTVSPropertyOp20
 70
     0
102
RTVSPropertyOp21
 70
     0
102
RTVSPropertyOp22
 70
     0
102
RTVSPropertyOp23
 70
     0
102
RTVSPropertyOp24
 70
     0
102
RTVSPropertyOp25
 70
     0
102
RTVSPropertyOp26
 70
     0
102
RTVSPropertyOp27
 70
     0
102
RTVSPropertyOp28
 70
     1
102
RTVSPropertyOp29
 70
     1
102
RTVSPropertyOp30
 70
     1
102
RTVSPropertyOp31
 70
     1
102
RTVSPropertyOp32
 70
     1
102
RTVSPropertyOp33
 70
     1
102
RTVSPropertyOp34
 70
     1
102
RTVSPropertyOp35
 70
     1
102
RTVSPropertyOp36
 70
     1
102
RTVSPropertyOp37
 70
     1
102
RTVSPropertyOp38
 70
     1
102
RTVSPropertyOp39
 70
     1
102
RTVSPropertyOp40
 70
     1
102
RTVSPropertyOp41
 70
     1
102
RTVSPropertyOp42
 70
     1
102
RTVSPropertyOp43
 70
     1
102
RTVSPropertyOp44
 70
     1
102
RTVSPropertyOp45
 70
     1
102
RTVSPropertyOp46
 70
     1
102
RTVSPropertyOp47
 70
     1
102
RTVSPropertyOp48
 70
     1
102
RTVSPropertyOp49
 70
     1
102
RTVSPropertyOp50
 70
     1
102
RTVSPropertyOp51
 70
     0
102
RTVSPropertyOp52
 70
     0
102
RTVSPropertyOp53
 70
     1
102
RTVSPropertyOp54
 70
     1
102
RTVSPropertyOp55
 70
     1
102
RTVSPropertyOp56
 70
     1
102
RTVSPropertyOp57
 70
     1
102
RTVSPost2010Prop28
280
     0
102
RTVSPost2010PropOp28
 70
     1
102
RTVSPost2010Prop29
280
     1
102
RTVSPost2010PropOp29
 70
     1
102
RTVSPost2010Prop30
280
     1
102
RTVSPost2010PropOp30
 70
     1
102
RTVSPost2010Prop31
280
     0
102
RTVSPost2010PropOp31
 70
     1
102
RTVSPost2010Prop32
280
     0
102
RTVSPost2010PropOp32
 70
     1
102
RTVSPost2010Prop33
280
     0
102
RTVSPost2010PropOp33
 70
     1
102
RTVSPost2010Prop34
280
     0
102
RTVSPost2010PropOp34
 70
     1
102
RTVSPost2010Prop35
280
     0
102
RTVSPost2010PropOp35
 70
     1
102
RTVSPost2010Prop36
280
     0
102
RTVSPost2010PropOp36
 70
     1
102
RTVSPost2010Prop37
 90
       50
102
RTVSPost2010PropOp37
 70
     1
102
RTVSPost2010Prop38
140
0.0
102
RTVSPost2010PropOp38
 70
     1
102
RTVSPost2010Prop39
140
1.0
102
RTVSPost2010PropOp39
 70
     1
102
RTVSPost2010Prop40
 90
        0
102
RTVSPost2010PropOp40
 70
     1
102
RTVSPost2010Prop41ColorIndex
 90
       18
102
RTVSPost2010Prop41ColorRGB
 90
        0
102
RTVSPost2010PropOp41
 70
     1
102
RTVSPost2010Prop42
 90
       50
102
RTVSPost2010PropOp42
 70
     1
102
RTVSPost2010Prop43
 90
        3
102
RTVSPost2010PropOp43
 70
     1
102
RTVSPost2010Prop44ColorIndex
 90
        5
102
RTVSPost2010Prop44ColorRGB
 90
      255
102
RTVSPost2010PropOp44
 70
     1
102
RTVSPost2010Prop45
280
     0
102
RTVSPost2010PropOp45
 70
     1
102
RTVSPost2010Prop46
 90
       50
102
RTVSPost2010PropOp46
 70
     1
102
RTVSPost2010Prop47
 90
       50
102
RTVSPost2010PropOp47
 70
     1
102
RTVSPost2010Prop48
 90
       50
102
RTVSPost2010PropOp48
 70
     1
102
RTVSPost2010Prop49
280
     0
102
RTVSPost2010PropOp49
 70
     1
102
RTVSPost2010Prop50
 90
       50
102
RTVSPost2010PropOp50
 70
     1
102
RTVSPost2010Prop51ColorIndex
 90
      256
102
RTVSPost2010Prop51ColorRGB
 90
-16777216
102
RTVSPost2010PropOp51
 70
     0
102
RTVSPost2010Prop52
140
1.0
102
RTVSPost2010PropOp52
 70
     0
102
RTVSPost2010Prop53
 90
        2
102
RTVSPost2010PropOp53
 70
     1
102
RTVSPost2010Prop54
  1
strokes_ogs.tif
102
RTVSPost2010PropOp54
 70
     1
102
RTVSPost2010Prop55
280
     0
102
RTVSPost2010PropOp55
 70
     1
102
RTVSPost2010Prop56
140
1.0
102
RTVSPost2010PropOp56
 70
     1
102
RTVSPost2010Prop57
140
1.0
102
RTVSPost2010PropOp57
 70
     1
  0
XRECORD
  5
6B5
102
{ACAD_REACTORS
330
6B4
102
}
330
6B4
100
AcDbXrecord
280
     1
102
RTVSPropertyOp0
 70
     1
102
RTVSPropertyOp1
 70
     1
102
RTVSPropertyOp2
 70
     1
102
RTVSPropertyOp3
 70
     1
102
RTVSPropertyOp4
 70
     1
102
RTVSPropertyOp5
 70
     1
102
RTVSPropertyOp6
 70
     1
102
RTVSPropertyOp7
 70
     1
102
RTVSPropertyOp8
 70
     1
102
RTVSPropertyOp9
 70
     1
102
RTVSPropertyOp10
 70
     1
102
RTVSPropertyOp11
 70
     1
102
RTVSPropertyOp12
 70
     1
102
RTVSPropertyOp13
 70
     1
102
RTVSPropertyOp14
 70
     1
102
RTVSPropertyOp15
 70
     1
102
RTVSPropertyOp16
 70
     1
102
RTVSPropertyOp17
 70
     1
102
RTVSPropertyOp18
 70
     1
102
RTVSPropertyOp19
 70
     1
102
RTVSPropertyOp20
 70
     1
102
RTVSPropertyOp21
 70
     1
102
RTVSPropertyOp22
 70
     1
102
RTVSPropertyOp23
 70
     1
102
RTVSPropertyOp24
 70
     1
102
RTVSPropertyOp25
 70
     1
102
RTVSPropertyOp26
 70
     1
102
RTVSPropertyOp27
 70
     1
102
RTVSPropertyOp28
 70
     1
102
RTVSPropertyOp29
 70
     1
102
RTVSPropertyOp30
 70
     1
102
RTVSPropertyOp31
 70
     1
102
RTVSPropertyOp32
 70
     1
102
RTVSPropertyOp33
 70
     1
102
RTVSPropertyOp34
 70
     1
102
RTVSPropertyOp35
 70
     1
102
RTVSPropertyOp36
 70
     1
102
RTVSPropertyOp37
 70
     1
102
RTVSPropertyOp38
 70
     1
102
RTVSPropertyOp39
 70
     1
102
RTVSPropertyOp40
 70
     1
102
RTVSPropertyOp41
 70
     1
102
RTVSPropertyOp42
 70
     1
102
RTVSPropertyOp43
 70
     1
102
RTVSPropertyOp44
 70
     1
102
RTVSPropertyOp45
 70
     1
102
RTVSPropertyOp46
 70
     1
102
RTVSPropertyOp47
 70
     1
102
RTVSPropertyOp48
 70
     1
102
RTVSPropertyOp49
 70
     1
102
RTVSPropertyOp50
 70
     1
102
RTVSPropertyOp51
 70
     0
102
RTVSPropertyOp52
 70
     0
102
RTVSPropertyOp53
 70
     1
102
RTVSPropertyOp54
 70
     1
102
RTVSPropertyOp55
 70
     1
102
RTVSPropertyOp56
 70
     1
102
RTVSPropertyOp57
 70
     1
102
RTVSPost2010Prop28
280
     0
102
RTVSPost2010PropOp28
 70
     1
102
RTVSPost2010Prop29
280
     1
102
RTVSPost2010PropOp29
 70
     1
102
RTVSPost2010Prop30
280
     1
102
RTVSPost2010PropOp30
 70
     1
102
RTVSPost2010Prop31
280
     0
102
RTVSPost2010PropOp31
 70
     1
102
RTVSPost2010Prop32
280
     0
102
RTVSPost2010PropOp32
 70
     1
102
RTVSPost2010Prop33
280
     0
102
RTVSPost2010PropOp33
 70
     1
102
RTVSPost2010Prop34
280
     0
102
RTVSPost2010PropOp34
 70
     1
102
RTVSPost2010Prop35
280
     0
102
RTVSPost2010PropOp35
 70
     1
102
RTVSPost2010Prop36
280
     0
102
RTVSPost2010PropOp36
 70
     1
102
RTVSPost2010Prop37
 90
       50
102
RTVSPost2010PropOp37
 70
     1
102
RTVSPost2010Prop38
140
0.0
102
RTVSPost2010PropOp38
 70
     1
102
RTVSPost2010Prop39
140
1.0
102
RTVSPost2010PropOp39
 70
     1
102
RTVSPost2010Prop40
 90
        0
102
RTVSPost2010PropOp40
 70
     1
102
RTVSPost2010Prop41ColorIndex
 90
       18
102
RTVSPost2010Prop41ColorRGB
 90
        0
102
RTVSPost2010PropOp41
 70
     1
102
RTVSPost2010Prop42
 90
       50
102
RTVSPost2010PropOp42
 70
     1
102
RTVSPost2010Prop43
 90
        3
102
RTVSPost2010PropOp43
 70
     1
102
RTVSPost2010Prop44ColorIndex
 90
        5
102
RTVSPost2010Prop44ColorRGB
 90
      255
102
RTVSPost2010PropOp44
 70
     1
102
RTVSPost2010Prop45
280
     0
102
RTVSPost2010PropOp45
 70
     1
102
RTVSPost2010Prop46
 90
       50
102
RTVSPost2010PropOp46
 70
     1
102
RTVSPost2010Prop47
 90
       50
102
RTVSPost2010PropOp47
 70
     1
102
RTVSPost2010Prop48
 90
       50
102
RTVSPost2010PropOp48
 70
     1
102
RTVSPost2010Prop49
280
     0
102
RTVSPost2010PropOp49
 70
     1
102
RTVSPost2010Prop50
 90
       50
102
RTVSPost2010PropOp50
 70
     1
102
RTVSPost2010Prop51ColorIndex
 90
      256
102
RTVSPost2010Prop51ColorRGB
 90
-16777216
102
RTVSPost2010PropOp51
 70
     0
102
RTVSPost2010Prop52
140
1.0
102
RTVSPost2010PropOp52
 70
     0
102
RTVSPost2010Prop53
 90
        2
102
RTVSPost2010PropOp53
 70
     1
102
RTVSPost2010Prop54
  1
strokes_ogs.tif
102
RTVSPost2010PropOp54
 70
     1
102
RTVSPost2010Prop55
280
     0
102
RTVSPost2010PropOp55
 70
     1
102
RTVSPost2010Prop56
140
1.0
102
RTVSPost2010PropOp56
 70
     1
102
RTVSPost2010Prop57
140
1.0
102
RTVSPost2010PropOp57
 70
     1
  0
XRECORD
  5
6BD
102
{ACAD_REACTORS
330
6BC
102
}
330
6BC
100
AcDbXrecord
280
     1
102
RTVSPropertyOp0
 70
     0
102
RTVSPropertyOp1
 70
     0
102
RTVSPropertyOp2
 70
     0
102
RTVSPropertyOp3
 70
     0
102
RTVSPropertyOp4
 70
     0
102
RTVSPropertyOp5
 70
     0
102
RTVSPropertyOp6
 70
     0
102
RTVSPropertyOp7
 70
     0
102
RTVSPropertyOp8
 70
     0
102
RTVSPropertyOp9
 70
     0
102
RTVSPropertyOp10
 70
     0
102
RTVSPropertyOp11
 70
     0
102
RTVSPropertyOp12
 70
     0
102
RTVSPropertyOp13
 70
     0
102
RTVSPropertyOp14
 70
     0
102
RTVSPropertyOp15
 70
     0
102
RTVSPropertyOp16
 70
     0
102
RTVSPropertyOp17
 70
     0
102
RTVSPropertyOp18
 70
     0
102
RTVSPropertyOp19
 70
     0
102
RTVSPropertyOp20
 70
     0
102
RTVSPropertyOp21
 70
     0
102
RTVSPropertyOp22
 70
     0
102
RTVSPropertyOp23
 70
     0
102
RTVSPropertyOp24
 70
     0
102
RTVSPropertyOp25
 70
     0
102
RTVSPropertyOp26
 70
     0
102
RTVSPropertyOp27
 70
     0
102
RTVSPropertyOp28
 70
     1
102
RTVSPropertyOp29
 70
     1
102
RTVSPropertyOp30
 70
     1
102
RTVSPropertyOp31
 70
     1
102
RTVSPropertyOp32
 70
     1
102
RTVSPropertyOp33
 70
     1
102
RTVSPropertyOp34
 70
     1
102
RTVSPropertyOp35
 70
     1
102
RTVSPropertyOp36
 70
     1
102
RTVSPropertyOp37
 70
     1
102
RTVSPropertyOp38
 70
     1
102
RTVSPropertyOp39
 70
     1
102
RTVSPropertyOp40
 70
     1
102
RTVSPropertyOp41
 70
     1
102
RTVSPropertyOp42
 70
     1
102
RTVSPropertyOp43
 70
     1
102
RTVSPropertyOp44
 70
     1
102
RTVSPropertyOp45
 70
     1
102
RTVSPropertyOp46
 70
     1
102
RTVSPropertyOp47
 70
     1
102
RTVSPropertyOp48
 70
     1
102
RTVSPropertyOp49
 70
     1
102
RTVSPropertyOp50
 70
     1
102
RTVSPropertyOp51
 70
     0
102
RTVSPropertyOp52
 70
     0
102
RTVSPropertyOp53
 70
     1
102
RTVSPropertyOp54
 70
     1
102
RTVSPropertyOp55
 70
     1
102
RTVSPropertyOp56
 70
     1
102
RTVSPropertyOp57
 70
     1
102
RTVSPost2010Prop28
280
     0
102
RTVSPost2010PropOp28
 70
     1
102
RTVSPost2010Prop29
280
     1
102
RTVSPost2010PropOp29
 70
     1
102
RTVSPost2010Prop30
280
     1
102
RTVSPost2010PropOp30
 70
     1
102
RTVSPost2010Prop31
280
     0
102
RTVSPost2010PropOp31
 70
     1
102
RTVSPost2010Prop32
280
     0
102
RTVSPost2010PropOp32
 70
     1
102
RTVSPost2010Prop33
280
     0
102
RTVSPost2010PropOp33
 70
     1
102
RTVSPost2010Prop34
280
     0
102
RTVSPost2010PropOp34
 70
     1
102
RTVSPost2010Prop35
280
     0
102
RTVSPost2010PropOp35
 70
     1
102
RTVSPost2010Prop36
280
     0
102
RTVSPost2010PropOp36
 70
     1
102
RTVSPost2010Prop37
 90
       50
102
RTVSPost2010PropOp37
 70
     1
102
RTVSPost2010Prop38
140
0.0
102
RTVSPost2010PropOp38
 70
     1
102
RTVSPost2010Prop39
140
1.0
102
RTVSPost2010PropOp39
 70
     1
102
RTVSPost2010Prop40
 90
        0
102
RTVSPost2010PropOp40
 70
     1
102
RTVSPost2010Prop41ColorIndex
 90
       18
102
RTVSPost2010Prop41ColorRGB
 90
        0
102
RTVSPost2010PropOp41
 70
     1
102
RTVSPost2010Prop42
 90
       50
102
RTVSPost2010PropOp42
 70
     1
102
RTVSPost2010Prop43
 90
        3
102
RTVSPost2010PropOp43
 70
     1
102
RTVSPost2010Prop44ColorIndex
 90
        5
102
RTVSPost2010Prop44ColorRGB
 90
      255
102
RTVSPost2010PropOp44
 70
     1
102
RTVSPost2010Prop45
280
     0
102
RTVSPost2010PropOp45
 70
     1
102
RTVSPost2010Prop46
 90
       50
102
RTVSPost2010PropOp46
 70
     1
102
RTVSPost2010Prop47
 90
       50
102
RTVSPost2010PropOp47
 70
     1
102
RTVSPost2010Prop48
 90
       50
102
RTVSPost2010PropOp48
 70
     1
102
RTVSPost2010Prop49
280
     0
102
RTVSPost2010PropOp49
 70
     1
102
RTVSPost2010Prop50
 90
       50
102
RTVSPost2010PropOp50
 70
     1
102
RTVSPost2010Prop51ColorIndex
 90
      256
102
RTVSPost2010Prop51ColorRGB
 90
-16777216
102
RTVSPost2010PropOp51
 70
     0
102
RTVSPost2010Prop52
140
1.0
102
RTVSPost2010PropOp52
 70
     0
102
RTVSPost2010Prop53
 90
        2
102
RTVSPost2010PropOp53
 70
     1
102
RTVSPost2010Prop54
  1
strokes_ogs.tif
102
RTVSPost2010PropOp54
 70
     1
102
RTVSPost2010Prop55
280
     0
102
RTVSPost2010PropOp55
 70
     1
102
RTVSPost2010Prop56
140
1.0
102
RTVSPost2010PropOp56
 70
     1
102
RTVSPost2010Prop57
140
1.0
102
RTVSPost2010PropOp57
 70
     1
  0
XRECORD
  5
69B
102
{ACAD_REACTORS
330
69A
102
}
330
69A
100
AcDbXrecord
280
     1
102
RTVSPropertyOp0
 70
     1
102
RTVSPropertyOp1
 70
     1
102
RTVSPropertyOp2
 70
     1
102
RTVSPropertyOp3
 70
     1
102
RTVSPropertyOp4
 70
     1
102
RTVSPropertyOp5
 70
     1
102
RTVSPropertyOp6
 70
     1
102
RTVSPropertyOp7
 70
     1
102
RTVSPropertyOp8
 70
     1
102
RTVSPropertyOp9
 70
     1
102
RTVSPropertyOp10
 70
     1
102
RTVSPropertyOp11
 70
     1
102
RTVSPropertyOp12
 70
     1
102
RTVSPropertyOp13
 70
     1
102
RTVSPropertyOp14
 70
     1
102
RTVSPropertyOp15
 70
     1
102
RTVSPropertyOp16
 70
     1
102
RTVSPropertyOp17
 70
     1
102
RTVSPropertyOp18
 70
     1
102
RTVSPropertyOp19
 70
     1
102
RTVSPropertyOp20
 70
     1
102
RTVSPropertyOp21
 70
     1
102
RTVSPropertyOp22
 70
     1
102
RTVSPropertyOp23
 70
     1
102
RTVSPropertyOp24
 70
     1
102
RTVSPropertyOp25
 70
     1
102
RTVSPropertyOp26
 70
     1
102
RTVSPropertyOp27
 70
     1
102
RTVSPropertyOp28
 70
     1
102
RTVSPropertyOp29
 70
     1
102
RTVSPropertyOp30
 70
     1
102
RTVSPropertyOp31
 70
     1
102
RTVSPropertyOp32
 70
     1
102
RTVSPropertyOp33
 70
     1
102
RTVSPropertyOp34
 70
     1
102
RTVSPropertyOp35
 70
     1
102
RTVSPropertyOp36
 70
     1
102
RTVSPropertyOp37
 70
     1
102
RTVSPropertyOp38
 70
     1
102
RTVSPropertyOp39
 70
     1
102
RTVSPropertyOp40
 70
     1
102
RTVSPropertyOp41
 70
     1
102
RTVSPropertyOp42
 70
     1
102
RTVSPropertyOp43
 70
     1
102
RTVSPropertyOp44
 70
     1
102
RTVSPropertyOp45
 70
     1
102
RTVSPropertyOp46
 70
     1
102
RTVSPropertyOp47
 70
     1
102
RTVSPropertyOp48
 70
     1
102
RTVSPropertyOp49
 70
     1
102
RTVSPropertyOp50
 70
     1
102
RTVSPropertyOp51
 70
     0
102
RTVSPropertyOp52
 70
     0
102
RTVSPropertyOp53
 70
     1
102
RTVSPropertyOp54
 70
     1
102
RTVSPropertyOp55
 70
     1
102
RTVSPropertyOp56
 70
     1
102
RTVSPropertyOp57
 70
     1
102
RTVSPost2010Prop28
280
     0
102
RTVSPost2010PropOp28
 70
     1
102
RTVSPost2010Prop29
280
     1
102
RTVSPost2010PropOp29
 70
     1
102
RTVSPost2010Prop30
280
     1
102
RTVSPost2010PropOp30
 70
     1
102
RTVSPost2010Prop31
280
     0
102
RTVSPost2010PropOp31
 70
     1
102
RTVSPost2010Prop32
280
     0
102
RTVSPost2010PropOp32
 70
     1
102
RTVSPost2010Prop33
280
     0
102
RTVSPost2010PropOp33
 70
     1
102
RTVSPost2010Prop34
280
     0
102
RTVSPost2010PropOp34
 70
     1
102
RTVSPost2010Prop35
280
     0
102
RTVSPost2010PropOp35
 70
     1
102
RTVSPost2010Prop36
280
     0
102
RTVSPost2010PropOp36
 70
     1
102
RTVSPost2010Prop37
 90
       50
102
RTVSPost2010PropOp37
 70
     1
102
RTVSPost2010Prop38
140
0.0
102
RTVSPost2010PropOp38
 70
     1
102
RTVSPost2010Prop39
140
1.0
102
RTVSPost2010PropOp39
 70
     1
102
RTVSPost2010Prop40
 90
        0
102
RTVSPost2010PropOp40
 70
     1
102
RTVSPost2010Prop41ColorIndex
 90
       18
102
RTVSPost2010Prop41ColorRGB
 90
        0
102
RTVSPost2010PropOp41
 70
     1
102
RTVSPost2010Prop42
 90
       50
102
RTVSPost2010PropOp42
 70
     1
102
RTVSPost2010Prop43
 90
        3
102
RTVSPost2010PropOp43
 70
     1
102
RTVSPost2010Prop44ColorIndex
 90
        5
102
RTVSPost2010Prop44ColorRGB
 90
      255
102
RTVSPost2010PropOp44
 70
     1
102
RTVSPost2010Prop45
280
     0
102
RTVSPost2010PropOp45
 70
     1
102
RTVSPost2010Prop46
 90
       50
102
RTVSPost2010PropOp46
 70
     1
102
RTVSPost2010Prop47
 90
       50
102
RTVSPost2010PropOp47
 70
     1
102
RTVSPost2010Prop48
 90
       50
102
RTVSPost2010PropOp48
 70
     1
102
RTVSPost2010Prop49
280
     0
102
RTVSPost2010PropOp49
 70
     1
102
RTVSPost2010Prop50
 90
       50
102
RTVSPost2010PropOp50
 70
     1
102
RTVSPost2010Prop51ColorIndex
 90
      256
102
RTVSPost2010Prop51ColorRGB
 90
-16777216
102
RTVSPost2010PropOp51
 70
     0
102
RTVSPost2010Prop52
140
1.0
102
RTVSPost2010PropOp52
 70
     0
102
RTVSPost2010Prop53
 90
        2
102
RTVSPost2010PropOp53
 70
     1
102
RTVSPost2010Prop54
  1
strokes_ogs.tif
102
RTVSPost2010PropOp54
 70
     1
102
RTVSPost2010Prop55
280
     0
102
RTVSPost2010PropOp55
 70
     1
102
RTVSPost2010Prop56
140
1.0
102
RTVSPost2010PropOp56
 70
     1
102
RTVSPost2010Prop57
140
1.0
102
RTVSPost2010PropOp57
 70
     1
  0
XRECORD
  5
6C9
102
{ACAD_REACTORS
330
6C8
102
}
330
6C8
100
AcDbXrecord
280
     1
102
RTVSPropertyOp0
 70
     1
102
RTVSPropertyOp1
 70
     1
102
RTVSPropertyOp2
 70
     1
102
RTVSPropertyOp3
 70
     1
102
RTVSPropertyOp4
 70
     1
102
RTVSPropertyOp5
 70
     1
102
RTVSPropertyOp6
 70
     1
102
RTVSPropertyOp7
 70
     1
102
RTVSPropertyOp8
 70
     1
102
RTVSPropertyOp9
 70
     1
102
RTVSPropertyOp10
 70
     1
102
RTVSPropertyOp11
 70
     1
102
RTVSPropertyOp12
 70
     1
102
RTVSPropertyOp13
 70
     1
102
RTVSPropertyOp14
 70
     1
102
RTVSPropertyOp15
 70
     1
102
RTVSPropertyOp16
 70
     1
102
RTVSPropertyOp17
 70
     1
102
RTVSPropertyOp18
 70
     1
102
RTVSPropertyOp19
 70
     1
102
RTVSPropertyOp20
 70
     1
102
RTVSPropertyOp21
 70
     1
102
RTVSPropertyOp22
 70
     1
102
RTVSPropertyOp23
 70
     1
102
RTVSPropertyOp24
 70
     1
102
RTVSPropertyOp25
 70
     1
102
RTVSPropertyOp26
 70
     1
102
RTVSPropertyOp27
 70
     1
102
RTVSPropertyOp28
 70
     1
102
RTVSPropertyOp29
 70
     1
102
RTVSPropertyOp30
 70
     1
102
RTVSPropertyOp31
 70
     1
102
RTVSPropertyOp32
 70
     1
102
RTVSPropertyOp33
 70
     1
102
RTVSPropertyOp34
 70
     1
102
RTVSPropertyOp35
 70
     1
102
RTVSPropertyOp36
 70
     1
102
RTVSPropertyOp37
 70
     1
102
RTVSPropertyOp38
 70
     1
102
RTVSPropertyOp39
 70
     1
102
RTVSPropertyOp40
 70
     1
102
RTVSPropertyOp41
 70
     1
102
RTVSPropertyOp42
 70
     1
102
RTVSPropertyOp43
 70
     1
102
RTVSPropertyOp44
 70
     1
102
RTVSPropertyOp45
 70
     1
102
RTVSPropertyOp46
 70
     1
102
RTVSPropertyOp47
 70
     1
102
RTVSPropertyOp48
 70
     1
102
RTVSPropertyOp49
 70
     1
102
RTVSPropertyOp50
 70
     1
102
RTVSPropertyOp51
 70
     0
102
RTVSPropertyOp52
 70
     0
102
RTVSPropertyOp53
 70
     1
102
RTVSPropertyOp54
 70
     1
102
RTVSPropertyOp55
 70
     1
102
RTVSPropertyOp56
 70
     1
102
RTVSPropertyOp57
 70
     1
102
RTVSPost2010Prop28
280
     0
102
RTVSPost2010PropOp28
 70
     1
102
RTVSPost2010Prop29
280
     1
102
RTVSPost2010PropOp29
 70
     1
102
RTVSPost2010Prop30
280
     1
102
RTVSPost2010PropOp30
 70
     1
102
RTVSPost2010Prop31
280
     0
102
RTVSPost2010PropOp31
 70
     1
102
RTVSPost2010Prop32
280
     0
102
RTVSPost2010PropOp32
 70
     1
102
RTVSPost2010Prop33
280
     0
102
RTVSPost2010PropOp33
 70
     1
102
RTVSPost2010Prop34
280
     0
102
RTVSPost2010PropOp34
 70
     1
102
RTVSPost2010Prop35
280
     0
102
RTVSPost2010PropOp35
 70
     1
102
RTVSPost2010Prop36
280
     0
102
RTVSPost2010PropOp36
 70
     1
102
RTVSPost2010Prop37
 90
       50
102
RTVSPost2010PropOp37
 70
     1
102
RTVSPost2010Prop38
140
0.0
102
RTVSPost2010PropOp38
 70
     1
102
RTVSPost2010Prop39
140
1.0
102
RTVSPost2010PropOp39
 70
     1
102
RTVSPost2010Prop40
 90
        0
102
RTVSPost2010PropOp40
 70
     1
102
RTVSPost2010Prop41ColorIndex
 90
       18
102
RTVSPost2010Prop41ColorRGB
 90
        0
102
RTVSPost2010PropOp41
 70
     1
102
RTVSPost2010Prop42
 90
       50
102
RTVSPost2010PropOp42
 70
     1
102
RTVSPost2010Prop43
 90
        3
102
RTVSPost2010PropOp43
 70
     1
102
RTVSPost2010Prop44ColorIndex
 90
        5
102
RTVSPost2010Prop44ColorRGB
 90
      255
102
RTVSPost2010PropOp44
 70
     1
102
RTVSPost2010Prop45
280
     0
102
RTVSPost2010PropOp45
 70
     1
102
RTVSPost2010Prop46
 90
       50
102
RTVSPost2010PropOp46
 70
     1
102
RTVSPost2010Prop47
 90
       50
102
RTVSPost2010PropOp47
 70
     1
102
RTVSPost2010Prop48
 90
       50
102
RTVSPost2010PropOp48
 70
     1
102
RTVSPost2010Prop49
280
     0
102
RTVSPost2010PropOp49
 70
     1
102
RTVSPost2010Prop50
 90
       50
102
RTVSPost2010PropOp50
 70
     1
102
RTVSPost2010Prop51ColorIndex
 90
      256
102
RTVSPost2010Prop51ColorRGB
 90
-16777216
102
RTVSPost2010PropOp51
 70
     0
102
RTVSPost2010Prop52
140
1.0
102
RTVSPost2010PropOp52
 70
     0
102
RTVSPost2010Prop53
 90
        2
102
RTVSPost2010PropOp53
 70
     1
102
RTVSPost2010Prop54
  1
strokes_ogs.tif
102
RTVSPost2010PropOp54
 70
     1
102
RTVSPost2010Prop55
280
     0
102
RTVSPost2010PropOp55
 70
     1
102
RTVSPost2010Prop56
140
1.0
102
RTVSPost2010PropOp56
 70
     1
102
RTVSPost2010Prop57
140
1.0
102
RTVSPost2010PropOp57
 70
     1
  0
XRECORD
  5
6C7
102
{ACAD_REACTORS
330
6C6
102
}
330
6C6
100
AcDbXrecord
280
     1
102
RTVSPropertyOp0
 70
     1
102
RTVSPropertyOp1
 70
     1
102
RTVSPropertyOp2
 70
     1
102
RTVSPropertyOp3
 70
     1
102
RTVSPropertyOp4
 70
     1
102
RTVSPropertyOp5
 70
     1
102
RTVSPropertyOp6
 70
     1
102
RTVSPropertyOp7
 70
     1
102
RTVSPropertyOp8
 70
     1
102
RTVSPropertyOp9
 70
     1
102
RTVSPropertyOp10
 70
     1
102
RTVSPropertyOp11
 70
     1
102
RTVSPropertyOp12
 70
     1
102
RTVSPropertyOp13
 70
     1
102
RTVSPropertyOp14
 70
     1
102
RTVSPropertyOp15
 70
     1
102
RTVSPropertyOp16
 70
     1
102
RTVSPropertyOp17
 70
     1
102
RTVSPropertyOp18
 70
     1
102
RTVSPropertyOp19
 70
     1
102
RTVSPropertyOp20
 70
     1
102
RTVSPropertyOp21
 70
     1
102
RTVSPropertyOp22
 70
     1
102
RTVSPropertyOp23
 70
     1
102
RTVSPropertyOp24
 70
     1
102
RTVSPropertyOp25
 70
     1
102
RTVSPropertyOp26
 70
     1
102
RTVSPropertyOp27
 70
     1
102
RTVSPropertyOp28
 70
     1
102
RTVSPropertyOp29
 70
     1
102
RTVSPropertyOp30
 70
     1
102
RTVSPropertyOp31
 70
     1
102
RTVSPropertyOp32
 70
     1
102
RTVSPropertyOp33
 70
     1
102
RTVSPropertyOp34
 70
     1
102
RTVSPropertyOp35
 70
     1
102
RTVSPropertyOp36
 70
     1
102
RTVSPropertyOp37
 70
     1
102
RTVSPropertyOp38
 70
     1
102
RTVSPropertyOp39
 70
     1
102
RTVSPropertyOp40
 70
     1
102
RTVSPropertyOp41
 70
     1
102
RTVSPropertyOp42
 70
     1
102
RTVSPropertyOp43
 70
     1
102
RTVSPropertyOp44
 70
     1
102
RTVSPropertyOp45
 70
     1
102
RTVSPropertyOp46
 70
     1
102
RTVSPropertyOp47
 70
     1
102
RTVSPropertyOp48
 70
     1
102
RTVSPropertyOp49
 70
     1
102
RTVSPropertyOp50
 70
     1
102
RTVSPropertyOp51
 70
     0
102
RTVSPropertyOp52
 70
     0
102
RTVSPropertyOp53
 70
     1
102
RTVSPropertyOp54
 70
     1
102
RTVSPropertyOp55
 70
     1
102
RTVSPropertyOp56
 70
     1
102
RTVSPropertyOp57
 70
     1
102
RTVSPost2010Prop28
280
     0
102
RTVSPost2010PropOp28
 70
     1
102
RTVSPost2010Prop29
280
     1
102
RTVSPost2010PropOp29
 70
     1
102
RTVSPost2010Prop30
280
     1
102
RTVSPost2010PropOp30
 70
     1
102
RTVSPost2010Prop31
280
     0
102
RTVSPost2010PropOp31
 70
     1
102
RTVSPost2010Prop32
280
     0
102
RTVSPost2010PropOp32
 70
     1
102
RTVSPost2010Prop33
280
     0
102
RTVSPost2010PropOp33
 70
     1
102
RTVSPost2010Prop34
280
     0
102
RTVSPost2010PropOp34
 70
     1
102
RTVSPost2010Prop35
280
     0
102
RTVSPost2010PropOp35
 70
     1
102
RTVSPost2010Prop36
280
     0
102
RTVSPost2010PropOp36
 70
     1
102
RTVSPost2010Prop37
 90
       50
102
RTVSPost2010PropOp37
 70
     1
102
RTVSPost2010Prop38
140
0.0
102
RTVSPost2010PropOp38
 70
     1
102
RTVSPost2010Prop39
140
1.0
102
RTVSPost2010PropOp39
 70
     1
102
RTVSPost2010Prop40
 90
        0
102
RTVSPost2010PropOp40
 70
     1
102
RTVSPost2010Prop41ColorIndex
 90
       18
102
RTVSPost2010Prop41ColorRGB
 90
        0
102
RTVSPost2010PropOp41
 70
     1
102
RTVSPost2010Prop42
 90
       50
102
RTVSPost2010PropOp42
 70
     1
102
RTVSPost2010Prop43
 90
        3
102
RTVSPost2010PropOp43
 70
     1
102
RTVSPost2010Prop44ColorIndex
 90
        5
102
RTVSPost2010Prop44ColorRGB
 90
      255
102
RTVSPost2010PropOp44
 70
     1
102
RTVSPost2010Prop45
280
     0
102
RTVSPost2010PropOp45
 70
     1
102
RTVSPost2010Prop46
 90
       50
102
RTVSPost2010PropOp46
 70
     1
102
RTVSPost2010Prop47
 90
       50
102
RTVSPost2010PropOp47
 70
     1
102
RTVSPost2010Prop48
 90
       50
102
RTVSPost2010PropOp48
 70
     1
102
RTVSPost2010Prop49
280
     0
102
RTVSPost2010PropOp49
 70
     1
102
RTVSPost2010Prop50
 90
       50
102
RTVSPost2010PropOp50
 70
     1
102
RTVSPost2010Prop51ColorIndex
 90
      256
102
RTVSPost2010Prop51ColorRGB
 90
-16777216
102
RTVSPost2010PropOp51
 70
     0
102
RTVSPost2010Prop52
140
1.0
102
RTVSPost2010PropOp52
 70
     0
102
RTVSPost2010Prop53
 90
        2
102
RTVSPost2010PropOp53
 70
     1
102
RTVSPost2010Prop54
  1
strokes_ogs.tif
102
RTVSPost2010PropOp54
 70
     1
102
RTVSPost2010Prop55
280
     0
102
RTVSPost2010PropOp55
 70
     1
102
RTVSPost2010Prop56
140
1.0
102
RTVSPost2010PropOp56
 70
     1
102
RTVSPost2010Prop57
140
1.0
102
RTVSPost2010PropOp57
 70
     1
  0
XRECORD
  5
6C1
102
{ACAD_REACTORS
330
6C0
102
}
330
6C0
100
AcDbXrecord
280
     1
102
RTVSPropertyOp0
 70
     1
102
RTVSPropertyOp1
 70
     1
102
RTVSPropertyOp2
 70
     1
102
RTVSPropertyOp3
 70
     1
102
RTVSPropertyOp4
 70
     1
102
RTVSPropertyOp5
 70
     1
102
RTVSPropertyOp6
 70
     1
102
RTVSPropertyOp7
 70
     1
102
RTVSPropertyOp8
 70
     1
102
RTVSPropertyOp9
 70
     1
102
RTVSPropertyOp10
 70
     1
102
RTVSPropertyOp11
 70
     1
102
RTVSPropertyOp12
 70
     1
102
RTVSPropertyOp13
 70
     1
102
RTVSPropertyOp14
 70
     1
102
RTVSPropertyOp15
 70
     1
102
RTVSPropertyOp16
 70
     1
102
RTVSPropertyOp17
 70
     1
102
RTVSPropertyOp18
 70
     1
102
RTVSPropertyOp19
 70
     1
102
RTVSPropertyOp20
 70
     1
102
RTVSPropertyOp21
 70
     1
102
RTVSPropertyOp22
 70
     1
102
RTVSPropertyOp23
 70
     1
102
RTVSPropertyOp24
 70
     1
102
RTVSPropertyOp25
 70
     1
102
RTVSPropertyOp26
 70
     1
102
RTVSPropertyOp27
 70
     1
102
RTVSPropertyOp28
 70
     1
102
RTVSPropertyOp29
 70
     1
102
RTVSPropertyOp30
 70
     1
102
RTVSPropertyOp31
 70
     1
102
RTVSPropertyOp32
 70
     1
102
RTVSPropertyOp33
 70
     1
102
RTVSPropertyOp34
 70
     1
102
RTVSPropertyOp35
 70
     1
102
RTVSPropertyOp36
 70
     1
102
RTVSPropertyOp37
 70
     1
102
RTVSPropertyOp38
 70
     1
102
RTVSPropertyOp39
 70
     1
102
RTVSPropertyOp40
 70
     1
102
RTVSPropertyOp41
 70
     1
102
RTVSPropertyOp42
 70
     1
102
RTVSPropertyOp43
 70
     1
102
RTVSPropertyOp44
 70
     1
102
RTVSPropertyOp45
 70
     1
102
RTVSPropertyOp46
 70
     1
102
RTVSPropertyOp47
 70
     1
102
RTVSPropertyOp48
 70
     1
102
RTVSPropertyOp49
 70
     1
102
RTVSPropertyOp50
 70
     1
102
RTVSPropertyOp51
 70
     0
102
RTVSPropertyOp52
 70
     0
102
RTVSPropertyOp53
 70
     1
102
RTVSPropertyOp54
 70
     1
102
RTVSPropertyOp55
 70
     1
102
RTVSPropertyOp56
 70
     1
102
RTVSPropertyOp57
 70
     1
102
RTVSPost2010Prop28
280
     0
102
RTVSPost2010PropOp28
 70
     1
102
RTVSPost2010Prop29
280
     1
102
RTVSPost2010PropOp29
 70
     1
102
RTVSPost2010Prop30
280
     1
102
RTVSPost2010PropOp30
 70
     1
102
RTVSPost2010Prop31
280
     0
102
RTVSPost2010PropOp31
 70
     1
102
RTVSPost2010Prop32
280
     0
102
RTVSPost2010PropOp32
 70
     1
102
RTVSPost2010Prop33
280
     0
102
RTVSPost2010PropOp33
 70
     1
102
RTVSPost2010Prop34
280
     0
102
RTVSPost2010PropOp34
 70
     1
102
RTVSPost2010Prop35
280
     0
102
RTVSPost2010PropOp35
 70
     1
102
RTVSPost2010Prop36
280
     0
102
RTVSPost2010PropOp36
 70
     1
102
RTVSPost2010Prop37
 90
       50
102
RTVSPost2010PropOp37
 70
     1
102
RTVSPost2010Prop38
140
0.0
102
RTVSPost2010PropOp38
 70
     1
102
RTVSPost2010Prop39
140
1.0
102
RTVSPost2010PropOp39
 70
     1
102
RTVSPost2010Prop40
 90
        0
102
RTVSPost2010PropOp40
 70
     1
102
RTVSPost2010Prop41ColorIndex
 90
       18
102
RTVSPost2010Prop41ColorRGB
 90
        0
102
RTVSPost2010PropOp41
 70
     1
102
RTVSPost2010Prop42
 90
       50
102
RTVSPost2010PropOp42
 70
     1
102
RTVSPost2010Prop43
 90
        3
102
RTVSPost2010PropOp43
 70
     1
102
RTVSPost2010Prop44ColorIndex
 90
        5
102
RTVSPost2010Prop44ColorRGB
 90
      255
102
RTVSPost2010PropOp44
 70
     1
102
RTVSPost2010Prop45
280
     0
102
RTVSPost2010PropOp45
 70
     1
102
RTVSPost2010Prop46
 90
       50
102
RTVSPost2010PropOp46
 70
     1
102
RTVSPost2010Prop47
 90
       50
102
RTVSPost2010PropOp47
 70
     1
102
RTVSPost2010Prop48
 90
       50
102
RTVSPost2010PropOp48
 70
     1
102
RTVSPost2010Prop49
280
     0
102
RTVSPost2010PropOp49
 70
     1
102
RTVSPost2010Prop50
 90
       50
102
RTVSPost2010PropOp50
 70
     1
102
RTVSPost2010Prop51ColorIndex
 90
      256
102
RTVSPost2010Prop51ColorRGB
 90
-16777216
102
RTVSPost2010PropOp51
 70
     0
102
RTVSPost2010Prop52
140
1.0
102
RTVSPost2010PropOp52
 70
     0
102
RTVSPost2010Prop53
 90
        2
102
RTVSPost2010PropOp53
 70
     1
102
RTVSPost2010Prop54
  1
strokes_ogs.tif
102
RTVSPost2010PropOp54
 70
     1
102
RTVSPost2010Prop55
280
     0
102
RTVSPost2010PropOp55
 70
     1
102
RTVSPost2010Prop56
140
1.0
102
RTVSPost2010PropOp56
 70
     1
102
RTVSPost2010Prop57
140
1.0
102
RTVSPost2010PropOp57
 70
     1
  0
XRECORD
  5
6C3
102
{ACAD_REACTORS
330
6C2
102
}
330
6C2
100
AcDbXrecord
280
     1
102
RTVSPropertyOp0
 70
     1
102
RTVSPropertyOp1
 70
     1
102
RTVSPropertyOp2
 70
     1
102
RTVSPropertyOp3
 70
     1
102
RTVSPropertyOp4
 70
     1
102
RTVSPropertyOp5
 70
     1
102
RTVSPropertyOp6
 70
     1
102
RTVSPropertyOp7
 70
     1
102
RTVSPropertyOp8
 70
     1
102
RTVSPropertyOp9
 70
     1
102
RTVSPropertyOp10
 70
     1
102
RTVSPropertyOp11
 70
     1
102
RTVSPropertyOp12
 70
     1
102
RTVSPropertyOp13
 70
     1
102
RTVSPropertyOp14
 70
     1
102
RTVSPropertyOp15
 70
     1
102
RTVSPropertyOp16
 70
     1
102
RTVSPropertyOp17
 70
     1
102
RTVSPropertyOp18
 70
     1
102
RTVSPropertyOp19
 70
     1
102
RTVSPropertyOp20
 70
     1
102
RTVSPropertyOp21
 70
     1
102
RTVSPropertyOp22
 70
     1
102
RTVSPropertyOp23
 70
     1
102
RTVSPropertyOp24
 70
     1
102
RTVSPropertyOp25
 70
     1
102
RTVSPropertyOp26
 70
     1
102
RTVSPropertyOp27
 70
     1
102
RTVSPropertyOp28
 70
     1
102
RTVSPropertyOp29
 70
     1
102
RTVSPropertyOp30
 70
     1
102
RTVSPropertyOp31
 70
     1
102
RTVSPropertyOp32
 70
     1
102
RTVSPropertyOp33
 70
     1
102
RTVSPropertyOp34
 70
     1
102
RTVSPropertyOp35
 70
     1
102
RTVSPropertyOp36
 70
     1
102
RTVSPropertyOp37
 70
     1
102
RTVSPropertyOp38
 70
     1
102
RTVSPropertyOp39
 70
     1
102
RTVSPropertyOp40
 70
     1
102
RTVSPropertyOp41
 70
     1
102
RTVSPropertyOp42
 70
     1
102
RTVSPropertyOp43
 70
     1
102
RTVSPropertyOp44
 70
     1
102
RTVSPropertyOp45
 70
     1
102
RTVSPropertyOp46
 70
     1
102
RTVSPropertyOp47
 70
     1
102
RTVSPropertyOp48
 70
     1
102
RTVSPropertyOp49
 70
     1
102
RTVSPropertyOp50
 70
     1
102
RTVSPropertyOp51
 70
     0
102
RTVSPropertyOp52
 70
     0
102
RTVSPropertyOp53
 70
     1
102
RTVSPropertyOp54
 70
     1
102
RTVSPropertyOp55
 70
     1
102
RTVSPropertyOp56
 70
     1
102
RTVSPropertyOp57
 70
     1
102
RTVSPost2010Prop28
280
     0
102
RTVSPost2010PropOp28
 70
     1
102
RTVSPost2010Prop29
280
     1
102
RTVSPost2010PropOp29
 70
     1
102
RTVSPost2010Prop30
280
     1
102
RTVSPost2010PropOp30
 70
     1
102
RTVSPost2010Prop31
280
     0
102
RTVSPost2010PropOp31
 70
     1
102
RTVSPost2010Prop32
280
     0
102
RTVSPost2010PropOp32
 70
     1
102
RTVSPost2010Prop33
280
     0
102
RTVSPost2010PropOp33
 70
     1
102
RTVSPost2010Prop34
280
     0
102
RTVSPost2010PropOp34
 70
     1
102
RTVSPost2010Prop35
280
     0
102
RTVSPost2010PropOp35
 70
     1
102
RTVSPost2010Prop36
280
     0
102
RTVSPost2010PropOp36
 70
     1
102
RTVSPost2010Prop37
 90
       50
102
RTVSPost2010PropOp37
 70
     1
102
RTVSPost2010Prop38
140
0.0
102
RTVSPost2010PropOp38
 70
     1
102
RTVSPost2010Prop39
140
1.0
102
RTVSPost2010PropOp39
 70
     1
102
RTVSPost2010Prop40
 90
        0
102
RTVSPost2010PropOp40
 70
     1
102
RTVSPost2010Prop41ColorIndex
 90
       18
102
RTVSPost2010Prop41ColorRGB
 90
        0
102
RTVSPost2010PropOp41
 70
     1
102
RTVSPost2010Prop42
 90
       50
102
RTVSPost2010PropOp42
 70
     1
102
RTVSPost2010Prop43
 90
        3
102
RTVSPost2010PropOp43
 70
     1
102
RTVSPost2010Prop44ColorIndex
 90
        5
102
RTVSPost2010Prop44ColorRGB
 90
      255
102
RTVSPost2010PropOp44
 70
     1
102
RTVSPost2010Prop45
280
     0
102
RTVSPost2010PropOp45
 70
     1
102
RTVSPost2010Prop46
 90
       50
102
RTVSPost2010PropOp46
 70
     1
102
RTVSPost2010Prop47
 90
       50
102
RTVSPost2010PropOp47
 70
     1
102
RTVSPost2010Prop48
 90
       50
102
RTVSPost2010PropOp48
 70
     1
102
RTVSPost2010Prop49
280
     0
102
RTVSPost2010PropOp49
 70
     1
102
RTVSPost2010Prop50
 90
       50
102
RTVSPost2010PropOp50
 70
     1
102
RTVSPost2010Prop51ColorIndex
 90
      256
102
RTVSPost2010Prop51ColorRGB
 90
-16777216
102
RTVSPost2010PropOp51
 70
     0
102
RTVSPost2010Prop52
140
1.0
102
RTVSPost2010PropOp52
 70
     0
102
RTVSPost2010Prop53
 90
        2
102
RTVSPost2010PropOp53
 70
     1
102
RTVSPost2010Prop54
  1
strokes_ogs.tif
102
RTVSPost2010PropOp54
 70
     1
102
RTVSPost2010Prop55
280
     0
102
RTVSPost2010PropOp55
 70
     1
102
RTVSPost2010Prop56
140
1.0
102
RTVSPost2010PropOp56
 70
     1
102
RTVSPost2010Prop57
140
1.0
102
RTVSPost2010PropOp57
 70
     1
  0
XRECORD
  5
6B3
102
{ACAD_REACTORS
330
6B2
102
}
330
6B2
100
AcDbXrecord
280
     1
102
RTVSPropertyOp0
 70
     1
102
RTVSPropertyOp1
 70
     1
102
RTVSPropertyOp2
 70
     1
102
RTVSPropertyOp3
 70
     1
102
RTVSPropertyOp4
 70
     1
102
RTVSPropertyOp5
 70
     1
102
RTVSPropertyOp6
 70
     1
102
RTVSPropertyOp7
 70
     1
102
RTVSPropertyOp8
 70
     1
102
RTVSPropertyOp9
 70
     1
102
RTVSPropertyOp10
 70
     1
102
RTVSPropertyOp11
 70
     1
102
RTVSPropertyOp12
 70
     1
102
RTVSPropertyOp13
 70
     1
102
RTVSPropertyOp14
 70
     1
102
RTVSPropertyOp15
 70
     1
102
RTVSPropertyOp16
 70
     1
102
RTVSPropertyOp17
 70
     1
102
RTVSPropertyOp18
 70
     1
102
RTVSPropertyOp19
 70
     1
102
RTVSPropertyOp20
 70
     1
102
RTVSPropertyOp21
 70
     1
102
RTVSPropertyOp22
 70
     1
102
RTVSPropertyOp23
 70
     1
102
RTVSPropertyOp24
 70
     1
102
RTVSPropertyOp25
 70
     1
102
RTVSPropertyOp26
 70
     1
102
RTVSPropertyOp27
 70
     1
102
RTVSPropertyOp28
 70
     1
102
RTVSPropertyOp29
 70
     1
102
RTVSPropertyOp30
 70
     1
102
RTVSPropertyOp31
 70
     1
102
RTVSPropertyOp32
 70
     1
102
RTVSPropertyOp33
 70
     1
102
RTVSPropertyOp34
 70
     1
102
RTVSPropertyOp35
 70
     1
102
RTVSPropertyOp36
 70
     1
102
RTVSPropertyOp37
 70
     1
102
RTVSPropertyOp38
 70
     1
102
RTVSPropertyOp39
 70
     1
102
RTVSPropertyOp40
 70
     1
102
RTVSPropertyOp41
 70
     1
102
RTVSPropertyOp42
 70
     1
102
RTVSPropertyOp43
 70
     1
102
RTVSPropertyOp44
 70
     1
102
RTVSPropertyOp45
 70
     1
102
RTVSPropertyOp46
 70
     1
102
RTVSPropertyOp47
 70
     1
102
RTVSPropertyOp48
 70
     1
102
RTVSPropertyOp49
 70
     1
102
RTVSPropertyOp50
 70
     1
102
RTVSPropertyOp51
 70
     0
102
RTVSPropertyOp52
 70
     0
102
RTVSPropertyOp53
 70
     1
102
RTVSPropertyOp54
 70
     1
102
RTVSPropertyOp55
 70
     1
102
RTVSPropertyOp56
 70
     1
102
RTVSPropertyOp57
 70
     1
102
RTVSPost2010Prop28
280
     0
102
RTVSPost2010PropOp28
 70
     1
102
RTVSPost2010Prop29
280
     1
102
RTVSPost2010PropOp29
 70
     1
102
RTVSPost2010Prop30
280
     1
102
RTVSPost2010PropOp30
 70
     1
102
RTVSPost2010Prop31
280
     0
102
RTVSPost2010PropOp31
 70
     1
102
RTVSPost2010Prop32
280
     0
102
RTVSPost2010PropOp32
 70
     1
102
RTVSPost2010Prop33
280
     0
102
RTVSPost2010PropOp33
 70
     1
102
RTVSPost2010Prop34
280
     0
102
RTVSPost2010PropOp34
 70
     1
102
RTVSPost2010Prop35
280
     0
102
RTVSPost2010PropOp35
 70
     1
102
RTVSPost2010Prop36
280
     0
102
RTVSPost2010PropOp36
 70
     1
102
RTVSPost2010Prop37
 90
       50
102
RTVSPost2010PropOp37
 70
     1
102
RTVSPost2010Prop38
140
0.0
102
RTVSPost2010PropOp38
 70
     1
102
RTVSPost2010Prop39
140
1.0
102
RTVSPost2010PropOp39
 70
     1
102
RTVSPost2010Prop40
 90
        0
102
RTVSPost2010PropOp40
 70
     1
102
RTVSPost2010Prop41ColorIndex
 90
       18
102
RTVSPost2010Prop41ColorRGB
 90
        0
102
RTVSPost2010PropOp41
 70
     1
102
RTVSPost2010Prop42
 90
       50
102
RTVSPost2010PropOp42
 70
     1
102
RTVSPost2010Prop43
 90
        3
102
RTVSPost2010PropOp43
 70
     1
102
RTVSPost2010Prop44ColorIndex
 90
        5
102
RTVSPost2010Prop44ColorRGB
 90
      255
102
RTVSPost2010PropOp44
 70
     1
102
RTVSPost2010Prop45
280
     0
102
RTVSPost2010PropOp45
 70
     1
102
RTVSPost2010Prop46
 90
       50
102
RTVSPost2010PropOp46
 70
     1
102
RTVSPost2010Prop47
 90
       50
102
RTVSPost2010PropOp47
 70
     1
102
RTVSPost2010Prop48
 90
       50
102
RTVSPost2010PropOp48
 70
     1
102
RTVSPost2010Prop49
280
     0
102
RTVSPost2010PropOp49
 70
     1
102
RTVSPost2010Prop50
 90
       50
102
RTVSPost2010PropOp50
 70
     1
102
RTVSPost2010Prop51ColorIndex
 90
      256
102
RTVSPost2010Prop51ColorRGB
 90
-16777216
102
RTVSPost2010PropOp51
 70
     0
102
RTVSPost2010Prop52
140
1.0
102
RTVSPost2010PropOp52
 70
     0
102
RTVSPost2010Prop53
 90
        2
102
RTVSPost2010PropOp53
 70
     1
102
RTVSPost2010Prop54
  1
strokes_ogs.tif
102
RTVSPost2010PropOp54
 70
     1
102
RTVSPost2010Prop55
280
     0
102
RTVSPost2010PropOp55
 70
     1
102
RTVSPost2010Prop56
140
1.0
102
RTVSPost2010PropOp56
 70
     1
102
RTVSPost2010Prop57
140
1.0
102
RTVSPost2010PropOp57
 70
     1
  0
XRECORD
  5
69D
102
{ACAD_REACTORS
330
69C
102
}
330
69C
100
AcDbXrecord
280
     1
102
RTVSPropertyOp0
 70
     1
102
RTVSPropertyOp1
 70
     1
102
RTVSPropertyOp2
 70
     1
102
RTVSPropertyOp3
 70
     1
102
RTVSPropertyOp4
 70
     1
102
RTVSPropertyOp5
 70
     1
102
RTVSPropertyOp6
 70
     1
102
RTVSPropertyOp7
 70
     1
102
RTVSPropertyOp8
 70
     1
102
RTVSPropertyOp9
 70
     1
102
RTVSPropertyOp10
 70
     1
102
RTVSPropertyOp11
 70
     1
102
RTVSPropertyOp12
 70
     1
102
RTVSPropertyOp13
 70
     1
102
RTVSPropertyOp14
 70
     1
102
RTVSPropertyOp15
 70
     1
102
RTVSPropertyOp16
 70
     1
102
RTVSPropertyOp17
 70
     1
102
RTVSPropertyOp18
 70
     1
102
RTVSPropertyOp19
 70
     1
102
RTVSPropertyOp20
 70
     1
102
RTVSPropertyOp21
 70
     1
102
RTVSPropertyOp22
 70
     1
102
RTVSPropertyOp23
 70
     1
102
RTVSPropertyOp24
 70
     1
102
RTVSPropertyOp25
 70
     1
102
RTVSPropertyOp26
 70
     1
102
RTVSPropertyOp27
 70
     1
102
RTVSPropertyOp28
 70
     1
102
RTVSPropertyOp29
 70
     1
102
RTVSPropertyOp30
 70
     1
102
RTVSPropertyOp31
 70
     1
102
RTVSPropertyOp32
 70
     1
102
RTVSPropertyOp33
 70
     1
102
RTVSPropertyOp34
 70
     1
102
RTVSPropertyOp35
 70
     1
102
RTVSPropertyOp36
 70
     1
102
RTVSPropertyOp37
 70
     1
102
RTVSPropertyOp38
 70
     1
102
RTVSPropertyOp39
 70
     1
102
RTVSPropertyOp40
 70
     1
102
RTVSPropertyOp41
 70
     1
102
RTVSPropertyOp42
 70
     1
102
RTVSPropertyOp43
 70
     1
102
RTVSPropertyOp44
 70
     1
102
RTVSPropertyOp45
 70
     1
102
RTVSPropertyOp46
 70
     1
102
RTVSPropertyOp47
 70
     1
102
RTVSPropertyOp48
 70
     1
102
RTVSPropertyOp49
 70
     1
102
RTVSPropertyOp50
 70
     1
102
RTVSPropertyOp51
 70
     0
102
RTVSPropertyOp52
 70
     0
102
RTVSPropertyOp53
 70
     1
102
RTVSPropertyOp54
 70
     1
102
RTVSPropertyOp55
 70
     1
102
RTVSPropertyOp56
 70
     1
102
RTVSPropertyOp57
 70
     1
102
RTVSPost2010Prop28
280
     0
102
RTVSPost2010PropOp28
 70
     1
102
RTVSPost2010Prop29
280
     1
102
RTVSPost2010PropOp29
 70
     1
102
RTVSPost2010Prop30
280
     1
102
RTVSPost2010PropOp30
 70
     1
102
RTVSPost2010Prop31
280
     0
102
RTVSPost2010PropOp31
 70
     1
102
RTVSPost2010Prop32
280
     0
102
RTVSPost2010PropOp32
 70
     1
102
RTVSPost2010Prop33
280
     0
102
RTVSPost2010PropOp33
 70
     1
102
RTVSPost2010Prop34
280
     0
102
RTVSPost2010PropOp34
 70
     1
102
RTVSPost2010Prop35
280
     0
102
RTVSPost2010PropOp35
 70
     1
102
RTVSPost2010Prop36
280
     0
102
RTVSPost2010PropOp36
 70
     1
102
RTVSPost2010Prop37
 90
       50
102
RTVSPost2010PropOp37
 70
     1
102
RTVSPost2010Prop38
140
0.0
102
RTVSPost2010PropOp38
 70
     1
102
RTVSPost2010Prop39
140
1.0
102
RTVSPost2010PropOp39
 70
     1
102
RTVSPost2010Prop40
 90
        0
102
RTVSPost2010PropOp40
 70
     1
102
RTVSPost2010Prop41ColorIndex
 90
       18
102
RTVSPost2010Prop41ColorRGB
 90
        0
102
RTVSPost2010PropOp41
 70
     1
102
RTVSPost2010Prop42
 90
       50
102
RTVSPost2010PropOp42
 70
     1
102
RTVSPost2010Prop43
 90
        3
102
RTVSPost2010PropOp43
 70
     1
102
RTVSPost2010Prop44ColorIndex
 90
        5
102
RTVSPost2010Prop44ColorRGB
 90
      255
102
RTVSPost2010PropOp44
 70
     1
102
RTVSPost2010Prop45
280
     0
102
RTVSPost2010PropOp45
 70
     1
102
RTVSPost2010Prop46
 90
       50
102
RTVSPost2010PropOp46
 70
     1
102
RTVSPost2010Prop47
 90
       50
102
RTVSPost2010PropOp47
 70
     1
102
RTVSPost2010Prop48
 90
       50
102
RTVSPost2010PropOp48
 70
     1
102
RTVSPost2010Prop49
280
     0
102
RTVSPost2010PropOp49
 70
     1
102
RTVSPost2010Prop50
 90
       50
102
RTVSPost2010PropOp50
 70
     1
102
RTVSPost2010Prop51ColorIndex
 90
      256
102
RTVSPost2010Prop51ColorRGB
 90
-16777216
102
RTVSPost2010PropOp51
 70
     0
102
RTVSPost2010Prop52
140
1.0
102
RTVSPost2010PropOp52
 70
     0
102
RTVSPost2010Prop53
 90
        2
102
RTVSPost2010PropOp53
 70
     1
102
RTVSPost2010Prop54
  1
strokes_ogs.tif
102
RTVSPost2010PropOp54
 70
     1
102
RTVSPost2010Prop55
280
     0
102
RTVSPost2010PropOp55
 70
     1
102
RTVSPost2010Prop56
140
1.0
102
RTVSPost2010PropOp56
 70
     1
102
RTVSPost2010Prop57
140
1.0
102
RTVSPost2010PropOp57
 70
     1
  0
XRECORD
  5
6C5
102
{ACAD_REACTORS
330
6C4
102
}
330
6C4
100
AcDbXrecord
280
     1
102
RTVSPropertyOp0
 70
     1
102
RTVSPropertyOp1
 70
     1
102
RTVSPropertyOp2
 70
     1
102
RTVSPropertyOp3
 70
     1
102
RTVSPropertyOp4
 70
     1
102
RTVSPropertyOp5
 70
     1
102
RTVSPropertyOp6
 70
     1
102
RTVSPropertyOp7
 70
     1
102
RTVSPropertyOp8
 70
     1
102
RTVSPropertyOp9
 70
     1
102
RTVSPropertyOp10
 70
     1
102
RTVSPropertyOp11
 70
     1
102
RTVSPropertyOp12
 70
     1
102
RTVSPropertyOp13
 70
     1
102
RTVSPropertyOp14
 70
     1
102
RTVSPropertyOp15
 70
     1
102
RTVSPropertyOp16
 70
     1
102
RTVSPropertyOp17
 70
     1
102
RTVSPropertyOp18
 70
     1
102
RTVSPropertyOp19
 70
     1
102
RTVSPropertyOp20
 70
     1
102
RTVSPropertyOp21
 70
     1
102
RTVSPropertyOp22
 70
     1
102
RTVSPropertyOp23
 70
     1
102
RTVSPropertyOp24
 70
     1
102
RTVSPropertyOp25
 70
     1
102
RTVSPropertyOp26
 70
     1
102
RTVSPropertyOp27
 70
     1
102
RTVSPropertyOp28
 70
     1
102
RTVSPropertyOp29
 70
     1
102
RTVSPropertyOp30
 70
     1
102
RTVSPropertyOp31
 70
     1
102
RTVSPropertyOp32
 70
     1
102
RTVSPropertyOp33
 70
     1
102
RTVSPropertyOp34
 70
     1
102
RTVSPropertyOp35
 70
     1
102
RTVSPropertyOp36
 70
     1
102
RTVSPropertyOp37
 70
     1
102
RTVSPropertyOp38
 70
     1
102
RTVSPropertyOp39
 70
     1
102
RTVSPropertyOp40
 70
     1
102
RTVSPropertyOp41
 70
     1
102
RTVSPropertyOp42
 70
     1
102
RTVSPropertyOp43
 70
     1
102
RTVSPropertyOp44
 70
     1
102
RTVSPropertyOp45
 70
     1
102
RTVSPropertyOp46
 70
     1
102
RTVSPropertyOp47
 70
     1
102
RTVSPropertyOp48
 70
     1
102
RTVSPropertyOp49
 70
     1
102
RTVSPropertyOp50
 70
     1
102
RTVSPropertyOp51
 70
     0
102
RTVSPropertyOp52
 70
     0
102
RTVSPropertyOp53
 70
     1
102
RTVSPropertyOp54
 70
     1
102
RTVSPropertyOp55
 70
     1
102
RTVSPropertyOp56
 70
     1
102
RTVSPropertyOp57
 70
     1
102
RTVSPost2010Prop28
280
     0
102
RTVSPost2010PropOp28
 70
     1
102
RTVSPost2010Prop29
280
     1
102
RTVSPost2010PropOp29
 70
     1
102
RTVSPost2010Prop30
280
     1
102
RTVSPost2010PropOp30
 70
     1
102
RTVSPost2010Prop31
280
     0
102
RTVSPost2010PropOp31
 70
     1
102
RTVSPost2010Prop32
280
     0
102
RTVSPost2010PropOp32
 70
     1
102
RTVSPost2010Prop33
280
     0
102
RTVSPost2010PropOp33
 70
     1
102
RTVSPost2010Prop34
280
     0
102
RTVSPost2010PropOp34
 70
     1
102
RTVSPost2010Prop35
280
     0
102
RTVSPost2010PropOp35
 70
     1
102
RTVSPost2010Prop36
280
     0
102
RTVSPost2010PropOp36
 70
     1
102
RTVSPost2010Prop37
 90
       50
102
RTVSPost2010PropOp37
 70
     1
102
RTVSPost2010Prop38
140
0.0
102
RTVSPost2010PropOp38
 70
     1
102
RTVSPost2010Prop39
140
1.0
102
RTVSPost2010PropOp39
 70
     1
102
RTVSPost2010Prop40
 90
        0
102
RTVSPost2010PropOp40
 70
     1
102
RTVSPost2010Prop41ColorIndex
 90
       18
102
RTVSPost2010Prop41ColorRGB
 90
        0
102
RTVSPost2010PropOp41
 70
     1
102
RTVSPost2010Prop42
 90
       50
102
RTVSPost2010PropOp42
 70
     1
102
RTVSPost2010Prop43
 90
        3
102
RTVSPost2010PropOp43
 70
     1
102
RTVSPost2010Prop44ColorIndex
 90
        5
102
RTVSPost2010Prop44ColorRGB
 90
      255
102
RTVSPost2010PropOp44
 70
     1
102
RTVSPost2010Prop45
280
     0
102
RTVSPost2010PropOp45
 70
     1
102
RTVSPost2010Prop46
 90
       50
102
RTVSPost2010PropOp46
 70
     1
102
RTVSPost2010Prop47
 90
       50
102
RTVSPost2010PropOp47
 70
     1
102
RTVSPost2010Prop48
 90
       50
102
RTVSPost2010PropOp48
 70
     1
102
RTVSPost2010Prop49
280
     0
102
RTVSPost2010PropOp49
 70
     1
102
RTVSPost2010Prop50
 90
       50
102
RTVSPost2010PropOp50
 70
     1
102
RTVSPost2010Prop51ColorIndex
 90
      256
102
RTVSPost2010Prop51ColorRGB
 90
-16777216
102
RTVSPost2010PropOp51
 70
     0
102
RTVSPost2010Prop52
140
1.0
102
RTVSPost2010PropOp52
 70
     0
102
RTVSPost2010Prop53
 90
        2
102
RTVSPost2010PropOp53
 70
     1
102
RTVSPost2010Prop54
  1
strokes_ogs.tif
102
RTVSPost2010PropOp54
 70
     1
102
RTVSPost2010Prop55
280
     0
102
RTVSPost2010PropOp55
 70
     1
102
RTVSPost2010Prop56
140
1.0
102
RTVSPost2010PropOp56
 70
     1
102
RTVSPost2010Prop57
140
1.0
102
RTVSPost2010PropOp57
 70
     1
  0
ENDSEC
  0
EOF
