  0
SECTION
  2
HEADER
  9
$ACADVER
  1
AC1015
  9
$ACADMAINTVER
 70
     6
  9
$DWGCODEPAGE
  3
ANSI_932
  9
$INSBASE
 10
2925.44401025168
 20
774.5461826135838
 30
0.0
  9
$EXTMIN
 10
251.5234250400767
 20
25.41600204998531
 30
0.0
  9
$EXTMAX
 10
2082.564623443051
 20
1915.972188677524
 30
0.0
  9
$LIMMIN
 10
0.0
 20
0.0
  9
$LIMMAX
 10
816.5000000000001
 20
565.0
  9
$ORTHOMODE
 70
     0
  9
$REGENMODE
 70
     1
  9
$FILLMODE
 70
     1
  9
$QTEXTMODE
 70
     0
  9
$MIRRTEXT
 70
     1
  9
$LTSCALE
 40
20.0
  9
$ATTMODE
 70
     1
  9
$TEXTSIZE
 40
21.0
  9
$TRACEWID
 40
0.05
  9
$TEXTSTYLE
  7
KANJI
  9
$CLAYER
  8
2
  9
$CELTYPE
  6
BYLAYER
  9
$CECOLOR
 62
   256
  9
$CELTSCALE
 40
1.0
  9
$DISPSILH
 70
     0
  9
$DIMSCALE
 40
7.0
  9
$DIMASZ
 40
2.0
  9
$DIMEXO
 40
0.5
  9
$DIMDLI
 40
0.0
  9
$DIMRND
 40
0.0
  9
$DIMDLE
 40
0.0
  9
$DIMEXE
 40
1.0
  9
$DIMTP
 40
0.0
  9
$DIMTM
 40
0.0
  9
$DIMTXT
 40
3.0
  9
$DIMCEN
 40
0.09
  9
$DIMTSZ
 40
0.0
  9
$DIMTOL
 70
     0
  9
$DIMLIM
 70
     0
  9
$DIMTIH
 70
     0
  9
$DIMTOH
 70
     0
  9
$DIMSE1
 70
     0
  9
$DIMSE2
 70
     0
  9
$DIMTAD
 70
     0
  9
$DIMZIN
 70
     8
  9
$DIMBLK
  1

  9
$DIMASO
 70
     0
  9
$DIMSHO
 70
     0
  9
$DIMPOST
  1

  9
$DIMAPOST
  1

  9
$DIMALT
 70
     0
  9
$DIMALTD
 70
     2
  9
$DIMALTF
 40
25.4
  9
$DIMLFAC
 40
1.0
  9
$DIMTOFL
 70
     1
  9
$DIMTVP
 40
1.0
  9
$DIMTIX
 70
     1
  9
$DIMSOXD
 70
     1
  9
$DIMSAH
 70
     0
  9
$DIMBLK1
  1

  9
$DIMBLK2
  1

  9
$DIMSTYLE
  2
STANDARD
  9
$DIMCLRD
 70
   256
  9
$DIMCLRE
 70
   256
  9
$DIMCLRT
 70
   256
  9
$DIMTFAC
 40
1.0
  9
$DIMGAP
 40
0.09
  9
$DIMJUST
 70
     0
  9
$DIMSD1
 70
     0
  9
$DIMSD2
 70
     0
  9
$DIMTOLJ
 70
     1
  9
$DIMTZIN
 70
     0
  9
$DIMALTZ
 70
     0
  9
$DIMALTTZ
 70
     0
  9
$DIMUPT
 70
     0
  9
$DIMDEC
 70
     1
  9
$DIMTDEC
 70
     4
  9
$DIMALTU
 70
     2
  9
$DIMALTTD
 70
     2
  9
$DIMTXSTY
  7
STANDARD
  9
$DIMAUNIT
 70
     0
  9
$DIMADEC
 70
     0
  9
$DIMALTRND
 40
0.0
  9
$DIMAZIN
 70
     0
  9
$DIMDSEP
 70
    46
  9
$DIMATFIT
 70
     3
  9
$DIMFRAC
 70
     0
  9
$DIMLDRBLK
  1

  9
$DIMLUNIT
 70
     2
  9
$DIMLWD
 70
    -2
  9
$DIMLWE
 70
    -2
  9
$DIMTMOVE
 70
     0
  9
$LUNITS
 70
     2
  9
$LUPREC
 70
     3
  9
$SKETCHINC
 40
0.1
  9
$FILLETRAD
 40
1.0
  9
$AUNITS
 70
     0
  9
$AUPREC
 70
     3
  9
$MENU
  1
C:\R13\WIN\SUPPORT\ACADFULL
  9
$ELEVATION
 40
0.0
  9
$PELEVATION
 40
0.0
  9
$THICKNESS
 40
0.0
  9
$LIMCHECK
 70
     0
  9
$CHAMFERA
 40
0.0
  9
$CHAMFERB
 40
0.0
  9
$CHAMFERC
 40
0.0
  9
$CHAMFERD
 40
0.0
  9
$SKPOLY
 70
     0
  9
$TDCREATE
 40
2457431.842175023
  9
$TDUCREATE
 40
2457431.467175023
  9
$TDUPDATE
 40
2457871.843622095
  9
$TDUUPDATE
 40
2457871.468622095
  9
$TDINDWG
 40
0.0403113657
  9
$TDUSRTIMER
 40
0.0403104051
  9
$USRTIMER
 70
     1
  9
$ANGBASE
 50
0.0
  9
$ANGDIR
 70
     0
  9
$PDMODE
 70
     0
  9
$PDSIZE
 40
0.0
  9
$PLINEWID
 40
0.0
  9
$SPLFRAME
 70
     0
  9
$SPLINETYPE
 70
     6
  9
$SPLINESEGS
 70
     8
  9
$HANDSEED
  5
697
  9
$SURFTAB1
 70
     6
  9
$SURFTAB2
 70
     6
  9
$SURFTYPE
 70
     6
  9
$SURFU
 70
     6
  9
$SURFV
 70
     6
  9
$UCSBASE
  2

  9
$UCSNAME
  2

  9
$UCSORG
 10
0.0
 20
0.0
 30
0.0
  9
$UCSXDIR
 10
1.0
 20
0.0
 30
0.0
  9
$UCSYDIR
 10
0.0
 20
1.0
 30
0.0
  9
$UCSORTHOREF
  2

  9
$UCSORTHOVIEW
 70
     0
  9
$UCSORGTOP
 10
0.0
 20
0.0
 30
0.0
  9
$UCSORGBOTTOM
 10
0.0
 20
0.0
 30
0.0
  9
$UCSORGLEFT
 10
0.0
 20
0.0
 30
0.0
  9
$UCSORGRIGHT
 10
0.0
 20
0.0
 30
0.0
  9
$UCSORGFRONT
 10
0.0
 20
0.0
 30
0.0
  9
$UCSORGBACK
 10
0.0
 20
0.0
 30
0.0
  9
$PUCSBASE
  2

  9
$PUCSNAME
  2

  9
$PUCSORG
 10
0.0
 20
0.0
 30
0.0
  9
$PUCSXDIR
 10
1.0
 20
0.0
 30
0.0
  9
$PUCSYDIR
 10
0.0
 20
1.0
 30
0.0
  9
$PUCSORTHOREF
  2

  9
$PUCSORTHOVIEW
 70
     0
  9
$PUCSORGTOP
 10
0.0
 20
0.0
 30
0.0
  9
$PUCSORGBOTTOM
 10
0.0
 20
0.0
 30
0.0
  9
$PUCSORGLEFT
 10
0.0
 20
0.0
 30
0.0
  9
$PUCSORGRIGHT
 10
0.0
 20
0.0
 30
0.0
  9
$PUCSORGFRONT
 10
0.0
 20
0.0
 30
0.0
  9
$PUCSORGBACK
 10
0.0
 20
0.0
 30
0.0
  9
$USERI1
 70
     0
  9
$USERI2
 70
     0
  9
$USERI3
 70
     0
  9
$USERI4
 70
     0
  9
$USERI5
 70
     0
  9
$USERR1
 40
0.0
  9
$USERR2
 40
0.0
  9
$USERR3
 40
0.0
  9
$USERR4
 40
2448925.372986111
  9
$USERR5
 40
0.04166667
  9
$WORLDVIEW
 70
     1
  9
$SHADEDGE
 70
     3
  9
$SHADEDIF
 70
    70
  9
$TILEMODE
 70
     1
  9
$MAXACTVP
 70
    16
  9
$PINSBASE
 10
0.0
 20
0.0
 30
0.0
  9
$PLIMCHECK
 70
     0
  9
$PEXTMIN
 10
1.000000000000000E+20
 20
1.000000000000000E+20
 30
1.000000000000000E+20
  9
$PEXTMAX
 10
-1.000000000000000E+20
 20
-1.000000000000000E+20
 30
-1.000000000000000E+20
  9
$PLIMMIN
 10
0.0
 20
0.0
  9
$PLIMMAX
 10
12.0
 20
9.0
  9
$UNITMODE
 70
     0
  9
$VISRETAIN
 70
     0
  9
$PLINEGEN
 70
     0
  9
$PSLTSCALE
 70
     0
  9
$TREEDEPTH
 70
  3020
  9
$CMLSTYLE
  2
STANDARD
  9
$CMLJUST
 70
     0
  9
$CMLSCALE
 40
1.0
  9
$PROXYGRAPHICS
 70
     1
  9
$MEASUREMENT
 70
     0
  9
$CELWEIGHT
370
    -1
  9
$ENDCAPS
280
     0
  9
$JOINSTYLE
280
     0
  9
$LWDISPLAY
290
     0
  9
$INSUNITS
 70
     0
  9
$HYPERLINKBASE
  1

  9
$STYLESHEET
  1

  9
$XEDIT
290
     1
  9
$CEPSNTYPE
380
     0
  9
$PSTYLEMODE
290
     1
  9
$FINGERPRINTGUID
  2
{176DD0A4-1973-4263-9A71-0B74F89336CA}
  9
$VERSIONGUID
  2
{08DD4DBB-34D9-4A5D-AB8F-A097F5F9DDB8}
  9
$EXTNAMES
290
     1
  9
$PSVPSCALE
 40
0.0
  9
$OLESTARTUP
290
     0
  0
ENDSEC
  0
SECTION
  2
CLASSES
  0
CLASS
  1
ACDBDICTIONARYWDFLT
  2
AcDbDictionaryWithDefault
  3
ObjectDBX Classes
 90
        0
280
     0
281
     0
  0
CLASS
  1
MATERIAL
  2
AcDbMaterial
  3
ObjectDBX Classes
 90
     1153
280
     0
281
     0
  0
CLASS
  1
SORTENTSTABLE
  2
AcDbSortentsTable
  3
ObjectDBX Classes
 90
        0
280
     0
281
     0
  0
CLASS
  1
SCALE
  2
AcDbScale
  3
ObjectDBX Classes
 90
     1153
280
     0
281
     0
  0
CLASS
  1
DICTIONARYVAR
  2
AcDbDictionaryVar
  3
ObjectDBX Classes
 90
        0
280
     0
281
     0
  0
CLASS
  1
VISUALSTYLE
  2
AcDbVisualStyle
  3
ObjectDBX Classes
 90
     4095
280
     0
281
     0
  0
CLASS
  1
MLEADERSTYLE
  2
AcDbMLeaderStyle
  3
ACDB_MLEADERSTYLE_CLASS
 90
     4095
280
     0
281
     0
  0
CLASS
  1
TABLESTYLE
  2
AcDbTableStyle
  3
ObjectDBX Classes
 90
     4095
280
     0
281
     0
  0
CLASS
  1
ACDBPLACEHOLDER
  2
AcDbPlaceHolder
  3
ObjectDBX Classes
 90
        0
280
     0
281
     0
  0
CLASS
  1
LAYOUT
  2
AcDbLayout
  3
ObjectDBX Classes
 90
        0
280
     0
281
     0
  0
ENDSEC
  0
SECTION
  2
TABLES
  0
TABLE
  2
VPORT
  5
26
102
{ACAD_XDICTIONARY
360
65C
102
}
330
0
100
AcDbSymbolTable
 70
     2
  0
VPORT
  5
2B
330
26
100
AcDbSymbolTableRecord
100
AcDbViewportTableRecord
  2
*ACTIVE
 70
     0
 10
0.0
 20
0.0
 11
1.0
 21
1.0
 12
1973.212184800219
 22
809.4072020224227
 13
0.0
 23
0.0
 14
1.0
 24
1.0
 15
50.0
 25
50.0
 16
0.0
 26
0.0
 36
1.0
 17
0.0
 27
0.0
 37
0.0
 40
2522.542148327541
 41
2.174107142857143
 42
50.0
 43
0.0
 44
0.0
 50
0.0
 51
0.0
 71
     0
 72
  5000
 73
     1
 74
     0
 75
     0
 76
     0
 77
     0
 78
     1
281
     0
 65
     1
110
0.0
120
0.0
130
0.0
111
1.0
121
0.0
131
0.0
112
0.0
122
1.0
132
0.0
 79
     0
146
0.0
  0
ENDTAB
  0
TABLE
  2
LTYPE
  5
B
330
0
100
AcDbSymbolTable
 70
     2
  0
LTYPE
  5
C
330
B
100
AcDbSymbolTableRecord
100
AcDbLinetypeTableRecord
  2
BYBLOCK
 70
     0
  3

 72
    65
 73
     0
 40
0.0
  0
LTYPE
  5
D
330
B
100
AcDbSymbolTableRecord
100
AcDbLinetypeTableRecord
  2
BYLAYER
 70
     0
  3

 72
    65
 73
     0
 40
0.0
  0
LTYPE
  5
A
330
B
100
AcDbSymbolTableRecord
100
AcDbLinetypeTableRecord
  2
CONTINUOUS
 70
     0
  3
Solid line
 72
    65
 73
     0
 40
0.0
  0
LTYPE
  5
78
330
B
100
AcDbSymbolTableRecord
100
AcDbLinetypeTableRecord
  2
CENTER
 70
     0
  3
____ _ ____ _ ____ _ ____ _ ____ _ ____ _ ____
 72
    65
 73
     4
 40
2.0
 49
1.25
 74
     0
 49
-0.25
 74
     0
 49
0.25
 74
     0
 49
-0.25
 74
     0
  0
ENDTAB
  0
TABLE
  2
LAYER
  5
2
330
0
100
AcDbSymbolTable
 70
     9
  0
LAYER
  5
1B
330
2
100
AcDbSymbolTableRecord
100
AcDbLayerTableRecord
  2
0
 70
     0
 62
     7
  6
CONTINUOUS
370
    -3
390
3
  0
LAYER
  5
46F
330
2
100
AcDbSymbolTableRecord
100
AcDbLayerTableRecord
  2
1
 70
     0
 62
     9
  6
CONTINUOUS
370
    -3
390
3
  0
LAYER
  5
1
330
2
100
AcDbSymbolTableRecord
100
AcDbLayerTableRecord
  2
2
 70
     0
 62
     4
  6
CONTINUOUS
370
    -3
390
3
  0
LAYER
  5
7F
330
2
100
AcDbSymbolTableRecord
100
AcDbLayerTableRecord
  2
4
 70
     0
 62
     3
  6
CONTINUOUS
370
    -3
390
3
  0
LAYER
  5
77
330
2
100
AcDbSymbolTableRecord
100
AcDbLayerTableRecord
  2
L-CENTER
 70
     0
 62
     1
  6
CENTER
370
    -3
390
3
  0
LAYER
  5
72
330
2
100
AcDbSymbolTableRecord
100
AcDbLayerTableRecord
  2
3
 70
     0
 62
     2
  6
CONTINUOUS
370
    -3
390
3
  0
LAYER
  5
468
330
2
100
AcDbSymbolTableRecord
100
AcDbLayerTableRecord
  2
5
 70
     0
 62
     6
  6
CONTINUOUS
370
    -3
390
3
  0
LAYER
  5
5D1
330
2
100
AcDbSymbolTableRecord
100
AcDbLayerTableRecord
  2
Defpoints
 70
     0
 62
     7
  6
CONTINUOUS
290
     0
370
    -3
390
3
  0
ENDTAB
  0
TABLE
  2
STYLE
  5
F
330
0
100
AcDbSymbolTable
 70
     2
  0
STYLE
  5
13
330
F
100
AcDbSymbolTableRecord
100
AcDbTextStyleTableRecord
  2
STANDARD
 70
     0
 40
0.0
 41
1.0
 50
0.0
 71
     0
 42
12.6
  3
TXT
  4

  0
STYLE
  5
E
330
F
100
AcDbSymbolTableRecord
100
AcDbTextStyleTableRecord
  2
KANJI
 70
     0
 40
0.0
 41
1.0
 50
0.0
 71
     0
 42
21.0
  3
TXT
  4
BIGFONT
  0
ENDTAB
  0
TABLE
  2
VIEW
  5
24
330
0
100
AcDbSymbolTable
 70
     0
  0
ENDTAB
  0
TABLE
  2
UCS
  5
25
330
0
100
AcDbSymbolTable
 70
     0
  0
ENDTAB
  0
TABLE
  2
APPID
  5
9
330
0
100
AcDbSymbolTable
 70
     5
  0
APPID
  5
8
330
9
100
AcDbSymbolTableRecord
100
AcDbRegAppTableRecord
  2
ACAD
 70
     0
  0
APPID
  5
1F
330
9
100
AcDbSymbolTableRecord
100
AcDbRegAppTableRecord
  2
ACAD_PSEXT
 70
     0
  0
APPID
  5
5AA
330
9
100
AcDbSymbolTableRecord
100
AcDbRegAppTableRecord
  2
ACAD_MLEADERVER
 70
     0
  0
ENDTAB
  0
TABLE
  2
DIMSTYLE
  5
12
330
0
100
AcDbSymbolTable
 70
     1
100
AcDbDimStyleTable
  0
DIMSTYLE
105
11
330
12
100
AcDbSymbolTableRecord
100
AcDbDimStyleTableRecord
  2
STANDARD
 70
     0
178
     0
340
13
  0
ENDTAB
  0
TABLE
  2
BLOCK_RECORD
  5
16
330
0
100
AcDbSymbolTable
 70
     0
  0
BLOCK_RECORD
  5
17
102
{ACAD_XDICTIONARY
360
18
102
}
330
16
100
AcDbSymbolTableRecord
100
AcDbBlockTableRecord
  2
*MODEL_SPACE
340
1D
  0
BLOCK_RECORD
  5
20
330
16
100
AcDbSymbolTableRecord
100
AcDbBlockTableRecord
  2
*PAPER_SPACE
340
23
  0
ENDTAB
  0
ENDSEC
  0
SECTION
  2
BLOCKS
  0
BLOCK
  5
1A
330
17
100
AcDbEntity
  8
0
100
AcDbBlockBegin
  2
*MODEL_SPACE
 70
     0
 10
0.0
 20
0.0
 30
0.0
  3
*MODEL_SPACE
  1

  0
ENDBLK
  5
1C
330
17
100
AcDbEntity
  8
0
100
AcDbBlockEnd
  0
BLOCK
  5
21
330
20
100
AcDbEntity
 67
     1
  8
0
100
AcDbBlockBegin
  2
*PAPER_SPACE
 70
     0
 10
0.0
 20
0.0
 30
0.0
  3
*PAPER_SPACE
  1

  0
ENDBLK
  5
22
330
20
100
AcDbEntity
 67
     1
  8
0
100
AcDbBlockEnd
  0
ENDSEC
  0
SECTION
  2
ENTITIES
  0
TEXT
  5
71
330
17
100
AcDbEntity
  8
3
100
AcDbText
 10
1139.779145927153
 20
275.5092932381551
 30
0.0
 40
19.67512676884769
  1
LC10-02
  7
KANJI
100
AcDbText
  0
CIRCLE
  5
76
330
17
100
AcDbEntity
  8
L-CENTER
 48
2.0
100
AcDbCircle
 10
1473.862086360194
 20
577.1973271936135
 30
0.0
 40
97.5
  0
LINE
  5
79
330
17
100
AcDbEntity
  8
L-CENTER
 48
2.0
100
AcDbLine
 10
1371.797426924803
 20
518.2705854554354
 30
0.0
 11
1407.051550730092
 21
538.624486924525
 31
0.0
  0
LINE
  5
7A
330
17
100
AcDbEntity
  8
L-CENTER
 48
2.0
100
AcDbLine
 10
1407.051780360194
 20
615.7705651936144
 30
0.0
 11
1371.79768712162
 21
636.1245196059176
 31
0.0
  0
LINE
  5
7B
330
17
100
AcDbEntity
  8
L-CENTER
 48
2.0
100
AcDbLine
 10
1540.672666808974
 20
538.6245645532226
 30
0.0
 11
1575.926776768055
 21
518.2706391017257
 31
0.0
  0
LINE
  5
7C
330
17
100
AcDbEntity
  8
L-CENTER
 48
2.0
100
AcDbLine
 10
1575.92647480731
 20
636.1245382968912
 30
0.0
 11
1540.672347667935
 21
615.7706426026296
 31
0.0
  0
LINE
  5
7D
330
17
100
AcDbEntity
  8
L-CENTER
 48
2.0
100
AcDbLine
 10
1768.862086271104
 20
781.5126319498263
 30
0.0
 11
1768.862086271104
 21
208.3025921303538
 31
0.0
  0
LINE
  5
8E
330
17
100
AcDbEntity
  8
L-CENTER
 48
2.0
100
AcDbLine
 10
268.9863075973488
 20
577.1973271936135
 30
0.0
 11
1055.526354477412
 21
577.1973271936135
 31
0.0
  0
LINE
  5
8F
330
17
100
AcDbEntity
  8
L-CENTER
 48
2.0
100
AcDbLine
 10
1338.068382175852
 20
577.1973271936135
 30
0.0
 11
2071.565190707197
 21
577.1973271936135
 31
0.0
  0
LINE
  5
90
330
17
100
AcDbEntity
  8
4
100
AcDbLine
 10
1464.862086362912
 20
614.6973271822885
 30
0.0
 11
1482.862086357476
 21
614.6973271822885
 31
0.0
  0
LINE
  5
91
330
17
100
AcDbEntity
  8
4
100
AcDbLine
 10
1464.862086362912
 20
614.6973271822885
 30
0.0
 11
1464.862086362912
 21
602.6973271859124
 31
0.0
  0
LINE
  5
92
330
17
100
AcDbEntity
  8
4
100
AcDbLine
 10
1482.862086357476
 20
614.6973271822885
 30
0.0
 11
1482.862086357476
 21
602.6973271859124
 31
0.0
  0
LINE
  5
93
330
17
100
AcDbEntity
  8
4
100
AcDbLine
 10
1482.862086357476
 20
602.6973271859124
 30
0.0
 11
1464.862086362912
 21
602.6973271859124
 31
0.0
  0
ARC
  5
94
330
17
100
AcDbEntity
  8
4
100
AcDbCircle
 10
1473.862086360194
 20
577.1973271936135
 30
0.0
 40
31.50009153978275
100
AcDbArc
 50
106.6015010000008
 51
73.39849900000095
  0
LINE
  5
95
330
17
100
AcDbEntity
  8
4
100
AcDbLine
 10
731.5234249977966
 20
389.1973272509931
 30
0.0
 11
731.5234249977966
 21
347.1973272630735
 31
0.0
  0
LINE
  5
96
330
17
100
AcDbEntity
  8
4
100
AcDbLine
 10
731.5234249977966
 20
347.1973272630735
 30
0.0
 11
931.5234249373966
 21
347.1973272630735
 31
0.0
  0
ARC
  5
97
330
17
100
AcDbEntity
  8
4
100
AcDbCircle
 10
928.5234249383025
 20
386.1973272518994
 30
0.0
 40
2.999999999094
100
AcDbArc
 50
0.0
 51
90.0
  0
LINE
  5
98
330
17
100
AcDbEntity
  8
4
100
AcDbLine
 10
928.5234249383025
 20
389.1973272509936
 30
0.0
 11
731.5234249977966
 21
389.1973272509936
 31
0.0
  0
LINE
  5
99
330
17
100
AcDbEntity
  8
4
100
AcDbLine
 10
931.5234249373966
 20
386.1973272518994
 30
0.0
 11
931.5234249373966
 21
347.1973272630735
 31
0.0
  0
LINE
  5
9A
330
17
100
AcDbEntity
  8
4
100
AcDbLine
 10
591.5234250400767
 20
387.1973272509936
 30
0.0
 11
699.5234250074604
 21
387.1973272509936
 31
0.0
  0
LINE
  5
9B
330
17
100
AcDbEntity
  8
4
100
AcDbLine
 10
705.5234250056487
 20
393.1973272491814
 30
0.0
 11
699.5234250074604
 21
387.1973272509936
 31
0.0
  0
LINE
  5
9C
330
17
100
AcDbEntity
  8
4
100
AcDbLine
 10
690.5234250101785
 20
413.1973272431414
 30
0.0
 11
731.5234249977966
 21
372.1973272555233
 31
0.0
  0
LINE
  5
9D
330
17
100
AcDbEntity
  8
4
100
AcDbLine
 10
663.5234250183325
 20
393.1973272491814
 30
0.0
 11
683.5234250122926
 21
413.1973272431414
 31
0.0
  0
LINE
  5
9E
330
17
100
AcDbEntity
  8
4
100
AcDbLine
 10
710.5234250041385
 20
393.1973272491814
 30
0.0
 11
663.5234250183325
 21
393.1973272491814
 31
0.0
  0
LINE
  5
9F
330
17
100
AcDbEntity
  8
4
100
AcDbLine
 10
690.5234250101785
 20
413.1973272431414
 30
0.0
 11
591.5234250400767
 21
413.1973272431414
 31
0.0
  0
LINE
  5
A0
330
17
100
AcDbEntity
  8
L-CENTER
 48
2.0
100
AcDbLine
 10
881.523424952497
 20
327.1973272630735
 30
0.0
 11
881.523424952497
 21
409.1973272509936
 31
0.0
  0
LINE
  5
A1
330
17
100
AcDbEntity
  8
4
100
AcDbLine
 10
883.523424951893
 20
691.6973271590346
 30
0.0
 11
883.523424951893
 21
462.6973272281925
 31
0.0
  0
LINE
  5
A2
330
17
100
AcDbEntity
  8
4
100
AcDbLine
 10
883.8234249518923
 20
691.6973271590346
 30
0.0
 11
883.8234249518923
 21
462.6973272281925
 31
0.0
  0
LINE
  5
A3
330
17
100
AcDbEntity
  8
4
100
AcDbLine
 10
878.5234249534028
 20
691.6973271590346
 30
0.0
 11
878.5234249534028
 21
462.6973272281925
 31
0.0
  0
LINE
  5
A4
330
17
100
AcDbEntity
  8
4
100
AcDbLine
 10
885.0234249514401
 20
693.1973271585812
 30
0.0
 11
885.0234249514401
 21
696.1973271576753
 31
0.0
  0
LINE
  5
A5
330
17
100
AcDbEntity
  8
4
100
AcDbLine
 10
888.0234249505334
 20
691.6973271590346
 30
0.0
 11
888.0234249505334
 21
693.1973271585812
 31
0.0
  0
LINE
  5
A6
330
17
100
AcDbEntity
  8
4
100
AcDbLine
 10
591.5234250400767
 20
462.6973272281925
 30
0.0
 11
902.8234249458524
 21
462.6973272281925
 31
0.0
  0
LINE
  5
A7
330
17
100
AcDbEntity
  8
4
100
AcDbLine
 10
903.8234249458524
 20
690.6973271590346
 30
0.0
 11
903.8234249458524
 21
463.6973272281925
 31
0.0
  0
LINE
  5
A8
330
17
100
AcDbEntity
  8
4
100
AcDbLine
 10
904.8234249455504
 20
614.9973271936142
 30
0.0
 11
904.8234249455504
 21
539.3973271936129
 31
0.0
  0
LINE
  5
A9
330
17
100
AcDbEntity
  8
4
100
AcDbLine
 10
888.0234249505334
 20
429.9000324765566
 30
0.0
 11
888.0234249505334
 21
462.6973272281925
 31
0.0
  0
LINE
  5
AA
330
17
100
AcDbEntity
  8
4
100
AcDbLine
 10
869.0878635600525
 20
462.697327228193
 30
0.0
 11
911.5231855068164
 21
389.1973272509936
 31
0.0
  0
LINE
  5
AB
330
17
100
AcDbEntity
  8
4
100
AcDbLine
 10
313.9589935623544
 20
462.6973272281925
 30
0.0
 11
271.5236716155896
 21
389.1973272509936
 31
0.0
  0
LINE
  5
AC
330
17
100
AcDbEntity
  8
4
100
AcDbLine
 10
295.0234251296197
 20
429.9000202790376
 30
0.0
 11
295.0234251296197
 21
462.6973272281925
 31
0.0
  0
LINE
  5
AD
330
17
100
AcDbEntity
  8
4
100
AcDbLine
 10
279.2234251343007
 20
690.6973271590346
 30
0.0
 11
279.2234251343007
 21
463.6973272281925
 31
0.0
  0
LINE
  5
AE
330
17
100
AcDbEntity
  8
4
100
AcDbLine
 10
591.5234250400767
 20
462.6973272281925
 30
0.0
 11
280.2234251343007
 21
462.6973272281925
 31
0.0
  0
LINE
  5
AF
330
17
100
AcDbEntity
  8
4
100
AcDbLine
 10
902.8234249458524
 20
691.6973271590346
 30
0.0
 11
280.2234251343007
 21
691.6973271590346
 31
0.0
  0
LINE
  5
B0
330
17
100
AcDbEntity
  8
4
100
AcDbLine
 10
295.0234251296197
 20
691.6973271590346
 30
0.0
 11
295.0234251296197
 21
693.1973271585812
 31
0.0
  0
LINE
  5
B1
330
17
100
AcDbEntity
  8
4
100
AcDbLine
 10
298.0234251287138
 20
693.1973271585812
 30
0.0
 11
298.0234251287138
 21
696.1973271576753
 31
0.0
  0
LINE
  5
B2
330
17
100
AcDbEntity
  8
4
100
AcDbLine
 10
295.0234251296197
 20
693.1973271585812
 30
0.0
 11
888.0234249505343
 21
693.1973271585812
 31
0.0
  0
LINE
  5
B3
330
17
100
AcDbEntity
  8
4
100
AcDbLine
 10
591.5234250400767
 20
696.1973271576753
 30
0.0
 11
298.0234251287138
 21
696.1973271576753
 31
0.0
  0
LINE
  5
B4
330
17
100
AcDbEntity
  8
4
100
AcDbLine
 10
304.5234251267507
 20
691.6973271590346
 30
0.0
 11
304.5234251267507
 21
462.6973272281925
 31
0.0
  0
LINE
  5
B5
330
17
100
AcDbEntity
  8
4
100
AcDbLine
 10
299.5234251282604
 20
691.6973271590346
 30
0.0
 11
299.5234251282604
 21
462.6973272281925
 31
0.0
  0
LINE
  5
B6
330
17
100
AcDbEntity
  8
4
100
AcDbLine
 10
299.2234251282607
 20
691.6973271590346
 30
0.0
 11
299.2234251282607
 21
462.6973272281925
 31
0.0
  0
LINE
  5
B7
330
17
100
AcDbEntity
  8
L-CENTER
 48
2.0
100
AcDbLine
 10
301.5234251276565
 20
327.1973272630735
 30
0.0
 11
301.5234251276565
 21
409.1973272509936
 31
0.0
  0
LINE
  5
B8
330
17
100
AcDbEntity
  8
4
100
AcDbLine
 10
492.5234250699746
 20
413.1973272431414
 30
0.0
 11
591.5234250400767
 21
413.1973272431414
 31
0.0
  0
LINE
  5
B9
330
17
100
AcDbEntity
  8
4
100
AcDbLine
 10
472.5234250760145
 20
393.1973272491814
 30
0.0
 11
519.523425061821
 21
393.1973272491814
 31
0.0
  0
LINE
  5
BA
330
17
100
AcDbEntity
  8
4
100
AcDbLine
 10
519.523425061821
 20
393.1973272491814
 30
0.0
 11
499.5234250678604
 21
413.1973272431414
 31
0.0
  0
LINE
  5
BB
330
17
100
AcDbEntity
  8
4
100
AcDbLine
 10
492.5234250699746
 20
413.1973272431414
 30
0.0
 11
451.5234250823564
 21
372.1973272555233
 31
0.0
  0
LINE
  5
BC
330
17
100
AcDbEntity
  8
4
100
AcDbLine
 10
477.5234250745048
 20
393.1973272491814
 30
0.0
 11
483.5234250726926
 21
387.1973272509936
 31
0.0
  0
LINE
  5
BD
330
17
100
AcDbEntity
  8
4
100
AcDbLine
 10
591.5234250400767
 20
387.1973272509936
 30
0.0
 11
483.5234250726926
 21
387.1973272509936
 31
0.0
  0
LINE
  5
BE
330
17
100
AcDbEntity
  8
4
100
AcDbLine
 10
251.5234251427569
 20
386.1973272518994
 30
0.0
 11
251.5234251427569
 21
347.1973272630735
 31
0.0
  0
LINE
  5
BF
330
17
100
AcDbEntity
  8
4
100
AcDbLine
 10
254.5234251418506
 20
389.1973272509936
 30
0.0
 11
451.5234250823564
 21
389.1973272509936
 31
0.0
  0
ARC
  5
C0
330
17
100
AcDbEntity
  8
4
100
AcDbCircle
 10
254.5234251418506
 20
386.1973272518994
 30
0.0
 40
2.999999999094
100
AcDbArc
 50
90.0
 51
180.0
  0
LINE
  5
C1
330
17
100
AcDbEntity
  8
4
100
AcDbLine
 10
451.5234250823564
 20
347.1973272630735
 30
0.0
 11
251.5234251427569
 21
347.1973272630735
 31
0.0
  0
LINE
  5
C2
330
17
100
AcDbEntity
  8
4
100
AcDbLine
 10
451.5234250823564
 20
389.1973272509936
 30
0.0
 11
451.5234250823564
 21
347.1973272630735
 31
0.0
  0
LINE
  5
C3
330
17
100
AcDbEntity
  8
4
100
AcDbLine
 10
583.5234250400763
 20
767.4973271362335
 30
0.0
 11
483.5234250726926
 21
767.4973271362335
 31
0.0
  0
LINE
  5
C4
330
17
100
AcDbEntity
  8
4
100
AcDbLine
 10
583.5234250400763
 20
768.4973271359313
 30
0.0
 11
531.5234250581966
 21
768.4973271359315
 31
0.0
  0
LINE
  5
C5
330
17
100
AcDbEntity
  8
4
100
AcDbLine
 10
599.5234250400763
 20
767.4973271362335
 30
0.0
 11
699.5234250074604
 21
767.4973271362335
 31
0.0
  0
LINE
  5
C6
330
17
100
AcDbEntity
  8
4
100
AcDbLine
 10
599.5234250400763
 20
768.4973271359313
 30
0.0
 11
651.5234250219569
 21
768.4973271359315
 31
0.0
  0
LINE
  5
C7
330
17
100
AcDbEntity
  8
L-CENTER
 48
2.0
100
AcDbLine
 10
386.5234251019865
 20
754.3152212209509
 30
0.0
 11
386.5234251019865
 21
706.3213060279479
 31
0.0
  0
LINE
  5
C8
330
17
100
AcDbEntity
  8
4
100
AcDbLine
 10
364.5234251086308
 20
737.497327145293
 30
0.0
 11
364.5234251086308
 21
735.4973271458973
 31
0.0
  0
LINE
  5
C9
330
17
100
AcDbEntity
  8
4
100
AcDbLine
 10
363.5234251089328
 20
737.497327145293
 30
0.0
 11
363.5234251089328
 21
746.4973271425754
 31
0.0
  0
LINE
  5
CA
330
17
100
AcDbEntity
  8
4
100
AcDbLine
 10
364.5234251086308
 20
735.4973271458973
 30
0.0
 11
408.5234250953422
 21
735.4973271458973
 31
0.0
  0
LINE
  5
CB
330
17
100
AcDbEntity
  8
4
100
AcDbLine
 10
363.5234251089328
 20
737.497327145293
 30
0.0
 11
409.5234250950407
 21
737.497327145293
 31
0.0
  0
LINE
  5
CC
330
17
100
AcDbEntity
  8
4
100
AcDbLine
 10
363.5234251089328
 20
741.4973271440851
 30
0.0
 11
409.5234250950407
 21
741.4973271440851
 31
0.0
  0
LINE
  5
CD
330
17
100
AcDbEntity
  8
4
100
AcDbLine
 10
363.5234251089328
 20
746.4973271425754
 30
0.0
 11
409.5234250950407
 21
746.4973271425754
 31
0.0
  0
LINE
  5
CE
330
17
100
AcDbEntity
  8
4
100
AcDbLine
 10
408.5234250953422
 20
737.497327145293
 30
0.0
 11
408.5234250953422
 21
735.4973271458973
 31
0.0
  0
LINE
  5
CF
330
17
100
AcDbEntity
  8
4
100
AcDbLine
 10
409.5234250950407
 20
737.497327145293
 30
0.0
 11
409.5234250950407
 21
746.4973271425754
 31
0.0
  0
LINE
  5
D0
330
17
100
AcDbEntity
  8
4
100
AcDbLine
 10
375.0234251054594
 20
741.4973271440851
 30
0.0
 11
375.0234251054594
 21
746.4973271425754
 31
0.0
  0
LINE
  5
D1
330
17
100
AcDbEntity
  8
4
100
AcDbLine
 10
398.0234250985136
 20
741.4973271440851
 30
0.0
 11
398.0234250985136
 21
746.4973271425754
 31
0.0
  0
LINE
  5
D2
330
17
100
AcDbEntity
  8
4
100
AcDbLine
 10
616.5234250325266
 20
725.3442496841747
 30
0.0
 11
616.5234250325266
 21
733.4973271437832
 31
0.0
  0
LINE
  5
D3
330
17
100
AcDbEntity
  8
4
100
AcDbLine
 10
566.5234250476265
 20
725.7734539093974
 30
0.0
 11
566.5234250476265
 21
733.4973271437832
 31
0.0
  0
ARC
  5
D4
330
17
100
AcDbEntity
  8
4
100
AcDbCircle
 10
591.5234250400767
 20
793.88087642404
 30
0.0
 40
70.0000704013952
100
AcDbArc
 50
249.075817
 51
290.9260769999999
  0
LINE
  5
D5
330
17
100
AcDbEntity
  8
4
100
AcDbLine
 10
574.946501963188
 20
741.4973271440854
 30
0.0
 11
476.5234250748067
 21
741.4973271440851
 31
0.0
  0
LINE
  5
D6
330
17
100
AcDbEntity
  8
4
100
AcDbLine
 10
608.1003481169646
 20
741.4973271440851
 30
0.0
 11
706.5234250053468
 21
741.4973271440851
 31
0.0
  0
LINE
  5
D7
330
17
100
AcDbEntity
  8
4
100
AcDbLine
 10
566.5234250476265
 20
733.4973271437832
 30
0.0
 11
616.5234250325266
 21
733.4973271437832
 31
0.0
  0
LINE
  5
D8
330
17
100
AcDbEntity
  8
4
100
AcDbLine
 10
361.5234251095367
 20
735.4973271458973
 30
0.0
 11
411.5234250944363
 21
735.4973271458973
 31
0.0
  0
LINE
  5
D9
330
17
100
AcDbEntity
  8
4
100
AcDbLine
 10
361.5234251095367
 20
735.4973271458973
 30
0.0
 11
361.5234251095367
 21
725.2346370081516
 31
0.0
  0
LINE
  5
DA
330
17
100
AcDbEntity
  8
4
100
AcDbLine
 10
411.5234250944363
 20
735.4973271458973
 30
0.0
 11
411.5234250944363
 21
732.3054327806642
 31
0.0
  0
LINE
  5
DB
330
17
100
AcDbEntity
  8
4
100
AcDbLine
 10
534.0234250574417
 20
723.4973271495212
 30
0.0
 11
518.5234250621229
 21
741.4973271440851
 31
0.0
  0
LINE
  5
DC
330
17
100
AcDbEntity
  8
4
100
AcDbLine
 10
649.0234250227118
 20
723.4973271495212
 30
0.0
 11
664.5234250180306
 21
741.4973271440851
 31
0.0
  0
LINE
  5
DD
330
17
100
AcDbEntity
  8
4
100
AcDbLine
 10
476.5234250748067
 20
741.4973271440851
 30
0.0
 11
483.5234250726926
 21
767.4973271362335
 31
0.0
  0
LINE
  5
DE
330
17
100
AcDbEntity
  8
4
100
AcDbLine
 10
349.2377842681767
 20
723.4973271495212
 30
0.0
 11
476.5234250748067
 21
741.4973271440851
 31
0.0
  0
LINE
  5
DF
330
17
100
AcDbEntity
  8
4
100
AcDbLine
 10
885.0234249514401
 20
696.1973271576753
 30
0.0
 11
298.0234251287138
 21
696.1973271576753
 31
0.0
  0
LINE
  5
E0
330
17
100
AcDbEntity
  8
4
100
AcDbLine
 10
885.0234249514401
 20
696.4973271576753
 30
0.0
 11
298.0234251287138
 21
696.4973271576753
 31
0.0
  0
ARC
  5
E1
330
17
100
AcDbEntity
  8
4
100
AcDbCircle
 10
299.0234251284114
 20
722.4973271498231
 30
0.0
 40
0.999999999698
100
AcDbArc
 50
90.0
 51
180.0
  0
LINE
  5
E2
330
17
100
AcDbEntity
  8
4
100
AcDbLine
 10
299.0234251284114
 20
723.4973271495212
 30
0.0
 11
591.5234250400767
 21
723.4973271495212
 31
0.0
  0
LINE
  5
E3
330
17
100
AcDbEntity
  8
4
100
AcDbLine
 10
298.0234251287138
 20
722.4973271498231
 30
0.0
 11
298.0234251287138
 21
696.1973271576753
 31
0.0
  0
LINE
  5
E4
330
17
100
AcDbEntity
  8
4
100
AcDbLine
 10
531.5234250581966
 20
767.4973271362335
 30
0.0
 11
531.5234250581966
 21
768.4973271359315
 31
0.0
  0
LINE
  5
E5
330
17
100
AcDbEntity
  8
4
100
AcDbLine
 10
651.5234250219569
 20
767.4973271362335
 30
0.0
 11
651.5234250219569
 21
768.4973271359315
 31
0.0
  0
LINE
  5
E6
330
17
100
AcDbEntity
  8
4
100
AcDbLine
 10
885.0234249514401
 20
722.4973271498231
 30
0.0
 11
885.0234249514401
 21
696.1973271576753
 31
0.0
  0
LINE
  5
E7
330
17
100
AcDbEntity
  8
4
100
AcDbLine
 10
884.0234249517421
 20
723.4973271495212
 30
0.0
 11
591.5234250400767
 21
723.4973271495212
 31
0.0
  0
ARC
  5
E8
330
17
100
AcDbEntity
  8
4
100
AcDbCircle
 10
884.0234249517421
 20
722.4973271498231
 30
0.0
 40
0.999999999698
100
AcDbArc
 50
0.0
 51
90.0
  0
LINE
  5
E9
330
17
100
AcDbEntity
  8
4
100
AcDbLine
 10
833.8090728542302
 20
723.4973271495212
 30
0.0
 11
706.5234250053468
 21
741.4973271440851
 31
0.0
  0
LINE
  5
EA
330
17
100
AcDbEntity
  8
4
100
AcDbLine
 10
706.5234250053468
 20
741.4973271440851
 30
0.0
 11
699.5234250074604
 21
767.4973271362335
 31
0.0
  0
LINE
  5
EB
330
17
100
AcDbEntity
  8
4
100
AcDbLine
 10
869.5234249561204
 20
389.1973272509931
 30
0.0
 11
869.5234249561204
 21
347.1973272630735
 31
0.0
  0
LINE
  5
EC
330
17
100
AcDbEntity
  8
4
100
AcDbLine
 10
893.5234249488726
 20
389.1973272509931
 30
0.0
 11
893.5234249488726
 21
347.1973272630735
 31
0.0
  0
LINE
  5
ED
330
17
100
AcDbEntity
  8
4
100
AcDbLine
 10
904.8234249455504
 20
544.6973272034284
 30
0.0
 11
921.523424940417
 21
544.6973272034284
 31
0.0
  0
LINE
  5
EE
330
17
100
AcDbEntity
  8
4
100
AcDbLine
 10
904.8234249455504
 20
609.6973271837983
 30
0.0
 11
921.523424940417
 21
609.6973271837983
 31
0.0
  0
LINE
  5
EF
330
17
100
AcDbEntity
  8
4
100
AcDbLine
 10
921.523424940417
 20
609.6973271837983
 30
0.0
 11
921.523424940417
 21
544.6973272034284
 31
0.0
  0
LINE
  5
F0
330
17
100
AcDbEntity
  8
4
100
AcDbLine
 10
1041.523424904176
 20
606.6973271847041
 30
0.0
 11
1039.523424904781
 21
608.6973271841002
 31
0.0
  0
LINE
  5
F1
330
17
100
AcDbEntity
  8
4
100
AcDbLine
 10
1039.523424904781
 20
608.6973271841002
 30
0.0
 11
921.523424940417
 21
608.6973271841002
 31
0.0
  0
LINE
  5
F2
330
17
100
AcDbEntity
  8
4
100
AcDbLine
 10
1041.523424904176
 20
547.697327202522
 30
0.0
 11
1039.523424904781
 21
545.6973272031264
 31
0.0
  0
LINE
  5
F3
330
17
100
AcDbEntity
  8
4
100
AcDbLine
 10
1039.523424904781
 20
545.6973272031264
 30
0.0
 11
921.523424940417
 21
545.6973272031264
 31
0.0
  0
LINE
  5
F4
330
17
100
AcDbEntity
  8
4
100
AcDbLine
 10
1041.523424904176
 20
547.697327202522
 30
0.0
 11
1041.523424904176
 21
614.6973271822885
 31
0.0
  0
LINE
  5
F5
330
17
100
AcDbEntity
  8
4
100
AcDbLine
 10
1039.523424904781
 20
545.6973272031264
 30
0.0
 11
1039.523424904781
 21
608.6973271841002
 31
0.0
  0
LINE
  5
F6
330
17
100
AcDbEntity
  8
4
100
AcDbLine
 10
931.5234249373966
 20
614.6973271822885
 30
0.0
 11
1041.523424904176
 21
614.6973271822885
 31
0.0
  0
LINE
  5
F7
330
17
100
AcDbEntity
  8
4
100
AcDbLine
 10
931.5234249373966
 20
608.6973271841002
 30
0.0
 11
931.5234249373966
 21
614.6973271822885
 31
0.0
  0
LINE
  5
F8
330
17
100
AcDbEntity
  8
4
100
AcDbLine
 10
1711.36208628847
 20
723.4973271495212
 30
0.0
 11
1695.86208629315
 21
741.4973271440851
 31
0.0
  0
LINE
  5
F9
330
17
100
AcDbEntity
  8
4
100
AcDbLine
 10
1826.36208625374
 20
723.4973271495212
 30
0.0
 11
1841.862086249057
 21
741.4973271440851
 31
0.0
  0
LINE
  5
FA
330
17
100
AcDbEntity
  8
4
100
AcDbLine
 10
1653.862086305834
 20
741.4973271440851
 30
0.0
 11
1660.86208630372
 21
767.4973271362335
 31
0.0
  0
LINE
  5
FB
330
17
100
AcDbEntity
  8
4
100
AcDbLine
 10
1538.624086271103
 20
725.2010358099567
 30
0.0
 11
1653.862086305834
 21
741.4973271440851
 31
0.0
  0
LINE
  5
FC
330
17
100
AcDbEntity
  8
4
100
AcDbLine
 10
1768.862086271104
 20
767.4973271362335
 30
0.0
 11
1660.86208630372
 21
767.4973271362335
 31
0.0
  0
LINE
  5
FD
330
17
100
AcDbEntity
  8
4
100
AcDbLine
 10
1768.862086271104
 20
696.1973271576753
 30
0.0
 11
1475.362086359741
 21
696.1973271576753
 31
0.0
  0
ARC
  5
FE
330
17
100
AcDbEntity
  8
4
100
AcDbCircle
 10
1476.362086359439
 20
722.4973271498231
 30
0.0
 40
0.999999999698
100
AcDbArc
 50
90.0
 51
180.0
  0
LINE
  5
FF
330
17
100
AcDbEntity
  8
4
100
AcDbLine
 10
1476.362086359439
 20
723.4973271495212
 30
0.0
 11
1768.862086271104
 21
723.4973271495212
 31
0.0
  0
LINE
  5
100
330
17
100
AcDbEntity
  8
4
100
AcDbLine
 10
1475.362086359741
 20
722.1973271498232
 30
0.0
 11
1475.362086359741
 21
696.1973271576753
 31
0.0
  0
LINE
  5
101
330
17
100
AcDbEntity
  8
4
100
AcDbLine
 10
1708.862086289224
 20
767.4973271362335
 30
0.0
 11
1708.862086289224
 21
768.4973271359315
 31
0.0
  0
LINE
  5
102
330
17
100
AcDbEntity
  8
4
100
AcDbLine
 10
1768.862086271104
 20
768.4973271359315
 30
0.0
 11
1708.862086289224
 21
768.4973271359315
 31
0.0
  0
LINE
  5
103
330
17
100
AcDbEntity
  8
4
100
AcDbLine
 10
1768.862086271104
 20
768.4973271359315
 30
0.0
 11
1828.862086252983
 21
768.4973271359315
 31
0.0
  0
LINE
  5
104
330
17
100
AcDbEntity
  8
4
100
AcDbLine
 10
1828.862086252983
 20
767.4973271362335
 30
0.0
 11
1828.862086252983
 21
768.4973271359315
 31
0.0
  0
LINE
  5
105
330
17
100
AcDbEntity
  8
4
100
AcDbLine
 10
2062.362086182466
 20
722.4973271498231
 30
0.0
 11
2062.362086182466
 21
696.1973271576753
 31
0.0
  0
LINE
  5
106
330
17
100
AcDbEntity
  8
4
100
AcDbLine
 10
2061.362086182768
 20
723.4973271495212
 30
0.0
 11
1768.862086271104
 21
723.4973271495212
 31
0.0
  0
ARC
  5
107
330
17
100
AcDbEntity
  8
4
100
AcDbCircle
 10
2061.362086182768
 20
722.4973271498231
 30
0.0
 40
0.999999999698
100
AcDbArc
 50
0.0
 51
90.0
  0
LINE
  5
108
330
17
100
AcDbEntity
  8
4
100
AcDbLine
 10
1768.862086271104
 20
696.1973271576753
 30
0.0
 11
2062.362086182466
 21
696.1973271576753
 31
0.0
  0
LINE
  5
109
330
17
100
AcDbEntity
  8
4
100
AcDbLine
 10
1768.862086271104
 20
767.4973271362335
 30
0.0
 11
1876.862086238487
 21
767.4973271362335
 31
0.0
  0
LINE
  5
10A
330
17
100
AcDbEntity
  8
4
100
AcDbLine
 10
1999.100086271105
 20
725.2010349083419
 30
0.0
 11
1883.862086236374
 21
741.4973271440851
 31
0.0
  0
LINE
  5
10B
330
17
100
AcDbEntity
  8
4
100
AcDbLine
 10
1883.862086236374
 20
741.4973271440851
 30
0.0
 11
1876.862086238487
 21
767.4973271362335
 31
0.0
  0
LINE
  5
10C
330
17
100
AcDbEntity
  8
4
100
AcDbLine
 10
1768.862086271104
 20
741.4973271440851
 30
0.0
 11
1883.862086236374
 21
741.4973271440851
 31
0.0
  0
LINE
  5
10D
330
17
100
AcDbEntity
  8
4
100
AcDbLine
 10
1768.862086271104
 20
741.4973271440851
 30
0.0
 11
1653.862086305834
 21
741.4973271440851
 31
0.0
  0
LINE
  5
10E
330
17
100
AcDbEntity
  8
4
100
AcDbLine
 10
1958.862086213724
 20
730.8913694008095
 30
0.0
 11
1958.862086213724
 21
733.4973271437832
 31
0.0
  0
LINE
  5
10F
330
17
100
AcDbEntity
  8
4
100
AcDbLine
 10
1961.362086212969
 20
733.4973271437832
 30
0.0
 11
1999.224622892378
 21
733.4973271437832
 31
0.0
  0
LINE
  5
110
330
17
100
AcDbEntity
  8
L-CENTER
 48
2.0
100
AcDbLine
 10
1553.862086336033
 20
819.1479397351925
 30
0.0
 11
1553.862086336033
 21
706.220475039345
 31
0.0
  0
LINE
  5
111
330
17
100
AcDbEntity
  8
4
100
AcDbLine
 10
1578.862086328484
 20
730.8913694008095
 30
0.0
 11
1578.862086328484
 21
733.4973271437832
 31
0.0
  0
LINE
  5
112
330
17
100
AcDbEntity
  8
L-CENTER
 48
2.0
100
AcDbLine
 10
2052.318381960148
 20
443.1973272340815
 30
0.0
 11
2073.044071844228
 21
443.1973272340815
 31
0.0
  0
LINE
  5
113
330
17
100
AcDbEntity
  8
4
100
AcDbLine
 10
2070.861987587551
 20
434.6682779408825
 30
0.0
 11
2070.861987587551
 21
443.1973272340815
 31
0.0
  0
LINE
  5
114
330
17
100
AcDbEntity
  8
4
100
AcDbLine
 10
2070.861987587551
 20
434.6682779408825
 30
0.0
 11
2067.862086180805
 21
434.8655385042034
 31
0.0
  0
LINE
  5
115
330
17
100
AcDbEntity
  8
4
100
AcDbLine
 10
2070.861987587551
 20
451.7261370906604
 30
0.0
 11
2067.862086180805
 21
451.5288694850865
 31
0.0
  0
LINE
  5
116
330
17
100
AcDbEntity
  8
4
100
AcDbLine
 10
2070.861987587551
 20
451.7261370906604
 30
0.0
 11
2070.861987587551
 21
443.1970877974613
 31
0.0
  0
LINE
  5
117
330
17
100
AcDbEntity
  8
L-CENTER
 48
2.0
100
AcDbLine
 10
2082.564623443051
 20
537.1973272056935
 30
0.0
 11
2048.570339707758
 21
537.1973272056935
 31
0.0
  0
CIRCLE
  5
118
330
17
100
AcDbEntity
  8
4
100
AcDbCircle
 10
1473.862086360194
 20
577.1973271936135
 30
0.0
 40
43.99999998671201
  0
LINE
  5
119
330
17
100
AcDbEntity
  8
4
100
AcDbLine
 10
1696.862086292848
 20
393.1973272491814
 30
0.0
 11
1634.862086311572
 21
393.1973272491814
 31
0.0
  0
LINE
  5
11A
330
17
100
AcDbEntity
  8
4
100
AcDbLine
 10
1696.862086292848
 20
393.1973272491814
 30
0.0
 11
1676.862086298888
 21
413.1973272431414
 31
0.0
  0
LINE
  5
11B
330
17
100
AcDbEntity
  8
4
100
AcDbLine
 10
1840.862086249359
 20
393.1973272491814
 30
0.0
 11
1902.862086230635
 21
393.1973272491814
 31
0.0
  0
LINE
  5
11C
330
17
100
AcDbEntity
  8
4
100
AcDbLine
 10
1840.862086249359
 20
393.1973272491814
 30
0.0
 11
1860.86208624332
 21
413.1973272431414
 31
0.0
  0
ARC
  5
11D
330
17
100
AcDbEntity
  8
4
100
AcDbCircle
 10
1889.066184826351
 20
426.267623062784
 30
0.0
 40
150.0000422082211
100
AcDbArc
 50
2.988961999999957
 51
37.36478799999997
  0
ARC
  5
11E
330
17
100
AcDbEntity
  8
4
100
AcDbCircle
 10
2103.658959409432
 20
426.267623062784
 30
0.0
 40
149.9999013631507
100
AcDbArc
 50
142.635622
 51
177.0115969999999
  0
ARC
  5
11F
330
17
100
AcDbEntity
  8
4
100
AcDbCircle
 10
1996.362572117891
 20
508.197306136633
 30
0.0
 40
15.00002112223056
100
AcDbArc
 50
37.36452799999835
 51
142.6354719999985
  0
LINE
  5
120
330
17
100
AcDbEntity
  8
4
100
AcDbLine
 10
1583.862086326974
 20
452.1973272313635
 30
0.0
 11
1583.862086326974
 21
389.197327250994
 31
0.0
  0
LINE
  5
121
330
17
100
AcDbEntity
  8
4
100
AcDbLine
 10
1583.131375059589
 20
458.1973272295513
 30
0.0
 11
1598.862086322444
 21
458.1973272295513
 31
0.0
  0
LINE
  5
122
330
17
100
AcDbEntity
  8
4
100
AcDbLine
 10
1953.862086215233
 20
458.1973272295513
 30
0.0
 11
1953.862086215233
 21
389.1973272509936
 31
0.0
  0
LINE
  5
123
330
17
100
AcDbEntity
  8
4
100
AcDbLine
 10
1953.862086215233
 20
458.1973272295513
 30
0.0
 11
1938.862086219764
 21
458.1973272295513
 31
0.0
  0
LINE
  5
124
330
17
100
AcDbEntity
  8
4
100
AcDbLine
 10
1938.862086219764
 20
458.1973272295513
 30
0.0
 11
1938.862086219764
 21
347.1973272630735
 31
0.0
  0
LINE
  5
125
330
17
100
AcDbEntity
  8
4
100
AcDbLine
 10
1558.862086334524
 20
477.1973272238133
 30
0.0
 11
1529.631614512366
 21
477.1973272238133
 31
0.0
  0
ARC
  5
126
330
17
100
AcDbEntity
  8
4
100
AcDbCircle
 10
1558.862086334524
 20
452.1973272313635
 30
0.0
 40
24.99999999245
100
AcDbArc
 50
0.0
 51
90.0
  0
LINE
  5
127
330
17
100
AcDbEntity
  8
4
100
AcDbLine
 10
1598.862086322444
 20
458.1973272295513
 30
0.0
 11
1598.862086322444
 21
347.1973272630735
 31
0.0
  0
LINE
  5
128
330
17
100
AcDbEntity
  8
4
100
AcDbLine
 10
2058.862086183524
 20
413.1973272431414
 30
0.0
 11
2065.362086181561
 21
413.1973272431414
 31
0.0
  0
LINE
  5
129
330
17
100
AcDbEntity
  8
4
100
AcDbLine
 10
1478.862086358683
 20
462.8064610309762
 30
0.0
 11
1478.862086358683
 21
347.1973272630735
 31
0.0
  0
LINE
  5
12A
330
17
100
AcDbEntity
  8
L-CENTER
 48
2.0
100
AcDbLine
 10
1473.862086360194
 20
712.991031377956
 30
0.0
 11
1473.862086360194
 21
441.4036230092711
 31
0.0
  0
LINE
  5
12B
330
17
100
AcDbEntity
  8
4
100
AcDbLine
 10
1472.362086360647
 20
691.6875595534034
 30
0.0
 11
1472.362086360647
 21
693.1973271585812
 31
0.0
  0
LINE
  5
12C
330
17
100
AcDbEntity
  8
4
100
AcDbLine
 10
1472.362086360647
 20
693.1973271585812
 30
0.0
 11
2065.362086181561
 21
693.1973271585812
 31
0.0
  0
LINE
  5
12D
330
17
100
AcDbEntity
  8
4
100
AcDbLine
 10
2058.862086183524
 20
413.1973272431414
 30
0.0
 11
2058.862086183524
 21
347.1973272630735
 31
0.0
  0
LINE
  5
12E
330
17
100
AcDbEntity
  8
4
100
AcDbLine
 10
2065.362086181561
 20
413.1973272431414
 30
0.0
 11
2065.362086181561
 21
693.1973271585812
 31
0.0
  0
LINE
  5
12F
330
17
100
AcDbEntity
  8
4
100
AcDbLine
 10
2065.362086181561
 20
428.1973272386113
 30
0.0
 11
2067.862086180805
 21
428.1973272386113
 31
0.0
  0
LINE
  5
130
330
17
100
AcDbEntity
  8
4
100
AcDbLine
 10
2067.862086180805
 20
428.1973272386113
 30
0.0
 11
2067.862086180805
 21
517.1973272117334
 31
0.0
  0
LINE
  5
131
330
17
100
AcDbEntity
  8
4
100
AcDbLine
 10
2065.362086181561
 20
557.1973271996535
 30
0.0
 11
2070.8620861799
 21
557.1973271996535
 31
0.0
  0
LINE
  5
132
330
17
100
AcDbEntity
  8
4
100
AcDbLine
 10
2065.362086181561
 20
517.1973272117334
 30
0.0
 11
2070.8620861799
 21
517.1973272117334
 31
0.0
  0
LINE
  5
133
330
17
100
AcDbEntity
  8
4
100
AcDbLine
 10
2070.8620861799
 20
517.1973272117334
 30
0.0
 11
2070.8620861799
 21
557.1973271996535
 31
0.0
  0
LINE
  5
134
330
17
100
AcDbEntity
  8
4
100
AcDbLine
 10
2062.362086182466
 20
693.1973271585812
 30
0.0
 11
2062.362086182466
 21
696.1973271576753
 31
0.0
  0
LINE
  5
135
330
17
100
AcDbEntity
  8
4
100
AcDbLine
 10
2062.362086182466
 20
696.1973271576753
 30
0.0
 11
1475.362086359741
 21
696.1973271576753
 31
0.0
  0
LINE
  5
136
330
17
100
AcDbEntity
  8
4
100
AcDbLine
 10
2062.362086182466
 20
696.4973271576753
 30
0.0
 11
1475.362086359741
 21
696.4973271576753
 31
0.0
  0
LINE
  5
137
330
17
100
AcDbEntity
  8
4
100
AcDbLine
 10
1475.362086359741
 20
693.1973271585812
 30
0.0
 11
1475.362086359741
 21
696.1973271576753
 31
0.0
  0
ARC
  5
138
330
17
100
AcDbEntity
  8
4
100
AcDbCircle
 10
1473.862086360194
 20
91.6973273402341
 30
0.0
 40
600.0000068610535
100
AcDbArc
 50
89.99997700000003
 51
100.013902
  0
ARC
  5
139
330
17
100
AcDbEntity
  8
4
100
AcDbCircle
 10
1473.862086360194
 20
1062.697327046993
 30
0.0
 40
599.9999927765465
100
AcDbArc
 50
259.986784
 51
270.000886
  0
ARC
  5
13A
330
17
100
AcDbEntity
  8
4
100
AcDbCircle
 10
1956.862086214328
 20
577.1973271936135
 30
0.0
 40
600.0000561568281
100
AcDbArc
 50
170.282462
 51
189.7180099999999
  0
ARC
  5
13B
330
17
100
AcDbEntity
  8
4
100
AcDbCircle
 10
1370.400170898482
 20
677.6331229379298
 30
0.0
 40
4.999999998490001
100
AcDbArc
 50
100.016073000009
 51
170.2819550000015
  0
ARC
  5
13C
330
17
100
AcDbEntity
  8
4
100
AcDbCircle
 10
1370.400170898482
 20
476.7615384915507
 30
0.0
 40
4.999999998490001
100
AcDbArc
 50
189.7180449999985
 51
259.983926999991
  0
LINE
  5
13D
330
17
100
AcDbEntity
  8
L-CENTER
 48
2.0
100
AcDbLine
 10
1538.862086340564
 20
327.1973272630735
 30
0.0
 11
1538.862086340564
 21
409.1973272509936
 31
0.0
  0
LINE
  5
13E
330
17
100
AcDbEntity
  8
L-CENTER
 48
2.0
100
AcDbLine
 10
1998.862086201644
 20
327.1973272630735
 30
0.0
 11
1998.862086201644
 21
409.1973272509936
 31
0.0
  0
CIRCLE
  5
13F
330
17
100
AcDbEntity
  8
4
100
AcDbCircle
 10
1473.862086360194
 20
577.1973271936135
 30
0.0
 40
114.499999965421
  0
LINE
  5
140
330
17
100
AcDbEntity
  8
4
100
AcDbLine
 10
1613.862086317914
 20
389.1973272509936
 30
0.0
 11
1613.862086317914
 21
347.1973272630735
 31
0.0
  0
LINE
  5
141
330
17
100
AcDbEntity
  8
4
100
AcDbLine
 10
1613.862086317914
 20
347.1973272630735
 30
0.0
 11
1478.862086358683
 21
347.1973272630735
 31
0.0
  0
LINE
  5
142
330
17
100
AcDbEntity
  8
4
100
AcDbLine
 10
1654.862086305532
 20
393.1973272491814
 30
0.0
 11
1660.86208630372
 21
387.1973272509936
 31
0.0
  0
LINE
  5
143
330
17
100
AcDbEntity
  8
4
100
AcDbLine
 10
1654.862086305532
 20
413.1973272431414
 30
0.0
 11
1613.862086317914
 21
372.1973272555233
 31
0.0
  0
LINE
  5
144
330
17
100
AcDbEntity
  8
4
100
AcDbLine
 10
1768.862086271104
 20
387.1973272509936
 30
0.0
 11
1660.86208630372
 21
387.1973272509936
 31
0.0
  0
LINE
  5
145
330
17
100
AcDbEntity
  8
4
100
AcDbLine
 10
1768.862086271104
 20
413.1973272431414
 30
0.0
 11
1654.862086305532
 21
413.1973272431414
 31
0.0
  0
ARC
  5
146
330
17
100
AcDbEntity
  8
4
100
AcDbCircle
 10
1481.862086357778
 20
386.1973272518994
 30
0.0
 40
2.999999999094
100
AcDbArc
 50
90.0
 51
180.0
  0
LINE
  5
147
330
17
100
AcDbEntity
  8
4
100
AcDbLine
 10
1481.862086357778
 20
389.1973272509936
 30
0.0
 11
1613.862086317914
 21
389.1973272509936
 31
0.0
  0
LINE
  5
148
330
17
100
AcDbEntity
  8
4
100
AcDbLine
 10
2055.862086184431
 20
389.1973272509936
 30
0.0
 11
1923.862086224294
 21
389.1973272509936
 31
0.0
  0
ARC
  5
149
330
17
100
AcDbEntity
  8
4
100
AcDbCircle
 10
2055.862086184431
 20
386.1973272518994
 30
0.0
 40
2.999999999094
100
AcDbArc
 50
0.0
 51
90.0
  0
LINE
  5
14A
330
17
100
AcDbEntity
  8
4
100
AcDbLine
 10
1768.862086271104
 20
413.1973272431414
 30
0.0
 11
1882.862086236676
 21
413.1973272431414
 31
0.0
  0
LINE
  5
14B
330
17
100
AcDbEntity
  8
4
100
AcDbLine
 10
1768.862086271104
 20
387.1973272509936
 30
0.0
 11
1876.862086238487
 21
387.1973272509936
 31
0.0
  0
LINE
  5
14C
330
17
100
AcDbEntity
  8
4
100
AcDbLine
 10
1882.862086236676
 20
413.1973272431414
 30
0.0
 11
1923.862086224294
 21
372.1973272555233
 31
0.0
  0
LINE
  5
14D
330
17
100
AcDbEntity
  8
4
100
AcDbLine
 10
1882.862086236676
 20
393.1973272491814
 30
0.0
 11
1876.862086238487
 21
387.1973272509936
 31
0.0
  0
LINE
  5
14E
330
17
100
AcDbEntity
  8
4
100
AcDbLine
 10
1923.862086224294
 20
347.1973272630735
 30
0.0
 11
2058.862086183524
 21
347.1973272630735
 31
0.0
  0
LINE
  5
14F
330
17
100
AcDbEntity
  8
4
100
AcDbLine
 10
1938.862086219764
 20
387.1973272509936
 30
0.0
 11
1938.862086219764
 21
347.1973272630735
 31
0.0
  0
LINE
  5
150
330
17
100
AcDbEntity
  8
4
100
AcDbLine
 10
1923.862086224294
 20
389.1973272509936
 30
0.0
 11
1923.862086224294
 21
347.1973272630735
 31
0.0
  0
LINE
  5
152
330
17
100
AcDbEntity
  8
L-CENTER
 48
2.0
100
AcDbLine
 10
591.5234250400767
 20
819.1479397351925
 30
0.0
 11
591.5234250400767
 21
208.3025921303538
 31
0.0
  0
LINE
  5
15C
330
17
100
AcDbEntity
  8
4
100
AcDbLine
 10
2038.86216678453
 20
434.0891607410922
 30
0.0
 11
2038.86216678453
 21
389.1973272509936
 31
0.0
  0
LINE
  5
15D
330
17
100
AcDbEntity
  8
4
100
AcDbLine
 10
903.8234249458524
 20
672.5843271936128
 30
0.0
 11
913.8234249458524
 21
672.5843271936128
 31
0.0
  0
LINE
  5
15E
330
17
100
AcDbEntity
  8
4
100
AcDbLine
 10
906.8234249458524
 20
672.5843271936128
 30
0.0
 11
906.8234249458524
 21
650.6843271936141
 31
0.0
  0
LINE
  5
15F
330
17
100
AcDbEntity
  8
4
 62
     3
100
AcDbLine
 10
914.8234249458524
 20
669.8343271936128
 30
0.0
 11
914.8234249458524
 21
653.4343271936141
 31
0.0
  0
LINE
  5
160
330
17
100
AcDbEntity
  8
4
100
AcDbLine
 10
903.8234249458524
 20
650.6843271936141
 30
0.0
 11
913.8234249458524
 21
650.6843271936141
 31
0.0
  0
LINE
  5
161
330
17
100
AcDbEntity
  8
L-CENTER
 48
2.0
100
AcDbLine
 10
874.9763953665356
 20
661.6343271936134
 30
0.0
 11
918.2673047404228
 21
661.6343271936134
 31
0.0
  0
LINE
  5
162
330
17
100
AcDbEntity
  8
4
100
AcDbLine
 10
906.8234249458524
 20
656.1843271936141
 30
0.0
 11
913.8234249458533
 21
656.1843271936141
 31
0.0
  0
ARC
  5
163
330
17
100
AcDbEntity
  8
4
100
AcDbCircle
 10
910.5421749458524
 20
653.4343271936141
 30
0.0
 40
4.281249999999739
100
AcDbArc
 50
320.0337869562023
 51
39.96621304379763
  0
ARC
  5
164
330
17
100
AcDbEntity
  8
4
100
AcDbCircle
 10
910.5421749458524
 20
669.8343271936128
 30
0.0
 40
4.281249999999739
100
AcDbArc
 50
320.0337869562023
 51
39.96621304379763
  0
ARC
  5
165
330
17
100
AcDbEntity
  8
4
100
AcDbCircle
 10
899.4721749458508
 20
661.6343271936125
 30
0.0
 40
15.35125000000168
100
AcDbArc
 50
339.2053329551341
 51
20.79466704487132
  0
LINE
  5
166
330
17
100
AcDbEntity
  8
4
100
AcDbLine
 10
906.8234249458524
 20
667.0843271936128
 30
0.0
 11
913.8234249458533
 21
667.0843271936128
 31
0.0
  0
LINE
  5
167
330
17
100
AcDbEntity
  8
L-CENTER
 48
2.0
100
AcDbLine
 10
874.9763953665356
 20
625.9473271936135
 30
0.0
 11
918.2673047404228
 21
625.9473271936135
 31
0.0
  0
ARC
  5
168
330
17
100
AcDbEntity
  8
4
100
AcDbCircle
 10
910.5421749458524
 20
634.1473271936129
 30
0.0
 40
4.281249999999739
100
AcDbArc
 50
320.0337869562023
 51
39.96621304379763
  0
LINE
  5
169
330
17
100
AcDbEntity
  8
4
100
AcDbLine
 10
906.8234249458524
 20
636.8973271936129
 30
0.0
 11
906.8234249458524
 21
614.9973271936142
 31
0.0
  0
ARC
  5
16A
330
17
100
AcDbEntity
  8
4
100
AcDbCircle
 10
910.5421749458524
 20
617.7473271936142
 30
0.0
 40
4.281249999999739
100
AcDbArc
 50
320.0337869562023
 51
39.96621304379763
  0
ARC
  5
16B
330
17
100
AcDbEntity
  8
4
100
AcDbCircle
 10
899.4721749458508
 20
625.9473271936126
 30
0.0
 40
15.35125000000168
100
AcDbArc
 50
339.2053329551341
 51
20.79466704487132
  0
LINE
  5
16C
330
17
100
AcDbEntity
  8
4
 62
     3
100
AcDbLine
 10
914.8234249458524
 20
634.1473271936129
 30
0.0
 11
914.8234249458524
 21
617.7473271936142
 31
0.0
  0
LINE
  5
16D
330
17
100
AcDbEntity
  8
4
100
AcDbLine
 10
906.8234249458524
 20
631.3973271936129
 30
0.0
 11
913.8234249458533
 21
631.3973271936129
 31
0.0
  0
LINE
  5
16E
330
17
100
AcDbEntity
  8
4
100
AcDbLine
 10
906.8234249458524
 20
620.4973271936142
 30
0.0
 11
913.8234249458533
 21
620.4973271936142
 31
0.0
  0
LINE
  5
16F
330
17
100
AcDbEntity
  8
4
100
AcDbLine
 10
903.8234249458524
 20
614.9973271936142
 30
0.0
 11
913.8234249458524
 21
614.9973271936142
 31
0.0
  0
LINE
  5
170
330
17
100
AcDbEntity
  8
4
100
AcDbLine
 10
903.8234249458524
 20
636.8973271936129
 30
0.0
 11
913.8234249458524
 21
636.8973271936129
 31
0.0
  0
LINE
  5
171
330
17
100
AcDbEntity
  8
L-CENTER
 48
2.0
100
AcDbLine
 10
874.9763953665356
 20
528.4473271936135
 30
0.0
 11
918.2673047404228
 21
528.4473271936135
 31
0.0
  0
LINE
  5
172
330
17
100
AcDbEntity
  8
L-CENTER
 48
2.0
100
AcDbLine
 10
874.9763953665356
 20
492.7603271936136
 30
0.0
 11
918.2673047404228
 21
492.7603271936136
 31
0.0
  0
LINE
  5
173
330
17
100
AcDbEntity
  8
4
 62
     3
100
AcDbLine
 10
914.8234249458524
 20
520.2473271936142
 30
0.0
 11
914.8234249458524
 21
536.6473271936129
 31
0.0
  0
ARC
  5
174
330
17
100
AcDbEntity
  8
4
100
AcDbCircle
 10
899.4721749458508
 20
528.4473271936145
 30
0.0
 40
15.35125000000168
100
AcDbArc
 50
339.2053329551276
 51
20.79466704486517
  0
LINE
  5
175
330
17
100
AcDbEntity
  8
4
100
AcDbLine
 10
906.8234249458524
 20
517.4973271936142
 30
0.0
 11
906.8234249458524
 21
539.3973271936129
 31
0.0
  0
LINE
  5
176
330
17
100
AcDbEntity
  8
4
100
AcDbLine
 10
903.8234249458524
 20
539.3973271936129
 30
0.0
 11
913.8234249458524
 21
539.3973271936129
 31
0.0
  0
LINE
  5
177
330
17
100
AcDbEntity
  8
4
100
AcDbLine
 10
906.8234249458524
 20
533.8973271936129
 30
0.0
 11
913.8234249458533
 21
533.8973271936129
 31
0.0
  0
ARC
  5
178
330
17
100
AcDbEntity
  8
4
100
AcDbCircle
 10
910.5421749458524
 20
536.6473271936129
 30
0.0
 40
4.281249999999739
100
AcDbArc
 50
320.0337869562023
 51
39.96621304379763
  0
ARC
  5
179
330
17
100
AcDbEntity
  8
4
100
AcDbCircle
 10
910.5421749458524
 20
484.5603271936143
 30
0.0
 40
4.281249999999739
100
AcDbArc
 50
320.0337869562005
 51
39.96621304379958
  0
LINE
  5
17A
330
17
100
AcDbEntity
  8
4
100
AcDbLine
 10
906.8234249458524
 20
481.8103271936143
 30
0.0
 11
906.8234249458524
 21
503.710327193613
 31
0.0
  0
LINE
  5
17B
330
17
100
AcDbEntity
  8
4
100
AcDbLine
 10
903.8234249458524
 20
517.4973271936142
 30
0.0
 11
913.8234249458524
 21
517.4973271936142
 31
0.0
  0
LINE
  5
17C
330
17
100
AcDbEntity
  8
4
100
AcDbLine
 10
906.8234249458524
 20
522.9973271936142
 30
0.0
 11
913.8234249458533
 21
522.9973271936142
 31
0.0
  0
ARC
  5
17D
330
17
100
AcDbEntity
  8
4
100
AcDbCircle
 10
910.5421749458524
 20
520.2473271936142
 30
0.0
 40
4.281249999999739
100
AcDbArc
 50
320.0337869562023
 51
39.96621304379763
  0
ARC
  5
17E
330
17
100
AcDbEntity
  8
4
100
AcDbCircle
 10
910.5421749458524
 20
500.960327193613
 30
0.0
 40
4.281249999999739
100
AcDbArc
 50
320.0337869562023
 51
39.96621304379763
  0
ARC
  5
17F
330
17
100
AcDbEntity
  8
4
100
AcDbCircle
 10
899.4721749458508
 20
492.7603271936146
 30
0.0
 40
15.35125000000168
100
AcDbArc
 50
339.2053329551287
 51
20.79466704486517
  0
LINE
  5
180
330
17
100
AcDbEntity
  8
4
 62
     3
100
AcDbLine
 10
914.8234249458524
 20
484.5603271936143
 30
0.0
 11
914.8234249458524
 21
500.960327193613
 31
0.0
  0
LINE
  5
181
330
17
100
AcDbEntity
  8
4
100
AcDbLine
 10
906.8234249458524
 20
487.3103271936143
 30
0.0
 11
913.8234249458533
 21
487.3103271936143
 31
0.0
  0
LINE
  5
182
330
17
100
AcDbEntity
  8
4
100
AcDbLine
 10
906.8234249458524
 20
498.210327193613
 30
0.0
 11
913.8234249458533
 21
498.210327193613
 31
0.0
  0
LINE
  5
183
330
17
100
AcDbEntity
  8
4
100
AcDbLine
 10
903.8234249458524
 20
503.710327193613
 30
0.0
 11
913.8234249458524
 21
503.710327193613
 31
0.0
  0
LINE
  5
184
330
17
100
AcDbEntity
  8
4
100
AcDbLine
 10
903.8234249458524
 20
481.8103271936143
 30
0.0
 11
913.8234249458524
 21
481.8103271936143
 31
0.0
  0
LINE
  5
185
330
17
100
AcDbEntity
  8
4
100
AcDbLine
 10
279.2234251343007
 20
481.8103271936143
 30
0.0
 11
269.2234251343007
 21
481.8103271936143
 31
0.0
  0
LINE
  5
186
330
17
100
AcDbEntity
  8
4
100
AcDbLine
 10
279.2234251343007
 20
503.710327193613
 30
0.0
 11
269.2234251343007
 21
503.710327193613
 31
0.0
  0
LINE
  5
187
330
17
100
AcDbEntity
  8
4
100
AcDbLine
 10
276.2234251343007
 20
498.210327193613
 30
0.0
 11
269.2234251343002
 21
498.210327193613
 31
0.0
  0
LINE
  5
188
330
17
100
AcDbEntity
  8
4
100
AcDbLine
 10
276.2234251343007
 20
487.3103271936143
 30
0.0
 11
269.2234251343002
 21
487.3103271936143
 31
0.0
  0
LINE
  5
189
330
17
100
AcDbEntity
  8
4
 62
     3
100
AcDbLine
 10
268.2234251343007
 20
484.5603271936143
 30
0.0
 11
268.2234251343007
 21
500.960327193613
 31
0.0
  0
ARC
  5
18A
330
17
100
AcDbEntity
  8
4
100
AcDbCircle
 10
283.5746751343022
 20
492.7603271936146
 30
0.0
 40
15.35125000000168
100
AcDbArc
 50
159.2053329551331
 51
200.7946670448714
  0
ARC
  5
18B
330
17
100
AcDbEntity
  8
4
100
AcDbCircle
 10
272.5046751343002
 20
500.960327193613
 30
0.0
 40
4.281249999999739
100
AcDbArc
 50
140.0337869561971
 51
219.9662130438029
  0
LINE
  5
18C
330
17
100
AcDbEntity
  8
4
100
AcDbLine
 10
276.2234251343007
 20
481.8103271936143
 30
0.0
 11
276.2234251343007
 21
503.710327193613
 31
0.0
  0
ARC
  5
18D
330
17
100
AcDbEntity
  8
4
100
AcDbCircle
 10
272.5046751343002
 20
484.5603271936143
 30
0.0
 40
4.281249999999739
100
AcDbArc
 50
140.0337869561971
 51
219.9662130438029
  0
ARC
  5
18E
330
17
100
AcDbEntity
  8
4
100
AcDbCircle
 10
272.5046751343002
 20
520.2473271936142
 30
0.0
 40
4.281249999999739
100
AcDbArc
 50
140.0337869561971
 51
219.9662130438029
  0
LINE
  5
18F
330
17
100
AcDbEntity
  8
4
100
AcDbLine
 10
276.2234251343007
 20
522.9973271936142
 30
0.0
 11
269.2234251343002
 21
522.9973271936142
 31
0.0
  0
LINE
  5
190
330
17
100
AcDbEntity
  8
4
100
AcDbLine
 10
279.2234251343007
 20
517.4973271936142
 30
0.0
 11
269.2234251343007
 21
517.4973271936142
 31
0.0
  0
ARC
  5
191
330
17
100
AcDbEntity
  8
4
100
AcDbCircle
 10
272.5046751343002
 20
536.6473271936129
 30
0.0
 40
4.281249999999739
100
AcDbArc
 50
140.0337869561971
 51
219.9662130438029
  0
LINE
  5
192
330
17
100
AcDbEntity
  8
4
100
AcDbLine
 10
276.2234251343007
 20
533.8973271936129
 30
0.0
 11
269.2234251343002
 21
533.8973271936129
 31
0.0
  0
LINE
  5
193
330
17
100
AcDbEntity
  8
4
100
AcDbLine
 10
279.2234251343007
 20
539.3973271936129
 30
0.0
 11
269.2234251343007
 21
539.3973271936129
 31
0.0
  0
LINE
  5
194
330
17
100
AcDbEntity
  8
4
100
AcDbLine
 10
276.2234251343007
 20
517.4973271936142
 30
0.0
 11
276.2234251343007
 21
539.3973271936129
 31
0.0
  0
ARC
  5
195
330
17
100
AcDbEntity
  8
4
100
AcDbCircle
 10
283.5746751343022
 20
528.4473271936145
 30
0.0
 40
15.35125000000168
100
AcDbArc
 50
159.2053329551331
 51
200.7946670448714
  0
LINE
  5
196
330
17
100
AcDbEntity
  8
4
 62
     3
100
AcDbLine
 10
268.2234251343007
 20
520.2473271936142
 30
0.0
 11
268.2234251343007
 21
536.6473271936129
 31
0.0
  0
LINE
  5
197
330
17
100
AcDbEntity
  8
4
 62
     3
100
AcDbLine
 10
268.2234251343007
 20
634.1473271936129
 30
0.0
 11
268.2234251343007
 21
617.7473271936142
 31
0.0
  0
ARC
  5
198
330
17
100
AcDbEntity
  8
4
100
AcDbCircle
 10
283.5746751343022
 20
625.9473271936126
 30
0.0
 40
15.35125000000168
100
AcDbArc
 50
159.2053329551286
 51
200.7946670448659
  0
LINE
  5
199
330
17
100
AcDbEntity
  8
4
100
AcDbLine
 10
276.2234251343007
 20
636.8973271936129
 30
0.0
 11
276.2234251343007
 21
614.9973271936142
 31
0.0
  0
LINE
  5
19A
330
17
100
AcDbEntity
  8
4
100
AcDbLine
 10
279.2234251343007
 20
614.9973271936142
 30
0.0
 11
269.2234251343007
 21
614.9973271936142
 31
0.0
  0
LINE
  5
19B
330
17
100
AcDbEntity
  8
4
100
AcDbLine
 10
276.2234251343007
 20
620.4973271936142
 30
0.0
 11
269.2234251343002
 21
620.4973271936142
 31
0.0
  0
ARC
  5
19C
330
17
100
AcDbEntity
  8
4
100
AcDbCircle
 10
272.5046751343002
 20
617.7473271936142
 30
0.0
 40
4.281249999999739
100
AcDbArc
 50
140.0337869561971
 51
219.9662130438029
  0
ARC
  5
19D
330
17
100
AcDbEntity
  8
4
100
AcDbCircle
 10
272.5046751343002
 20
669.8343271936128
 30
0.0
 40
4.281249999999739
100
AcDbArc
 50
140.0337869561971
 51
219.9662130438029
  0
LINE
  5
19E
330
17
100
AcDbEntity
  8
4
100
AcDbLine
 10
276.2234251343007
 20
672.5843271936128
 30
0.0
 11
276.2234251343007
 21
650.6843271936141
 31
0.0
  0
LINE
  5
19F
330
17
100
AcDbEntity
  8
4
100
AcDbLine
 10
279.2234251343007
 20
636.8973271936129
 30
0.0
 11
269.2234251343007
 21
636.8973271936129
 31
0.0
  0
LINE
  5
1A0
330
17
100
AcDbEntity
  8
4
100
AcDbLine
 10
276.2234251343007
 20
631.3973271936129
 30
0.0
 11
269.2234251343002
 21
631.3973271936129
 31
0.0
  0
ARC
  5
1A1
330
17
100
AcDbEntity
  8
4
100
AcDbCircle
 10
272.5046751343002
 20
634.1473271936129
 30
0.0
 40
4.281249999999739
100
AcDbArc
 50
140.0337869561971
 51
219.9662130438029
  0
ARC
  5
1A2
330
17
100
AcDbEntity
  8
4
100
AcDbCircle
 10
272.5046751343002
 20
653.4343271936141
 30
0.0
 40
4.281249999999739
100
AcDbArc
 50
140.0337869561971
 51
219.9662130438029
  0
ARC
  5
1A3
330
17
100
AcDbEntity
  8
4
100
AcDbCircle
 10
283.5746751343022
 20
661.6343271936125
 30
0.0
 40
15.35125000000168
100
AcDbArc
 50
159.2053329551286
 51
200.7946670448659
  0
LINE
  5
1A4
330
17
100
AcDbEntity
  8
4
 62
     3
100
AcDbLine
 10
268.2234251343007
 20
669.8343271936128
 30
0.0
 11
268.2234251343007
 21
653.4343271936141
 31
0.0
  0
LINE
  5
1A5
330
17
100
AcDbEntity
  8
4
100
AcDbLine
 10
276.2234251343007
 20
667.0843271936128
 30
0.0
 11
269.2234251343002
 21
667.0843271936128
 31
0.0
  0
LINE
  5
1A6
330
17
100
AcDbEntity
  8
4
100
AcDbLine
 10
276.2234251343007
 20
656.1843271936141
 30
0.0
 11
269.2234251343002
 21
656.1843271936141
 31
0.0
  0
LINE
  5
1A7
330
17
100
AcDbEntity
  8
4
100
AcDbLine
 10
279.2234251343007
 20
650.6843271936141
 30
0.0
 11
269.2234251343007
 21
650.6843271936141
 31
0.0
  0
LINE
  5
1A8
330
17
100
AcDbEntity
  8
4
100
AcDbLine
 10
279.2234251343007
 20
672.5843271936128
 30
0.0
 11
269.2234251343007
 21
672.5843271936128
 31
0.0
  0
LINE
  5
1A9
330
17
100
AcDbEntity
  8
L-CENTER
 48
2.0
100
AcDbLine
 10
308.0704547136174
 20
661.6343271936134
 30
0.0
 11
264.7795453397302
 21
661.6343271936134
 31
0.0
  0
LINE
  5
1AA
330
17
100
AcDbEntity
  8
L-CENTER
 48
2.0
100
AcDbLine
 10
308.0704547136174
 20
625.9473271936135
 30
0.0
 11
264.7795453397302
 21
625.9473271936135
 31
0.0
  0
LINE
  5
1AB
330
17
100
AcDbEntity
  8
L-CENTER
 48
2.0
100
AcDbLine
 10
308.0704547136174
 20
528.4473271936135
 30
0.0
 11
264.7795453397302
 21
528.4473271936135
 31
0.0
  0
LINE
  5
1AC
330
17
100
AcDbEntity
  8
L-CENTER
 48
2.0
100
AcDbLine
 10
308.0704547136174
 20
492.7603271936136
 30
0.0
 11
264.7795453397302
 21
492.7603271936136
 31
0.0
  0
LINE
  5
1AD
330
17
100
AcDbEntity
  8
L-CENTER
 48
2.0
100
AcDbLine
 10
730.7734250400767
 20
694.6502975702044
 30
0.0
 11
730.7734250400767
 21
737.9412069440916
 31
0.0
  0
ARC
  5
1AE
330
17
100
AcDbEntity
  8
4
100
AcDbCircle
 10
722.5734250400774
 20
730.2160771495217
 30
0.0
 40
4.281249999999739
100
AcDbArc
 50
50.03378695619809
 51
129.9662130438019
  0
LINE
  5
1AF
330
17
100
AcDbEntity
  8
4
100
AcDbLine
 10
719.8234250400774
 20
726.4973271495212
 30
0.0
 11
741.7234250400761
 21
726.4973271495212
 31
0.0
  0
ARC
  5
1B0
330
17
100
AcDbEntity
  8
4
100
AcDbCircle
 10
738.9734250400761
 20
730.2160771495217
 30
0.0
 40
4.281249999999739
100
AcDbArc
 50
50.03378695619809
 51
129.9662130438019
  0
ARC
  5
1B1
330
17
100
AcDbEntity
  8
4
100
AcDbCircle
 10
730.7734250400777
 20
719.1460771495197
 30
0.0
 40
15.35125000000168
100
AcDbArc
 50
69.20533295513404
 51
110.7946670448713
  0
LINE
  5
1B2
330
17
100
AcDbEntity
  8
4
 62
     3
100
AcDbLine
 10
722.5734250400774
 20
734.4973271495212
 30
0.0
 11
738.9734250400761
 21
734.4973271495212
 31
0.0
  0
LINE
  5
1B3
330
17
100
AcDbEntity
  8
4
100
AcDbLine
 10
725.3234250400774
 20
726.4973271495212
 30
0.0
 11
725.3234250400774
 21
733.4973271495221
 31
0.0
  0
LINE
  5
1B4
330
17
100
AcDbEntity
  8
4
100
AcDbLine
 10
736.2234250400761
 20
726.4973271495212
 30
0.0
 11
736.2234250400761
 21
733.4973271495221
 31
0.0
  0
LINE
  5
1B5
330
17
100
AcDbEntity
  8
4
100
AcDbLine
 10
741.7234250400761
 20
723.4973271495212
 30
0.0
 11
741.7234250400761
 21
733.4973271495212
 31
0.0
  0
LINE
  5
1B6
330
17
100
AcDbEntity
  8
4
100
AcDbLine
 10
719.8234250400774
 20
723.4973271495212
 30
0.0
 11
719.8234250400774
 21
733.4973271495212
 31
0.0
  0
LINE
  5
1B7
330
17
100
AcDbEntity
  8
4
 62
     3
100
AcDbLine
 10
861.8234250400769
 20
734.4973271495212
 30
0.0
 11
878.2234250400766
 21
734.4973271495212
 31
0.0
  0
LINE
  5
1B8
330
17
100
AcDbEntity
  8
4
100
AcDbLine
 10
859.0734250400769
 20
726.4973271495212
 30
0.0
 11
880.9734250400766
 21
726.4973271495212
 31
0.0
  0
ARC
  5
1B9
330
17
100
AcDbEntity
  8
4
100
AcDbCircle
 10
870.0234250400777
 20
719.1460771495197
 30
0.0
 40
15.35125000000168
100
AcDbArc
 50
69.20533295513404
 51
110.7946670448732
  0
LINE
  5
1BA
330
17
100
AcDbEntity
  8
4
100
AcDbLine
 10
864.5734250400769
 20
726.4973271495212
 30
0.0
 11
864.5734250400769
 21
733.4973271495221
 31
0.0
  0
LINE
  5
1BB
330
17
100
AcDbEntity
  8
4
100
AcDbLine
 10
859.0734250400769
 20
723.4973271495212
 30
0.0
 11
859.0734250400769
 21
733.4973271495212
 31
0.0
  0
ARC
  5
1BC
330
17
100
AcDbEntity
  8
4
100
AcDbCircle
 10
861.8234250400769
 20
730.2160771495217
 30
0.0
 40
4.281249999999739
100
AcDbArc
 50
50.03378695619809
 51
129.9662130438019
  0
LINE
  5
1BD
330
17
100
AcDbEntity
  8
4
100
AcDbLine
 10
880.9734250400766
 20
723.4973271495212
 30
0.0
 11
880.9734250400766
 21
733.4973271495212
 31
0.0
  0
LINE
  5
1BE
330
17
100
AcDbEntity
  8
4
100
AcDbLine
 10
875.4734250400766
 20
726.4973271495212
 30
0.0
 11
875.4734250400766
 21
733.4973271495221
 31
0.0
  0
ARC
  5
1BF
330
17
100
AcDbEntity
  8
4
100
AcDbCircle
 10
878.2234250400766
 20
730.2160771495217
 30
0.0
 40
4.281249999999739
100
AcDbArc
 50
50.03378695619809
 51
129.9662130438019
  0
LINE
  5
1C0
330
17
100
AcDbEntity
  8
L-CENTER
 48
2.0
100
AcDbLine
 10
870.0234250400767
 20
694.6502975702044
 30
0.0
 11
870.0234250400767
 21
737.9412069440916
 31
0.0
  0
LINE
  5
1C1
330
17
100
AcDbEntity
  8
4
 62
     3
100
AcDbLine
 10
460.4734250400761
 20
734.4973271495212
 30
0.0
 11
444.0734250400774
 21
734.4973271495212
 31
0.0
  0
LINE
  5
1C2
330
17
100
AcDbEntity
  8
4
100
AcDbLine
 10
463.2234250400761
 20
726.4973271495212
 30
0.0
 11
441.3234250400774
 21
726.4973271495212
 31
0.0
  0
ARC
  5
1C3
330
17
100
AcDbEntity
  8
4
100
AcDbCircle
 10
452.2734250400754
 20
719.1460771495197
 30
0.0
 40
15.35125000000168
100
AcDbArc
 50
69.20533295512868
 51
110.794667044866
  0
LINE
  5
1C4
330
17
100
AcDbEntity
  8
4
100
AcDbLine
 10
457.7234250400761
 20
726.4973271495212
 30
0.0
 11
457.7234250400761
 21
733.4973271495221
 31
0.0
  0
LINE
  5
1C5
330
17
100
AcDbEntity
  8
4
100
AcDbLine
 10
463.2234250400761
 20
723.4973271495212
 30
0.0
 11
463.2234250400761
 21
733.4973271495212
 31
0.0
  0
ARC
  5
1C6
330
17
100
AcDbEntity
  8
4
100
AcDbCircle
 10
460.4734250400757
 20
730.2160771495217
 30
0.0
 40
4.281249999999739
100
AcDbArc
 50
50.03378695619809
 51
129.9662130438019
  0
LINE
  5
1C7
330
17
100
AcDbEntity
  8
4
100
AcDbLine
 10
441.3234250400774
 20
723.4973271495212
 30
0.0
 11
441.3234250400774
 21
733.4973271495212
 31
0.0
  0
LINE
  5
1C8
330
17
100
AcDbEntity
  8
4
100
AcDbLine
 10
446.8234250400774
 20
726.4973271495212
 30
0.0
 11
446.8234250400774
 21
733.4973271495221
 31
0.0
  0
ARC
  5
1C9
330
17
100
AcDbEntity
  8
4
100
AcDbCircle
 10
444.0734250400769
 20
730.2160771495217
 30
0.0
 40
4.281249999999739
100
AcDbArc
 50
50.03378695619809
 51
129.9662130438019
  0
LINE
  5
1CA
330
17
100
AcDbEntity
  8
L-CENTER
 48
2.0
100
AcDbLine
 10
452.2734250400767
 20
694.6502975702044
 30
0.0
 11
452.2734250400767
 21
737.9412069440916
 31
0.0
  0
ARC
  5
1CB
330
17
100
AcDbEntity
  8
4
100
AcDbCircle
 10
304.8234250400769
 20
730.2160771495217
 30
0.0
 40
4.281249999999739
100
AcDbArc
 50
50.03378695619809
 51
129.9662130438019
  0
LINE
  5
1CC
330
17
100
AcDbEntity
  8
4
100
AcDbLine
 10
307.5734250400774
 20
726.4973271495212
 30
0.0
 11
307.5734250400774
 21
733.4973271495221
 31
0.0
  0
LINE
  5
1CD
330
17
100
AcDbEntity
  8
4
100
AcDbLine
 10
302.0734250400774
 20
723.4973271495212
 30
0.0
 11
302.0734250400774
 21
733.4973271495212
 31
0.0
  0
ARC
  5
1CE
330
17
100
AcDbEntity
  8
4
100
AcDbCircle
 10
321.2234250400757
 20
730.2160771495217
 30
0.0
 40
4.281249999999739
100
AcDbArc
 50
50.03378695619809
 51
129.9662130438019
  0
LINE
  5
1CF
330
17
100
AcDbEntity
  8
4
100
AcDbLine
 10
323.9734250400761
 20
723.4973271495212
 30
0.0
 11
323.9734250400761
 21
733.4973271495212
 31
0.0
  0
LINE
  5
1D0
330
17
100
AcDbEntity
  8
4
100
AcDbLine
 10
318.4734250400761
 20
726.4973271495212
 30
0.0
 11
318.4734250400761
 21
733.4973271495221
 31
0.0
  0
ARC
  5
1D1
330
17
100
AcDbEntity
  8
4
100
AcDbCircle
 10
313.0234250400754
 20
719.1460771495197
 30
0.0
 40
15.35125000000168
100
AcDbArc
 50
69.20533295512868
 51
110.794667044866
  0
LINE
  5
1D2
330
17
100
AcDbEntity
  8
4
100
AcDbLine
 10
323.9734250400761
 20
726.4973271495212
 30
0.0
 11
302.0734250400774
 21
726.4973271495212
 31
0.0
  0
LINE
  5
1D3
330
17
100
AcDbEntity
  8
4
 62
     3
100
AcDbLine
 10
321.2234250400761
 20
734.4973271495212
 30
0.0
 11
304.8234250400774
 21
734.4973271495212
 31
0.0
  0
LINE
  5
1D4
330
17
100
AcDbEntity
  8
L-CENTER
 48
2.0
100
AcDbLine
 10
313.0234250400767
 20
694.6502975702044
 30
0.0
 11
313.0234250400767
 21
737.9412069440916
 31
0.0
  0
LINE
  5
1D5
330
17
100
AcDbEntity
  8
L-CENTER
 48
2.0
100
AcDbLine
 10
2010.050086271104
 20
694.6502975702044
 30
0.0
 11
2010.050086271104
 21
737.9412069440916
 31
0.0
  0
LINE
  5
1D6
330
17
100
AcDbEntity
  8
L-CENTER
 48
2.0
100
AcDbLine
 10
1527.674086271104
 20
694.6502975702044
 30
0.0
 11
1527.674086271104
 21
737.9412069440916
 31
0.0
  0
ARC
  5
1E3
330
17
100
AcDbEntity
  8
4
100
AcDbCircle
 10
-111.9765749599233
 20
1597.724948435606
 30
0.0
 40
1000.0
100
AcDbArc
 50
344.9966502307968
 51
15.00334976920323
  0
ARC
  5
1E4
330
17
100
AcDbEntity
  8
4
100
AcDbCircle
 10
1295.023425040076
 20
1597.724948435606
 30
0.0
 40
1000.0
100
AcDbArc
 50
164.9966502307968
 51
195.0033497692032
  0
LINE
  5
1E5
330
17
100
AcDbEntity
  8
L-CENTER
 48
2.0
100
AcDbLine
 10
591.5234250400767
 20
1170.724948435606
 30
0.0
 11
591.5234250400767
 21
1915.972188677524
 31
0.0
  0
LINE
  5
1E6
330
17
100
AcDbEntity
  8
L-CENTER
 48
2.0
100
AcDbLine
 10
903.0234250400758
 20
1597.724948435606
 30
0.0
 11
280.0234250400767
 21
1597.724948435606
 31
0.0
  0
LINE
  5
1E7
330
17
100
AcDbEntity
  8
4
100
AcDbLine
 10
304.5234250400767
 20
1185.724948435606
 30
0.0
 11
878.5234250400758
 21
1185.724948435606
 31
0.0
  0
LINE
  5
1E8
330
17
100
AcDbEntity
  8
L-CENTER
 48
2.0
100
AcDbLine
 10
268.9863075973487
 20
1302.724948435606
 30
0.0
 11
1055.526354477412
 21
1302.724948435606
 31
0.0
  0
LINE
  5
1E9
330
17
100
AcDbEntity
  8
4
100
AcDbLine
 10
251.5234250400767
 20
1312.724948435606
 30
0.0
 11
251.5234250400767
 21
1423.895365849137
 31
0.0
  0
LINE
  5
1EA
330
17
100
AcDbEntity
  8
4
100
AcDbLine
 10
304.5234250400767
 20
1322.724948435606
 30
0.0
 11
304.5234250400767
 21
1460.212221751854
 31
0.0
  0
ARC
  5
1EB
330
17
100
AcDbEntity
  8
4
100
AcDbCircle
 10
591.5234250400767
 20
2301.224948435606
 30
0.0
 40
1000.0
100
AcDbArc
 50
254.9966502307968
 51
285.0033497692032
  0
LINE
  5
1EC
330
17
100
AcDbEntity
  8
4
100
AcDbLine
 10
299.5234250400767
 20
1188.224948435606
 30
0.0
 11
299.5234250400767
 21
1417.224948435606
 31
0.0
  0
LINE
  5
1ED
330
17
100
AcDbEntity
  8
4
100
AcDbLine
 10
299.2234250400766
 20
1188.224948435606
 30
0.0
 11
299.2234250400766
 21
1417.224948435606
 31
0.0
  0
LINE
  5
1EE
330
17
100
AcDbEntity
  8
4
100
AcDbLine
 10
304.5234250400767
 20
1188.224948435606
 30
0.0
 11
280.2234250400766
 21
1188.224948435606
 31
0.0
  0
LINE
  5
1F1
330
17
100
AcDbEntity
  8
4
100
AcDbLine
 10
304.5234250400767
 20
1185.724948435606
 30
0.0
 11
304.5234250400767
 21
1282.724948435606
 31
0.0
  0
LINE
  5
1F2
330
17
100
AcDbEntity
  8
4
100
AcDbLine
 10
541.5234250400767
 20
1266.724948435606
 30
0.0
 11
541.5234250400767
 21
1240.724948435606
 31
0.0
  0
LINE
  5
1F3
330
17
100
AcDbEntity
  8
4
100
AcDbLine
 10
549.5234250400767
 20
1266.724948435606
 30
0.0
 11
549.5234250400767
 21
1240.724948435606
 31
0.0
  0
LINE
  5
1F4
330
17
100
AcDbEntity
  8
4
100
AcDbLine
 10
515.5234250400767
 20
1240.724948435606
 30
0.0
 11
515.5234250400767
 21
1266.724948435606
 31
0.0
  0
LINE
  5
1F5
330
17
100
AcDbEntity
  8
4
100
AcDbLine
 10
507.5234250400767
 20
1240.724948435606
 30
0.0
 11
507.5234250400767
 21
1266.724948435606
 31
0.0
  0
ARC
  5
1F6
330
17
100
AcDbEntity
  8
4
100
AcDbCircle
 10
528.5234250400767
 20
1240.724948435606
 30
0.0
 40
21.0
100
AcDbArc
 50
180.0
 51
0.0
  0
ARC
  5
1F7
330
17
100
AcDbEntity
  8
4
100
AcDbCircle
 10
528.5234250400767
 20
1240.724948435606
 30
0.0
 40
13.0
100
AcDbArc
 50
180.0
 51
0.0
  0
ARC
  5
1F8
330
17
100
AcDbEntity
  8
4
100
AcDbCircle
 10
528.5234250400767
 20
1266.724948435606
 30
0.0
 40
21.0
100
AcDbArc
 50
0.0
 51
180.0
  0
ARC
  5
1F9
330
17
100
AcDbEntity
  8
4
100
AcDbCircle
 10
528.5234250400767
 20
1266.724948435606
 30
0.0
 40
13.0
100
AcDbArc
 50
0.0
 51
180.0
  0
LINE
  5
1FA
330
17
100
AcDbEntity
  8
4
100
AcDbLine
 10
571.5234250400767
 20
1249.724948435606
 30
0.0
 11
571.5234250400767
 21
1257.724948435606
 31
0.0
  0
LINE
  5
1FB
330
17
100
AcDbEntity
  8
4
100
AcDbLine
 10
585.5234250400767
 20
1249.724948435606
 30
0.0
 11
585.5234250400767
 21
1257.724948435606
 31
0.0
  0
LINE
  5
1FC
330
17
100
AcDbEntity
  8
4
100
AcDbLine
 10
557.5234250400767
 20
1219.724948435606
 30
0.0
 11
557.5234250400767
 21
1287.724948435606
 31
0.0
  0
LINE
  5
1FD
330
17
100
AcDbEntity
  8
4
100
AcDbLine
 10
565.5234250400767
 20
1219.724948435606
 30
0.0
 11
565.5234250400767
 21
1287.724948435606
 31
0.0
  0
LINE
  5
1FE
330
17
100
AcDbEntity
  8
4
100
AcDbLine
 10
585.5234250400767
 20
1249.724948435606
 30
0.0
 11
571.5234250400767
 21
1249.724948435606
 31
0.0
  0
LINE
  5
1FF
330
17
100
AcDbEntity
  8
4
100
AcDbLine
 10
565.5234250400767
 20
1219.724948435606
 30
0.0
 11
557.5234250400767
 21
1219.724948435606
 31
0.0
  0
LINE
  5
200
330
17
100
AcDbEntity
  8
4
100
AcDbLine
 10
585.5234250400767
 20
1257.724948435606
 30
0.0
 11
571.5234250400767
 21
1257.724948435606
 31
0.0
  0
LINE
  5
201
330
17
100
AcDbEntity
  8
4
100
AcDbLine
 10
565.5234250400767
 20
1287.724948435606
 30
0.0
 11
557.5234250400767
 21
1287.724948435606
 31
0.0
  0
LINE
  5
202
330
17
100
AcDbEntity
  8
4
100
AcDbLine
 10
280.2234250400766
 20
1417.224948435606
 30
0.0
 11
304.5234250400767
 21
1417.224948435606
 31
0.0
  0
LINE
  5
203
330
17
100
AcDbEntity
  8
4
100
AcDbLine
 10
274.5234250400767
 20
1427.724948435606
 30
0.0
 11
304.5234250400767
 21
1427.724948435606
 31
0.0
  0
LINE
  5
204
330
17
100
AcDbEntity
  8
4
100
AcDbLine
 10
255.220750879856
 20
1428.722688091571
 30
0.0
 11
304.5234250400767
 21
1442.027231777042
 31
0.0
  0
ARC
  5
205
330
17
100
AcDbEntity
  8
4
100
AcDbCircle
 10
274.5234250400767
 20
1415.724948435606
 30
0.0
 40
3.0
100
AcDbArc
 50
180.0
 51
270.0
  0
LINE
  5
206
330
17
100
AcDbEntity
  8
4
100
AcDbLine
 10
279.2234250400766
 20
1412.724948435606
 30
0.0
 11
274.5234250400767
 21
1412.724948435606
 31
0.0
  0
ARC
  5
207
330
17
100
AcDbEntity
  8
4
100
AcDbCircle
 10
274.5234250400767
 20
1424.724948435606
 30
0.0
 40
3.0
100
AcDbArc
 50
90.0
 51
180.0
  0
LINE
  5
208
330
17
100
AcDbEntity
  8
4
100
AcDbLine
 10
271.5234250400767
 20
1424.724948435606
 30
0.0
 11
271.5234250400767
 21
1415.724948435606
 31
0.0
  0
ARC
  5
209
330
17
100
AcDbEntity
  8
4
100
AcDbCircle
 10
256.5234250400767
 20
1423.895365849137
 30
0.0
 40
5.0
100
AcDbArc
 50
105.1017995437989
 51
180.0
  0
ARC
  5
20A
330
17
100
AcDbEntity
  8
4
100
AcDbCircle
 10
333.9422855928956
 20
1340.143808988425
 30
0.0
 40
5.0
100
AcDbArc
 50
195.003349769204
 51
254.9966502307963
  0
ARC
  5
20B
330
17
100
AcDbEntity
  8
4
100
AcDbCircle
 10
333.9422855928956
 20
1340.143808988425
 30
0.0
 40
5.0
100
AcDbArc
 50
195.003349769204
 51
254.9966502308013
  0
LINE
  5
20C
330
17
100
AcDbEntity
  8
4
100
AcDbLine
 10
931.5234250400758
 20
1334.224948426092
 30
0.0
 11
931.5234250400758
 21
1423.895365849138
 31
0.0
  0
LINE
  5
20D
330
17
100
AcDbEntity
  8
4
100
AcDbLine
 10
883.5234250400758
 20
1188.224948435606
 30
0.0
 11
883.5234250400758
 21
1417.224948435606
 31
0.0
  0
LINE
  5
20E
330
17
100
AcDbEntity
  8
4
100
AcDbLine
 10
883.823425040076
 20
1188.224948435606
 30
0.0
 11
883.823425040076
 21
1417.224948435606
 31
0.0
  0
LINE
  5
20F
330
17
100
AcDbEntity
  8
4
100
AcDbLine
 10
878.5234250400758
 20
1188.224948435606
 30
0.0
 11
902.823425040076
 21
1188.224948435606
 31
0.0
  0
LINE
  5
210
330
17
100
AcDbEntity
  8
4
100
AcDbLine
 10
927.8260992002965
 20
1428.722688091571
 30
0.0
 11
878.5234250400758
 21
1442.027231777042
 31
0.0
  0
ARC
  5
211
330
17
100
AcDbEntity
  8
4
100
AcDbCircle
 10
908.5234250400758
 20
1415.724948435606
 30
0.0
 40
3.0
100
AcDbArc
 50
270.0
 51
0.0
  0
LINE
  5
212
330
17
100
AcDbEntity
  8
4
100
AcDbLine
 10
903.823425040076
 20
1412.724948435606
 30
0.0
 11
908.5234250400758
 21
1412.724948435606
 31
0.0
  0
LINE
  5
213
330
17
100
AcDbEntity
  8
4
100
AcDbLine
 10
908.5234250400758
 20
1427.724948435606
 30
0.0
 11
878.5234250400758
 21
1427.724948435606
 31
0.0
  0
ARC
  5
214
330
17
100
AcDbEntity
  8
4
100
AcDbCircle
 10
880.5234250400758
 20
1419.224948435606
 30
0.0
 40
2.0
100
AcDbArc
 50
180.0
 51
270.0
  0
LINE
  5
215
330
17
100
AcDbEntity
  8
4
100
AcDbLine
 10
880.5234250400758
 20
1417.224948435606
 30
0.0
 11
902.823425040076
 21
1417.224948435606
 31
0.0
  0
LINE
  5
216
330
17
100
AcDbEntity
  8
4
100
AcDbLine
 10
911.5234250400758
 20
1424.724948435606
 30
0.0
 11
911.5234250400758
 21
1415.724948435606
 31
0.0
  0
ARC
  5
217
330
17
100
AcDbEntity
  8
4
100
AcDbCircle
 10
908.5234250400758
 20
1424.724948435606
 30
0.0
 40
3.0
100
AcDbArc
 50
0.0
 51
90.0
  0
ARC
  5
218
330
17
100
AcDbEntity
  8
4
100
AcDbCircle
 10
926.5234250400758
 20
1423.895365849138
 30
0.0
 40
5.0
100
AcDbArc
 50
0.0
 51
74.89820045619918
  0
ARC
  5
219
330
17
100
AcDbEntity
  8
4
100
AcDbCircle
 10
591.5234250400767
 20
894.2249484356059
 30
0.0
 40
1000.0
100
AcDbArc
 50
74.99665023079677
 51
105.0033497692032
  0
LINE
  5
21A
330
17
100
AcDbEntity
  8
4
100
AcDbLine
 10
256.5234250400767
 20
1887.724948435606
 30
0.0
 11
451.5234250400767
 21
1887.724948435606
 31
0.0
  0
LINE
  5
21B
330
17
100
AcDbEntity
  8
L-CENTER
 48
2.0
100
AcDbLine
 10
301.5234250400767
 20
1855.024948435606
 30
0.0
 11
301.5234250400767
 21
1800.424948435606
 31
0.0
  0
CIRCLE
  5
21C
330
17
100
AcDbEntity
  8
4
100
AcDbCircle
 10
301.5234250400767
 20
1827.724948435606
 30
0.0
 40
13.0
  0
LINE
  5
21D
330
17
100
AcDbEntity
  8
4
100
AcDbLine
 10
251.5234250400767
 20
1771.554531022075
 30
0.0
 11
251.5234250400767
 21
1882.724948435606
 31
0.0
  0
LINE
  5
21E
330
17
100
AcDbEntity
  8
4
100
AcDbLine
 10
255.220750879856
 20
1766.727208779641
 30
0.0
 11
307.1089550579836
 21
1752.724948435606
 31
0.0
  0
LINE
  5
21F
330
17
100
AcDbEntity
  8
4
100
AcDbLine
 10
274.5234250400767
 20
1782.724948435606
 30
0.0
 11
312.2849043744827
 21
1782.724948435606
 31
0.0
  0
LINE
  5
220
330
17
100
AcDbEntity
  8
4
100
AcDbLine
 10
274.5234250400767
 20
1767.724948435606
 30
0.0
 11
309.579362700666
 21
1767.724948435606
 31
0.0
  0
ARC
  5
221
330
17
100
AcDbEntity
  8
4
100
AcDbCircle
 10
274.5234250400767
 20
1779.724948435606
 30
0.0
 40
3.0
100
AcDbArc
 50
90.0
 51
180.0
  0
ARC
  5
222
330
17
100
AcDbEntity
  8
4
100
AcDbCircle
 10
274.5234250400767
 20
1770.724948435606
 30
0.0
 40
3.0
100
AcDbArc
 50
180.0
 51
270.0
  0
LINE
  5
223
330
17
100
AcDbEntity
  8
4
100
AcDbLine
 10
271.5234250400767
 20
1770.724948435606
 30
0.0
 11
271.5234250400767
 21
1779.724948435606
 31
0.0
  0
ARC
  5
224
330
17
100
AcDbEntity
  8
4
100
AcDbCircle
 10
256.5234250400767
 20
1771.554531022075
 30
0.0
 40
5.0
100
AcDbArc
 50
180.0
 51
254.8982004561998
  0
LINE
  5
225
330
17
100
AcDbEntity
  8
L-CENTER
 48
2.0
100
AcDbLine
 10
328.8234250400765
 20
1827.724948435606
 30
0.0
 11
274.2234250400766
 21
1827.724948435606
 31
0.0
  0
ARC
  5
226
330
17
100
AcDbEntity
  8
4
100
AcDbCircle
 10
256.5234250400767
 20
1882.724948435606
 30
0.0
 40
5.0
100
AcDbArc
 50
90.0
 51
180.0
  0
ARC
  5
227
330
17
100
AcDbEntity
  8
4
100
AcDbCircle
 10
333.9422855928956
 20
1855.306087882787
 30
0.0
 40
5.0
100
AcDbArc
 50
105.0033497691955
 51
164.9966502307959
  0
ARC
  5
228
330
17
100
AcDbEntity
  8
4
100
AcDbCircle
 10
333.9422855928956
 20
1855.306087882787
 30
0.0
 40
5.0
100
AcDbArc
 50
105.0033497692044
 51
164.9966502307959
  0
LINE
  5
229
330
17
100
AcDbEntity
  8
4
100
AcDbLine
 10
451.5234250400767
 20
1887.724948435606
 30
0.0
 11
451.5234250400767
 21
1884.376451994531
 31
0.0
  0
ARC
  5
22A
330
17
100
AcDbEntity
  8
4
100
AcDbCircle
 10
614.5234250400767
 20
1896.961204885925
 30
0.0
 40
3.0
100
AcDbArc
 50
180.0
 51
268.686023481121
  0
LINE
  5
22B
330
17
100
AcDbEntity
  8
4
100
AcDbLine
 10
571.5234250400767
 20
1899.724948435607
 30
0.0
 11
611.5234250400767
 21
1899.724948435607
 31
0.0
  0
LINE
  5
22C
330
17
100
AcDbEntity
  8
4
100
AcDbLine
 10
571.5234250400767
 20
1899.724948435607
 30
0.0
 11
571.5234250400767
 21
1896.961204885925
 31
0.0
  0
ARC
  5
22D
330
17
100
AcDbEntity
  8
4
100
AcDbCircle
 10
568.5234250400767
 20
1896.961204885925
 30
0.0
 40
3.0
100
AcDbArc
 50
271.313976518879
 51
0.0
  0
LINE
  5
22E
330
17
100
AcDbEntity
  8
4
100
AcDbLine
 10
611.5234250400767
 20
1899.724948435607
 30
0.0
 11
611.5234250400767
 21
1896.961204885925
 31
0.0
  0
LINE
  5
22F
330
17
100
AcDbEntity
  8
4
100
AcDbLine
 10
731.5234250400763
 20
1887.724948435606
 30
0.0
 11
926.5234250400758
 21
1887.724948435606
 31
0.0
  0
LINE
  5
230
330
17
100
AcDbEntity
  8
4
100
AcDbLine
 10
927.8260992002965
 20
1766.727208779641
 30
0.0
 11
875.9378950221694
 21
1752.724948435606
 31
0.0
  0
LINE
  5
231
330
17
100
AcDbEntity
  8
L-CENTER
 48
2.0
100
AcDbLine
 10
881.5234250400777
 20
1855.024948435606
 30
0.0
 11
881.5234250400777
 21
1800.424948435606
 31
0.0
  0
CIRCLE
  5
232
330
17
100
AcDbEntity
  8
4
100
AcDbCircle
 10
881.5234250400777
 20
1827.724948435606
 30
0.0
 40
13.0
  0
ARC
  5
233
330
17
100
AcDbEntity
  8
4
100
AcDbCircle
 10
908.5234250400758
 20
1779.724948435606
 30
0.0
 40
3.0
100
AcDbArc
 50
0.0
 51
90.0
  0
LINE
  5
234
330
17
100
AcDbEntity
  8
4
100
AcDbLine
 10
908.5234250400758
 20
1767.724948435606
 30
0.0
 11
873.467487379487
 21
1767.724948435606
 31
0.0
  0
LINE
  5
235
330
17
100
AcDbEntity
  8
4
100
AcDbLine
 10
911.5234250400758
 20
1770.724948435606
 30
0.0
 11
911.5234250400758
 21
1779.724948435606
 31
0.0
  0
ARC
  5
236
330
17
100
AcDbEntity
  8
4
100
AcDbCircle
 10
908.5234250400758
 20
1770.724948435606
 30
0.0
 40
3.0
100
AcDbArc
 50
270.0
 51
0.0
  0
LINE
  5
237
330
17
100
AcDbEntity
  8
4
100
AcDbLine
 10
908.5234250400758
 20
1782.724948435606
 30
0.0
 11
870.7619457056703
 21
1782.724948435606
 31
0.0
  0
LINE
  5
238
330
17
100
AcDbEntity
  8
4
100
AcDbLine
 10
731.5234250400763
 20
1887.724948435606
 30
0.0
 11
731.5234250400763
 21
1884.376451994531
 31
0.0
  0
LINE
  5
239
330
17
100
AcDbEntity
  8
L-CENTER
 48
2.0
100
AcDbLine
 10
854.2234250400766
 20
1827.724948435606
 30
0.0
 11
908.8234250400769
 21
1827.724948435606
 31
0.0
  0
ARC
  5
23A
330
17
100
AcDbEntity
  8
4
100
AcDbCircle
 10
849.1045644872579
 20
1855.306087882787
 30
0.0
 40
5.0
100
AcDbArc
 50
15.00334976920372
 51
74.99665023079561
  0
LINE
  5
23B
330
17
100
AcDbEntity
  8
4
100
AcDbLine
 10
931.5234250400758
 20
1771.554531022075
 30
0.0
 11
931.5234250400758
 21
1882.724948435606
 31
0.0
  0
ARC
  5
23C
330
17
100
AcDbEntity
  8
4
100
AcDbCircle
 10
926.5234250400758
 20
1771.554531022075
 30
0.0
 40
5.0
100
AcDbArc
 50
285.1017995438008
 51
0.0
  0
ARC
  5
23D
330
17
100
AcDbEntity
  8
4
100
AcDbCircle
 10
926.5234250400758
 20
1882.724948435606
 30
0.0
 40
5.0
100
AcDbArc
 50
0.0
 51
90.0
  0
ARC
  5
23E
330
17
100
AcDbEntity
  8
4
100
AcDbCircle
 10
849.1045644872579
 20
1340.143808988425
 30
0.0
 40
5.0
100
AcDbArc
 50
285.0033497692037
 51
344.9966502307963
  0
ARC
  5
23F
330
17
100
AcDbEntity
  8
4
100
AcDbCircle
 10
849.1045644872579
 20
1340.143808988425
 30
0.0
 40
5.0
100
AcDbArc
 50
285.0033497692037
 51
344.9966502307963
  0
LINE
  5
240
330
17
100
AcDbEntity
  8
4
100
AcDbLine
 10
601.5234250400767
 20
1266.724948435606
 30
0.0
 11
593.5234250400767
 21
1266.724948435606
 31
0.0
  0
ARC
  5
241
330
17
100
AcDbEntity
  8
4
100
AcDbCircle
 10
614.5234250400767
 20
1266.724948435606
 30
0.0
 40
21.0
100
AcDbArc
 50
0.0
 51
180.0
  0
LINE
  5
242
330
17
100
AcDbEntity
  8
4
100
AcDbLine
 10
601.5234250400767
 20
1240.724948435606
 30
0.0
 11
593.5234250400767
 21
1240.724948435606
 31
0.0
  0
ARC
  5
243
330
17
100
AcDbEntity
  8
4
100
AcDbCircle
 10
614.5234250400767
 20
1240.724948435606
 30
0.0
 40
21.0
100
AcDbArc
 50
180.0
 51
0.0
  0
LINE
  5
244
330
17
100
AcDbEntity
  8
4
100
AcDbLine
 10
667.5234250400767
 20
1219.724948435606
 30
0.0
 11
667.5234250400767
 21
1279.724948435606
 31
0.0
  0
LINE
  5
245
330
17
100
AcDbEntity
  8
4
100
AcDbLine
 10
675.5234250400767
 20
1219.724948435606
 30
0.0
 11
675.5234250400767
 21
1287.724948435606
 31
0.0
  0
ARC
  5
246
330
17
100
AcDbEntity
  8
4
100
AcDbCircle
 10
614.5234250400767
 20
1266.724948435606
 30
0.0
 40
13.0
100
AcDbArc
 50
0.0
 51
180.0
  0
ARC
  5
247
330
17
100
AcDbEntity
  8
4
100
AcDbCircle
 10
614.5234250400767
 20
1240.724948435606
 30
0.0
 40
13.0
100
AcDbArc
 50
180.0
 51
0.0
  0
LINE
  5
248
330
17
100
AcDbEntity
  8
4
100
AcDbLine
 10
627.5234250400767
 20
1266.724948435606
 30
0.0
 11
627.5234250400767
 21
1240.724948435606
 31
0.0
  0
LINE
  5
249
330
17
100
AcDbEntity
  8
4
100
AcDbLine
 10
635.5234250400767
 20
1266.724948435606
 30
0.0
 11
635.5234250400767
 21
1240.724948435606
 31
0.0
  0
LINE
  5
24A
330
17
100
AcDbEntity
  8
4
100
AcDbLine
 10
675.5234250400767
 20
1219.724948435606
 30
0.0
 11
667.5234250400767
 21
1219.724948435606
 31
0.0
  0
LINE
  5
24B
330
17
100
AcDbEntity
  8
4
100
AcDbLine
 10
667.5234250400767
 20
1279.724948435606
 30
0.0
 11
639.5234250400767
 21
1279.724948435606
 31
0.0
  0
LINE
  5
24C
330
17
100
AcDbEntity
  8
4
100
AcDbLine
 10
675.5234250400767
 20
1287.724948435606
 30
0.0
 11
639.5234250400767
 21
1287.724948435606
 31
0.0
  0
LINE
  5
24D
330
17
100
AcDbEntity
  8
4
100
AcDbLine
 10
639.5234250400767
 20
1279.724948435606
 30
0.0
 11
639.5234250400767
 21
1287.724948435606
 31
0.0
  0
LINE
  5
24E
330
17
100
AcDbEntity
  8
4
100
AcDbLine
 10
878.5234250400767
 20
1185.724948435606
 30
0.0
 11
878.5234250400767
 21
1282.724948435606
 31
0.0
  0
LINE
  5
24F
330
17
100
AcDbEntity
  8
4
100
AcDbLine
 10
878.5234250400767
 20
1322.724948435606
 30
0.0
 11
878.5234250400767
 21
1460.212221751854
 31
0.0
  0
ARC
  5
250
330
17
100
AcDbEntity
  8
4
100
AcDbCircle
 10
199.5234250400767
 20
1597.724948435606
 30
0.0
 40
500.0
100
AcDbArc
 50
348.8981303845912
 51
11.10186961540886
  0
ARC
  5
251
330
17
100
AcDbEntity
  8
4
100
AcDbCircle
 10
206.5234250400767
 20
1597.724948435606
 30
0.0
 40
500.0
100
AcDbArc
 50
348.2133909687814
 51
11.80489633831079
  0
ARC
  5
252
330
17
100
AcDbEntity
  8
4
100
AcDbCircle
 10
983.5234250400767
 20
1597.724948435606
 30
0.0
 40
500.0
100
AcDbArc
 50
168.8981303845912
 51
191.1018696154088
  0
ARC
  5
253
330
17
100
AcDbEntity
  8
4
100
AcDbCircle
 10
976.5234250400767
 20
1597.724948435606
 30
0.0
 40
500.0
100
AcDbArc
 50
168.1951036616891
 51
191.7866090312186
  0
CIRCLE
  5
254
330
17
100
AcDbEntity
  8
L-CENTER
 48
2.0
100
AcDbCircle
 10
591.5234250400767
 20
1597.724948435606
 30
0.0
 40
278.5
  0
CIRCLE
  5
255
330
17
100
AcDbEntity
  8
4
100
AcDbCircle
 10
591.5234250400767
 20
1597.724948435606
 30
0.0
 40
263.5
  0
CIRCLE
  5
256
330
17
100
AcDbEntity
  8
4
100
AcDbCircle
 10
591.5234250400767
 20
1597.724948435606
 30
0.0
 40
295.5
  0
LINE
  5
257
330
17
100
AcDbEntity
  8
L-CENTER
 48
2.0
100
AcDbLine
 10
629.46452142914
 20
1382.724948435606
 30
0.0
 11
553.5823286510135
 21
1382.724948435606
 31
0.0
  0
CIRCLE
  5
258
330
17
100
AcDbEntity
  8
4
100
AcDbCircle
 10
591.5234250400767
 20
1597.724948435606
 30
0.0
 40
65.0
  0
ARC
  5
259
330
17
100
AcDbEntity
  8
4
100
AcDbCircle
 10
591.5234250400767
 20
1982.724948435606
 30
0.0
 40
500.0
100
AcDbArc
 50
258.2133909687814
 51
281.7866090312186
  0
ARC
  5
25A
330
17
100
AcDbEntity
  8
4
100
AcDbCircle
 10
591.5234250400767
 20
1989.724948435606
 30
0.0
 40
500.0
100
AcDbArc
 50
258.8981303845912
 51
281.1018696154088
  0
LINE
  5
25B
330
17
100
AcDbEntity
  8
L-CENTER
 48
2.0
100
AcDbLine
 10
440.6313121567532
 20
1336.372142460271
 30
0.0
 11
463.9155379234007
 21
1376.701604503009
 31
0.0
  0
LINE
  5
25C
330
17
100
AcDbEntity
  8
4
100
AcDbLine
 10
533.4350301514519
 20
1346.174711753083
 30
0.0
 11
519.327741359451
 21
1480.428288097288
 31
0.0
  0
ARC
  5
25D
330
17
100
AcDbEntity
  8
4
100
AcDbCircle
 10
529.4569323115493
 20
1345.756695513973
 30
0.0
 40
4.0
100
AcDbArc
 50
256.1620147383562
 51
5.998594083043264
  0
LINE
  5
25E
330
17
100
AcDbEntity
  8
4
100
AcDbLine
 10
339.9731883575537
 20
1539.636553546982
 30
0.0
 11
474.2267647017593
 21
1525.52926475498
 31
0.0
  0
ARC
  5
25F
330
17
100
AcDbEntity
  8
4
100
AcDbCircle
 10
494.9725747593093
 20
1501.174098154838
 30
0.0
 40
2.0
100
AcDbArc
 50
191.1791407569922
 51
258.8208592429918
  0
ARC
  5
260
330
17
100
AcDbEntity
  8
4
100
AcDbCircle
 10
495.8240935358717
 20
1502.025616931401
 30
0.0
 40
3.0
100
AcDbArc
 50
191.1018696154183
 51
258.8981303845899
  0
ARC
  5
261
330
17
100
AcDbEntity
  8
4
100
AcDbCircle
 10
489.1577776682611
 20
1495.35930106379
 30
0.0
 40
2.0
100
AcDbArc
 50
191.8619028382972
 51
258.1380971617123
  0
ARC
  5
262
330
17
100
AcDbEntity
  8
4
100
AcDbCircle
 10
490.0025924448332
 20
1496.204115840362
 30
0.0
 40
3.0
100
AcDbArc
 50
191.7866090312037
 51
258.2133909687779
  0
ARC
  5
263
330
17
100
AcDbEntity
  8
4
100
AcDbCircle
 10
473.1817241039862
 20
1515.584020155222
 30
0.0
 40
10.0
100
AcDbArc
 50
9.268465124024724
 51
84.00140591696209
  0
ARC
  5
264
330
17
100
AcDbEntity
  8
4
100
AcDbCircle
 10
509.3824967596934
 20
1479.383247499515
 30
0.0
 40
10.0
100
AcDbArc
 50
5.998594083037969
 51
80.73153487597777
  0
LINE
  5
265
330
17
100
AcDbEntity
  8
4
100
AcDbLine
 10
339.9731883575537
 20
1655.813343324231
 30
0.0
 11
474.2267647017593
 21
1669.920632116231
 31
0.0
  0
CIRCLE
  5
266
330
17
100
AcDbEntity
  8
4
100
AcDbCircle
 10
386.5234250400767
 20
1597.724948435606
 30
0.0
 40
25.0
  0
LINE
  5
267
330
17
100
AcDbEntity
  8
L-CENTER
 48
2.0
100
AcDbLine
 10
386.5234250400767
 20
1639.462192699259
 30
0.0
 11
386.5234250400767
 21
1553.296458226284
 31
0.0
  0
ARC
  5
268
330
17
100
AcDbEntity
  8
4
100
AcDbCircle
 10
339.5551721184447
 20
1535.658455707078
 30
0.0
 40
4.0
100
AcDbArc
 50
84.00140591696338
 51
193.8379852616422
  0
ARC
  5
269
330
17
100
AcDbEntity
  8
4
100
AcDbCircle
 10
339.5551721184447
 20
1659.791441164133
 30
0.0
 40
4.0
100
AcDbArc
 50
166.1620147383578
 51
275.9985940830366
  0
ARC
  5
26A
330
17
100
AcDbEntity
  8
4
100
AcDbCircle
 10
473.1817241039862
 20
1679.865876715989
 30
0.0
 40
10.0
100
AcDbArc
 50
275.9985940830405
 51
350.7315348759805
  0
LINE
  5
26B
330
17
100
AcDbEntity
  8
L-CENTER
 48
2.0
100
AcDbLine
 10
742.4155379234007
 20
1336.37214246027
 30
0.0
 11
719.1313121567528
 21
1376.701604503008
 31
0.0
  0
ARC
  5
26C
330
17
100
AcDbEntity
  8
4
100
AcDbCircle
 10
591.5234250400767
 20
1382.724948435606
 30
0.0
 40
25.0
100
AcDbArc
 50
108.6629248849426
 51
251.3370751150554
  0
LINE
  5
26D
330
17
100
AcDbEntity
  8
4
100
AcDbLine
 10
649.6118199287007
 20
1346.174711753083
 30
0.0
 11
663.7191087207025
 21
1480.428288097288
 31
0.0
  0
ARC
  5
26E
330
17
100
AcDbEntity
  8
4
100
AcDbCircle
 10
653.5899177686038
 20
1345.756695513973
 30
0.0
 40
4.0
100
AcDbArc
 50
174.0014059169567
 51
283.8379852616438
  0
LINE
  5
26F
330
17
100
AcDbEntity
  8
4
100
AcDbLine
 10
843.0736617225998
 20
1539.636553546982
 30
0.0
 11
708.8200853783942
 21
1525.52926475498
 31
0.0
  0
LINE
  5
270
330
17
100
AcDbEntity
  8
4
100
AcDbLine
 10
843.0736617225998
 20
1655.813343324231
 30
0.0
 11
708.8200853783942
 21
1669.920632116231
 31
0.0
  0
ARC
  5
271
330
17
100
AcDbEntity
  8
4
100
AcDbCircle
 10
673.6643533204601
 20
1479.383247499515
 30
0.0
 40
10.0
100
AcDbArc
 50
99.2684651240248
 51
174.001405916962
  0
ARC
  5
272
330
17
100
AcDbEntity
  8
4
100
AcDbCircle
 10
688.0742753208438
 20
1501.174098154838
 30
0.0
 40
2.0
100
AcDbArc
 50
281.1791407570082
 51
348.8208592430078
  0
ARC
  5
273
330
17
100
AcDbEntity
  8
4
100
AcDbCircle
 10
687.2227565442813
 20
1502.025616931401
 30
0.0
 40
3.0
100
AcDbArc
 50
281.1018696154101
 51
348.8981303845817
  0
ARC
  5
274
330
17
100
AcDbEntity
  8
4
100
AcDbCircle
 10
693.8890724118924
 20
1495.35930106379
 30
0.0
 40
2.0
100
AcDbArc
 50
281.8619028382877
 51
348.1380971617028
  0
ARC
  5
275
330
17
100
AcDbEntity
  8
4
100
AcDbCircle
 10
693.8890724118924
 20
1495.35930106379
 30
0.0
 40
2.0
100
AcDbArc
 50
281.8619028382877
 51
348.1380971617028
  0
ARC
  5
276
330
17
100
AcDbEntity
  8
4
100
AcDbCircle
 10
693.0442576353194
 20
1496.204115840362
 30
0.0
 40
3.0
100
AcDbArc
 50
281.786609031222
 51
348.2133909687784
  0
ARC
  5
277
330
17
100
AcDbEntity
  8
4
100
AcDbCircle
 10
709.8651259761668
 20
1515.584020155222
 30
0.0
 40
10.0
100
AcDbArc
 50
95.99859408303791
 51
170.7315348759805
  0
ARC
  5
278
330
17
100
AcDbEntity
  8
4
100
AcDbCircle
 10
709.8651259761668
 20
1679.865876715989
 30
0.0
 40
10.0
100
AcDbArc
 50
189.2684651240247
 51
264.0014059169621
  0
ARC
  5
279
330
17
100
AcDbEntity
  8
4
100
AcDbCircle
 10
843.4916779617083
 20
1535.658455707078
 30
0.0
 40
4.0
100
AcDbArc
 50
346.1620147383578
 51
95.99859408303661
  0
ARC
  5
27A
330
17
100
AcDbEntity
  8
4
100
AcDbCircle
 10
843.4916779617083
 20
1659.791441164133
 30
0.0
 40
4.0
100
AcDbArc
 50
264.0014059169634
 51
13.83798526164223
  0
LINE
  5
27B
330
17
100
AcDbEntity
  8
L-CENTER
 48
2.0
100
AcDbLine
 10
553.5823286510135
 20
1812.724948435606
 30
0.0
 11
629.46452142914
 21
1812.724948435606
 31
0.0
  0
ARC
  5
27C
330
17
100
AcDbEntity
  8
4
100
AcDbCircle
 10
591.5234250400767
 20
1205.724948435606
 30
0.0
 40
500.0
100
AcDbArc
 50
78.89813038459117
 51
101.1018696154088
  0
ARC
  5
27D
330
17
100
AcDbEntity
  8
4
100
AcDbCircle
 10
591.5234250400767
 20
1205.724948435606
 30
0.0
 40
507.0
100
AcDbArc
 50
78.38315647824388
 51
101.6168435217561
  0
LINE
  5
27E
330
17
100
AcDbEntity
  8
4
100
AcDbLine
 10
533.4350301514528
 20
1849.27518511813
 30
0.0
 11
519.327741359451
 21
1715.021608773923
 31
0.0
  0
ARC
  5
27F
330
17
100
AcDbEntity
  8
4
100
AcDbCircle
 10
489.1577776682611
 20
1700.090595807421
 30
0.0
 40
2.0
100
AcDbArc
 50
101.861902838294
 51
168.1380971617028
  0
ARC
  5
280
330
17
100
AcDbEntity
  8
4
100
AcDbCircle
 10
489.1908648848589
 20
1700.247998588051
 30
0.0
 40
2.0
100
AcDbArc
 50
101.6913075314826
 51
168.1195919159414
  0
ARC
  5
281
330
17
100
AcDbEntity
  8
4
100
AcDbCircle
 10
490.0350200074804
 20
1699.401060521191
 30
0.0
 40
3.0
100
AcDbArc
 50
101.6168435217561
 51
168.1951036616782
  0
ARC
  5
282
330
17
100
AcDbEntity
  8
4
100
AcDbCircle
 10
494.9725747593093
 20
1694.275798716373
 30
0.0
 40
2.0
100
AcDbArc
 50
101.1791407570018
 51
168.8208592430078
  0
ARC
  5
283
330
17
100
AcDbEntity
  8
4
100
AcDbCircle
 10
495.8240935358717
 20
1693.42427993981
 30
0.0
 40
3.0
100
AcDbArc
 50
101.1018696154102
 51
168.8981303845817
  0
ARC
  5
284
330
17
100
AcDbEntity
  8
4
100
AcDbCircle
 10
509.3824967596934
 20
1716.066649371696
 30
0.0
 40
10.0
100
AcDbArc
 50
279.2684651240248
 51
354.0014059169621
  0
LINE
  5
285
330
17
100
AcDbEntity
  8
L-CENTER
 48
2.0
100
AcDbLine
 10
440.6313121567528
 20
1859.077754410941
 30
0.0
 11
463.9155379234007
 21
1818.748292368203
 31
0.0
  0
ARC
  5
286
330
17
100
AcDbEntity
  8
4
100
AcDbCircle
 10
529.4569323115493
 20
1849.693201357238
 30
0.0
 40
4.0
100
AcDbArc
 50
354.0014059169699
 51
103.8379852616407
  0
LINE
  5
287
330
17
100
AcDbEntity
  8
4
100
AcDbLine
 10
649.6118199287016
 20
1849.275185118129
 30
0.0
 11
663.7191087207025
 21
1715.021608773923
 31
0.0
  0
ARC
  5
288
330
17
100
AcDbEntity
  8
4
100
AcDbCircle
 10
673.6643533204601
 20
1716.066649371696
 30
0.0
 40
10.0
100
AcDbArc
 50
185.998594083038
 51
260.7315348759778
  0
ARC
  5
289
330
17
100
AcDbEntity
  8
4
100
AcDbCircle
 10
653.5899177686038
 20
1849.693201357238
 30
0.0
 40
4.0
100
AcDbArc
 50
76.16201473835936
 51
185.9985940830301
  0
ARC
  5
28A
330
17
100
AcDbEntity
  8
4
100
AcDbCircle
 10
693.8890724118924
 20
1700.090595807421
 30
0.0
 40
2.0
100
AcDbArc
 50
11.8619028382972
 51
78.13809716170597
  0
ARC
  5
28B
330
17
100
AcDbEntity
  8
4
100
AcDbCircle
 10
693.8890724118924
 20
1700.090595807421
 30
0.0
 40
2.0
100
AcDbArc
 50
11.8619028382972
 51
78.13809716170597
  0
ARC
  5
28C
330
17
100
AcDbEntity
  8
4
100
AcDbCircle
 10
693.8559851952946
 20
1700.247998588051
 30
0.0
 40
2.0
100
AcDbArc
 50
11.8804080840586
 51
78.30869246851736
  0
ARC
  5
28D
330
17
100
AcDbEntity
  8
4
100
AcDbCircle
 10
693.0118300726731
 20
1699.401060521191
 30
0.0
 40
3.0
100
AcDbArc
 50
11.80489633832179
 51
78.38315647824389
  0
ARC
  5
28E
330
17
100
AcDbEntity
  8
4
100
AcDbCircle
 10
688.0742753208438
 20
1694.275798716373
 30
0.0
 40
2.0
100
AcDbArc
 50
11.17914075699222
 51
78.8208592429982
  0
ARC
  5
28F
330
17
100
AcDbEntity
  8
4
100
AcDbCircle
 10
687.2227565442813
 20
1693.42427993981
 30
0.0
 40
3.0
100
AcDbArc
 50
11.10186961540083
 51
78.89813038458983
  0
LINE
  5
290
330
17
100
AcDbEntity
  8
L-CENTER
 48
2.0
100
AcDbLine
 10
742.4155379234007
 20
1859.077754410941
 30
0.0
 11
719.1313121567528
 21
1818.748292368203
 31
0.0
  0
LINE
  5
291
330
17
100
AcDbEntity
  8
4
100
AcDbLine
 10
903.823425040076
 20
1189.224948435606
 30
0.0
 11
903.823425040076
 21
1416.224948435606
 31
0.0
  0
LINE
  5
292
330
17
100
AcDbEntity
  8
4
100
AcDbLine
 10
279.2234250400766
 20
1189.224948435606
 30
0.0
 11
279.2234250400766
 21
1416.224948435606
 31
0.0
  0
ARC
  5
293
330
17
100
AcDbEntity
  8
4
100
AcDbCircle
 10
902.823425040076
 20
1416.224948435606
 30
0.0
 40
1.0
100
AcDbArc
 50
0.0
 51
90.0
  0
ARC
  5
294
330
17
100
AcDbEntity
  8
4
100
AcDbCircle
 10
902.823425040076
 20
1189.224948435606
 30
0.0
 40
1.0
100
AcDbArc
 50
270.0
 51
0.0
  0
ARC
  5
295
330
17
100
AcDbEntity
  8
4
100
AcDbCircle
 10
280.2234250400766
 20
1416.224948435606
 30
0.0
 40
1.0
100
AcDbArc
 50
90.0
 51
180.0
  0
ARC
  5
296
330
17
100
AcDbEntity
  8
4
100
AcDbCircle
 10
280.2234250400766
 20
1189.224948435606
 30
0.0
 40
1.0
100
AcDbArc
 50
180.0
 51
270.0
  0
LINE
  5
297
330
17
100
AcDbEntity
  8
4
100
AcDbLine
 10
269.3606059507038
 20
1392.647100870335
 30
0.0
 11
276.223425040077
 21
1392.647100870335
 31
0.0
  0
LINE
  5
298
330
17
100
AcDbEntity
  8
4
100
AcDbLine
 10
279.223425040077
 20
1398.131928427636
 30
0.0
 11
269.3606059507038
 21
1398.131928427636
 31
0.0
  0
LINE
  5
299
330
17
100
AcDbEntity
  8
4
100
AcDbLine
 10
269.3606059507038
 20
1381.677445755733
 30
0.0
 11
276.223425040077
 21
1381.677445755733
 31
0.0
  0
LINE
  5
29A
330
17
100
AcDbEntity
  8
4
100
AcDbLine
 10
269.3606059507038
 20
1376.19261819843
 30
0.0
 11
279.223425040077
 21
1376.19261819843
 31
0.0
  0
ARC
  5
29B
330
17
100
AcDbEntity
  8
4
100
AcDbCircle
 10
272.0988039153563
 20
1395.389514648986
 30
0.0
 40
3.875378875279264
100
AcDbArc
 50
134.9559267627375
 51
225.044073237253
  0
ARC
  5
29C
330
17
100
AcDbEntity
  8
4
100
AcDbCircle
 10
282.0191691752543
 20
1387.162273313034
 30
0.0
 40
13.7957441351769
100
AcDbArc
 50
156.5734024913727
 51
203.4265975086273
  0
LINE
  5
29D
330
17
100
AcDbEntity
  8
4
100
AcDbLine
 10
268.223425040077
 20
1395.389514648986
 30
0.0
 11
268.223425040077
 21
1378.935031977082
 31
0.0
  0
ARC
  5
29E
330
17
100
AcDbEntity
  8
4
100
AcDbCircle
 10
272.0988039153563
 20
1378.935031977082
 30
0.0
 40
3.875378875279244
100
AcDbArc
 50
134.9559267627375
 51
225.044073237253
  0
LINE
  5
29F
330
17
100
AcDbEntity
  8
4
100
AcDbLine
 10
279.223425040077
 20
1376.19261819843
 30
0.0
 11
279.223425040077
 21
1398.131928427636
 31
0.0
  0
LINE
  5
2A0
330
17
100
AcDbEntity
  8
4
100
AcDbLine
 10
276.223425040077
 20
1376.19261819843
 30
0.0
 11
276.223425040077
 21
1398.131928427636
 31
0.0
  0
LINE
  5
2A1
330
17
100
AcDbEntity
  8
L-CENTER
 48
2.0
100
AcDbLine
 10
264.6225851599729
 20
1387.162273313034
 30
0.0
 11
314.9641790064607
 21
1387.162273313034
 31
0.0
  0
LINE
  5
2A2
330
17
100
AcDbEntity
  8
L-CENTER
 48
2.0
100
AcDbLine
 10
264.6225851599725
 20
1218.287595816319
 30
0.0
 11
314.9641790064607
 21
1218.287595816319
 31
0.0
  0
LINE
  5
2A3
330
17
100
AcDbEntity
  8
4
100
AcDbLine
 10
276.2234250400766
 20
1207.317940701716
 30
0.0
 11
276.2234250400766
 21
1229.257250930922
 31
0.0
  0
LINE
  5
2A4
330
17
100
AcDbEntity
  8
4
100
AcDbLine
 10
279.2234250400766
 20
1207.317940701716
 30
0.0
 11
279.2234250400766
 21
1229.257250930922
 31
0.0
  0
ARC
  5
2A5
330
17
100
AcDbEntity
  8
4
100
AcDbCircle
 10
272.0988039153558
 20
1210.060354480367
 30
0.0
 40
3.875378875279244
100
AcDbArc
 50
134.955926762747
 51
225.0440732372626
  0
LINE
  5
2A6
330
17
100
AcDbEntity
  8
4
100
AcDbLine
 10
268.2234250400766
 20
1226.514837152271
 30
0.0
 11
268.2234250400766
 21
1210.060354480367
 31
0.0
  0
ARC
  5
2A7
330
17
100
AcDbEntity
  8
4
100
AcDbCircle
 10
282.0191691752539
 20
1218.287595816319
 30
0.0
 40
13.7957441351769
100
AcDbArc
 50
156.5734024913727
 51
203.4265975086273
  0
ARC
  5
2A8
330
17
100
AcDbEntity
  8
4
100
AcDbCircle
 10
272.0988039153558
 20
1226.514837152271
 30
0.0
 40
3.875378875279264
100
AcDbArc
 50
134.955926762747
 51
225.0440732372626
  0
LINE
  5
2A9
330
17
100
AcDbEntity
  8
4
100
AcDbLine
 10
269.3606059507033
 20
1207.317940701716
 30
0.0
 11
279.2234250400766
 21
1207.317940701716
 31
0.0
  0
LINE
  5
2AA
330
17
100
AcDbEntity
  8
4
100
AcDbLine
 10
269.3606059507033
 20
1212.802768259018
 30
0.0
 11
276.2234250400766
 21
1212.802768259018
 31
0.0
  0
LINE
  5
2AB
330
17
100
AcDbEntity
  8
4
100
AcDbLine
 10
279.2234250400766
 20
1229.257250930922
 30
0.0
 11
269.3606059507033
 21
1229.257250930922
 31
0.0
  0
LINE
  5
2AC
330
17
100
AcDbEntity
  8
4
100
AcDbLine
 10
269.3606059507033
 20
1223.77242337362
 30
0.0
 11
276.2234250400766
 21
1223.77242337362
 31
0.0
  0
LINE
  5
2AD
330
17
100
AcDbEntity
  8
4
100
AcDbLine
 10
276.2234250400766
 20
1291.755293321002
 30
0.0
 11
276.2234250400766
 21
1313.694603550208
 31
0.0
  0
LINE
  5
2AE
330
17
100
AcDbEntity
  8
4
100
AcDbLine
 10
279.2234250400766
 20
1291.755293321002
 30
0.0
 11
279.2234250400766
 21
1313.694603550208
 31
0.0
  0
ARC
  5
2AF
330
17
100
AcDbEntity
  8
4
100
AcDbCircle
 10
272.0988039153558
 20
1294.497707099653
 30
0.0
 40
3.875378875279244
100
AcDbArc
 50
134.9559267627375
 51
225.044073237253
  0
LINE
  5
2B0
330
17
100
AcDbEntity
  8
4
100
AcDbLine
 10
268.2234250400766
 20
1310.952189771558
 30
0.0
 11
268.2234250400766
 21
1294.497707099653
 31
0.0
  0
ARC
  5
2B1
330
17
100
AcDbEntity
  8
4
100
AcDbCircle
 10
282.0191691752539
 20
1302.724948435606
 30
0.0
 40
13.7957441351769
100
AcDbArc
 50
156.5734024913727
 51
203.4265975086273
  0
ARC
  5
2B2
330
17
100
AcDbEntity
  8
4
100
AcDbCircle
 10
272.0988039153558
 20
1310.952189771558
 30
0.0
 40
3.875378875279264
100
AcDbArc
 50
134.9559267627375
 51
225.044073237253
  0
LINE
  5
2B3
330
17
100
AcDbEntity
  8
4
100
AcDbLine
 10
269.3606059507033
 20
1291.755293321002
 30
0.0
 11
279.2234250400766
 21
1291.755293321002
 31
0.0
  0
LINE
  5
2B4
330
17
100
AcDbEntity
  8
4
100
AcDbLine
 10
269.3606059507033
 20
1297.240120878304
 30
0.0
 11
276.2234250400766
 21
1297.240120878304
 31
0.0
  0
LINE
  5
2B5
330
17
100
AcDbEntity
  8
4
100
AcDbLine
 10
279.2234250400766
 20
1313.694603550208
 30
0.0
 11
269.3606059507033
 21
1313.694603550208
 31
0.0
  0
LINE
  5
2B6
330
17
100
AcDbEntity
  8
4
100
AcDbLine
 10
269.3606059507033
 20
1308.209775992907
 30
0.0
 11
276.2234250400766
 21
1308.209775992907
 31
0.0
  0
LINE
  5
2B7
330
17
100
AcDbEntity
  8
4
100
AcDbLine
 10
1039.523424904781
 20
1271.224948445119
 30
0.0
 11
921.523424940417
 21
1271.224948445119
 31
0.0
  0
LINE
  5
2B8
330
17
100
AcDbEntity
  8
4
100
AcDbLine
 10
904.8234249455504
 20
1270.224948445421
 30
0.0
 11
921.523424940417
 21
1270.224948445421
 31
0.0
  0
LINE
  5
2B9
330
17
100
AcDbEntity
  8
4
100
AcDbLine
 10
921.523424940417
 20
1335.22494842579
 30
0.0
 11
921.523424940417
 21
1270.224948445421
 31
0.0
  0
LINE
  5
2BA
330
17
100
AcDbEntity
  8
4
100
AcDbLine
 10
1039.523424904781
 20
1271.224948445119
 30
0.0
 11
1039.523424904781
 21
1293.724948435606
 31
0.0
  0
LINE
  5
2BB
330
17
100
AcDbEntity
  8
4
100
AcDbLine
 10
1041.523424904176
 20
1273.224948444514
 30
0.0
 11
1041.523424904176
 21
1332.224948426697
 31
0.0
  0
LINE
  5
2BC
330
17
100
AcDbEntity
  8
4
100
AcDbLine
 10
1041.523424904176
 20
1273.224948444514
 30
0.0
 11
1039.523424904781
 21
1271.224948445119
 31
0.0
  0
LINE
  5
2BD
330
17
100
AcDbEntity
  8
4
100
AcDbLine
 10
1039.523424904781
 20
1334.224948426092
 30
0.0
 11
921.523424940417
 21
1334.224948426092
 31
0.0
  0
LINE
  5
2BE
330
17
100
AcDbEntity
  8
4
100
AcDbLine
 10
904.8234249455504
 20
1335.22494842579
 30
0.0
 11
921.523424940417
 21
1335.22494842579
 31
0.0
  0
LINE
  5
2BF
330
17
100
AcDbEntity
  8
4
100
AcDbLine
 10
904.8234249455504
 20
1347.724948435607
 30
0.0
 11
904.8234249455504
 21
1313.694603550231
 31
0.0
  0
LINE
  5
2C0
330
17
100
AcDbEntity
  8
4
100
AcDbLine
 10
1041.523424904176
 20
1332.224948426697
 30
0.0
 11
1039.523424904781
 21
1334.224948426093
 31
0.0
  0
LINE
  5
2C1
330
17
100
AcDbEntity
  8
4
100
AcDbLine
 10
1039.523424904781
 20
1311.724948435606
 30
0.0
 11
1039.523424904781
 21
1334.224948426092
 31
0.0
  0
LINE
  5
2C2
330
17
100
AcDbEntity
  8
4
100
AcDbLine
 10
903.823425040076
 20
1347.724948435606
 30
0.0
 11
904.8234249455504
 21
1347.724948435606
 31
0.0
  0
LINE
  5
2C3
330
17
100
AcDbEntity
  8
4
100
AcDbLine
 10
903.823425040076
 20
1257.724948435607
 30
0.0
 11
904.8234249455504
 21
1257.724948435607
 31
0.0
  0
LINE
  5
2C4
330
17
100
AcDbEntity
  8
L-CENTER
 48
2.0
100
AcDbLine
 10
918.4242649201838
 20
1387.162273313058
 30
0.0
 11
868.082671073696
 21
1387.162273313054
 31
0.0
  0
LINE
  5
2C5
330
17
100
AcDbEntity
  8
4
100
AcDbLine
 10
906.8234250400806
 20
1376.192618198453
 30
0.0
 11
906.8234250400787
 21
1398.131928427659
 31
0.0
  0
LINE
  5
2C6
330
17
100
AcDbEntity
  8
4
100
AcDbLine
 10
903.8234250400806
 20
1376.192618198453
 30
0.0
 11
903.8234250400787
 21
1398.131928427659
 31
0.0
  0
ARC
  5
2C7
330
17
100
AcDbEntity
  8
4
100
AcDbCircle
 10
910.9480461648013
 20
1378.935031977105
 30
0.0
 40
3.875378875279244
100
AcDbArc
 50
314.955926762738
 51
45.04407323727145
  0
LINE
  5
2C8
330
17
100
AcDbEntity
  8
4
100
AcDbLine
 10
914.8234250400787
 20
1395.38951464901
 30
0.0
 11
914.8234250400806
 21
1378.935031977105
 31
0.0
  0
ARC
  5
2C9
330
17
100
AcDbEntity
  8
4
100
AcDbCircle
 10
901.0276809049024
 20
1387.162273313057
 30
0.0
 40
13.7957441351769
100
AcDbArc
 50
336.5734024913767
 51
23.42659750862713
  0
ARC
  5
2CA
330
17
100
AcDbEntity
  8
4
100
AcDbCircle
 10
910.9480461648004
 20
1395.38951464901
 30
0.0
 40
3.875378875279264
100
AcDbArc
 50
314.955926762738
 51
45.04407323727145
  0
LINE
  5
2CB
330
17
100
AcDbEntity
  8
4
100
AcDbLine
 10
913.6862441294538
 20
1376.192618198454
 30
0.0
 11
903.8234250400806
 21
1376.192618198453
 31
0.0
  0
LINE
  5
2CC
330
17
100
AcDbEntity
  8
4
100
AcDbLine
 10
913.6862441294538
 20
1381.677445755756
 30
0.0
 11
906.8234250400806
 21
1381.677445755755
 31
0.0
  0
LINE
  5
2CD
330
17
100
AcDbEntity
  8
4
100
AcDbLine
 10
903.8234250400787
 20
1398.131928427659
 30
0.0
 11
913.686244129452
 21
1398.13192842766
 31
0.0
  0
LINE
  5
2CE
330
17
100
AcDbEntity
  8
4
100
AcDbLine
 10
913.6862441294529
 20
1392.647100870359
 30
0.0
 11
906.8234250400797
 21
1392.647100870358
 31
0.0
  0
LINE
  5
2CF
330
17
100
AcDbEntity
  8
4
100
AcDbLine
 10
913.6862441294593
 20
1308.209775992931
 30
0.0
 11
906.823425040086
 21
1308.20977599293
 31
0.0
  0
LINE
  5
2D0
330
17
100
AcDbEntity
  8
4
100
AcDbLine
 10
903.823425040086
 20
1313.694603550231
 30
0.0
 11
913.6862441294584
 21
1313.694603550232
 31
0.0
  0
LINE
  5
2D1
330
17
100
AcDbEntity
  8
4
100
AcDbLine
 10
913.6862441294602
 20
1297.240120878328
 30
0.0
 11
906.8234250400869
 21
1297.240120878327
 31
0.0
  0
LINE
  5
2D2
330
17
100
AcDbEntity
  8
4
100
AcDbLine
 10
913.6862441294602
 20
1291.755293321026
 30
0.0
 11
903.8234250400869
 21
1291.755293321025
 31
0.0
  0
ARC
  5
2D3
330
17
100
AcDbEntity
  8
4
100
AcDbCircle
 10
910.9480461648068
 20
1310.952189771582
 30
0.0
 40
3.875378875279264
100
AcDbArc
 50
314.955926762738
 51
45.04407323727145
  0
ARC
  5
2D4
330
17
100
AcDbEntity
  8
4
100
AcDbCircle
 10
901.0276809049087
 20
1302.724948435628
 30
0.0
 40
13.7957441351769
100
AcDbArc
 50
336.5734024913767
 51
23.42659750863135
  0
LINE
  5
2D5
330
17
100
AcDbEntity
  8
4
100
AcDbLine
 10
914.823425040086
 20
1310.952189771582
 30
0.0
 11
914.8234250400869
 21
1294.497707099677
 31
0.0
  0
ARC
  5
2D6
330
17
100
AcDbEntity
  8
4
100
AcDbCircle
 10
910.9480461648077
 20
1294.497707099677
 30
0.0
 40
3.875378875279244
100
AcDbArc
 50
314.955926762738
 51
45.04407323726194
  0
LINE
  5
2D7
330
17
100
AcDbEntity
  8
4
100
AcDbLine
 10
903.8234250400869
 20
1291.755293321025
 30
0.0
 11
903.823425040086
 21
1313.694603550231
 31
0.0
  0
LINE
  5
2D8
330
17
100
AcDbEntity
  8
4
100
AcDbLine
 10
906.8234250400869
 20
1291.755293321025
 30
0.0
 11
906.823425040086
 21
1313.694603550231
 31
0.0
  0
LINE
  5
2D9
330
17
100
AcDbEntity
  8
L-CENTER
 48
2.0
100
AcDbLine
 10
918.4242649201965
 20
1218.287595816343
 30
0.0
 11
868.0826710737088
 21
1218.287595816339
 31
0.0
  0
LINE
  5
2DA
330
17
100
AcDbEntity
  8
4
100
AcDbLine
 10
913.6862441294656
 20
1223.772423373643
 30
0.0
 11
906.8234250400924
 21
1223.772423373643
 31
0.0
  0
LINE
  5
2DB
330
17
100
AcDbEntity
  8
4
100
AcDbLine
 10
903.8234250400915
 20
1229.257250930944
 30
0.0
 11
913.6862441294647
 21
1229.257250930944
 31
0.0
  0
LINE
  5
2DC
330
17
100
AcDbEntity
  8
4
100
AcDbLine
 10
913.6862441294656
 20
1212.80276825904
 30
0.0
 11
906.8234250400933
 21
1212.80276825904
 31
0.0
  0
LINE
  5
2DD
330
17
100
AcDbEntity
  8
4
100
AcDbLine
 10
913.6862441294666
 20
1207.317940701738
 30
0.0
 11
903.8234250400933
 21
1207.317940701738
 31
0.0
  0
ARC
  5
2DE
330
17
100
AcDbEntity
  8
4
100
AcDbCircle
 10
910.9480461648131
 20
1226.514837152294
 30
0.0
 40
3.875378875279264
100
AcDbArc
 50
314.9559267627476
 51
45.04407323728095
  0
ARC
  5
2DF
330
17
100
AcDbEntity
  8
4
100
AcDbCircle
 10
901.0276809049151
 20
1218.287595816341
 30
0.0
 40
13.7957441351769
100
AcDbArc
 50
336.5734024913767
 51
23.42659750863135
  0
LINE
  5
2E0
330
17
100
AcDbEntity
  8
4
100
AcDbLine
 10
914.8234250400915
 20
1226.514837152294
 30
0.0
 11
914.8234250400933
 21
1210.060354480389
 31
0.0
  0
ARC
  5
2E1
330
17
100
AcDbEntity
  8
4
100
AcDbCircle
 10
910.9480461648141
 20
1210.060354480389
 30
0.0
 40
3.875378875279244
100
AcDbArc
 50
314.9559267627476
 51
45.04407323728095
  0
LINE
  5
2E2
330
17
100
AcDbEntity
  8
4
100
AcDbLine
 10
903.8234250400933
 20
1207.317940701738
 30
0.0
 11
903.8234250400915
 21
1229.257250930944
 31
0.0
  0
LINE
  5
2E3
330
17
100
AcDbEntity
  8
4
100
AcDbLine
 10
906.8234250400933
 20
1207.317940701738
 30
0.0
 11
906.8234250400915
 21
1229.257250930944
 31
0.0
  0
LINE
  5
2E4
330
17
100
AcDbEntity
  8
4
100
AcDbLine
 10
904.8234249455504
 20
1291.755293321025
 30
0.0
 11
904.8234249455504
 21
1257.724948435606
 31
0.0
  0
LINE
  5
2E5
330
17
100
AcDbEntity
  8
4
100
AcDbLine
 10
1473.862086360194
 20
685.6669823082161
 30
0.0
 11
1464.362086360194
 21
680.1821547509148
 31
0.0
  0
LINE
  5
2E6
330
17
100
AcDbEntity
  8
4
100
AcDbLine
 10
1464.362086360194
 20
669.2124996363123
 30
0.0
 11
1473.862086360194
 21
663.7276720790101
 31
0.0
  0
CIRCLE
  5
2E7
330
17
100
AcDbEntity
  8
4
100
AcDbCircle
 10
1473.862086360194
 20
674.6973271936135
 30
0.0
 40
9.5
  0
LINE
  5
2E8
330
17
100
AcDbEntity
  8
4
100
AcDbLine
 10
1464.362086360194
 20
680.1821547509148
 30
0.0
 11
1464.362086360194
 21
669.2124996363123
 31
0.0
  0
LINE
  5
2E9
330
17
100
AcDbEntity
  8
4
100
AcDbLine
 10
1483.362086360194
 20
680.1821547509148
 30
0.0
 11
1473.862086360194
 21
685.6669823082161
 31
0.0
  0
LINE
  5
2EA
330
17
100
AcDbEntity
  8
4
100
AcDbLine
 10
1483.362086360194
 20
669.2124996363123
 30
0.0
 11
1483.362086360194
 21
680.1821547509148
 31
0.0
  0
LINE
  5
2EB
330
17
100
AcDbEntity
  8
4
100
AcDbLine
 10
1473.862086360194
 20
663.7276720790101
 30
0.0
 11
1483.362086360194
 21
669.2124996363123
 31
0.0
  0
CIRCLE
  5
2EC
330
17
100
AcDbEntity
  8
4
100
AcDbCircle
 10
1389.424609491211
 20
625.9473271936131
 30
0.0
 40
9.5
  0
LINE
  5
2ED
330
17
100
AcDbEntity
  8
4
100
AcDbLine
 10
1389.424609491211
 20
614.9776720790105
 30
0.0
 11
1398.924609491211
 21
620.4624996363113
 31
0.0
  0
LINE
  5
2EE
330
17
100
AcDbEntity
  8
4
100
AcDbLine
 10
1379.924609491211
 20
631.4321547509144
 30
0.0
 11
1379.924609491211
 21
620.4624996363118
 31
0.0
  0
LINE
  5
2EF
330
17
100
AcDbEntity
  8
4
100
AcDbLine
 10
1379.924609491211
 20
620.4624996363118
 30
0.0
 11
1389.424609491211
 21
614.9776720790105
 31
0.0
  0
LINE
  5
2F0
330
17
100
AcDbEntity
  8
4
100
AcDbLine
 10
1398.924609491211
 20
620.4624996363113
 30
0.0
 11
1398.924609491211
 21
631.4321547509148
 31
0.0
  0
LINE
  5
2F1
330
17
100
AcDbEntity
  8
4
100
AcDbLine
 10
1398.924609491211
 20
631.4321547509148
 30
0.0
 11
1389.424609491211
 21
636.9169823082161
 31
0.0
  0
LINE
  5
2F2
330
17
100
AcDbEntity
  8
4
100
AcDbLine
 10
1389.424609491211
 20
636.9169823082161
 30
0.0
 11
1379.924609491211
 21
631.4321547509144
 31
0.0
  0
CIRCLE
  5
2F3
330
17
100
AcDbEntity
  8
4
100
AcDbCircle
 10
1389.424609491211
 20
528.4473271936138
 30
0.0
 40
9.5
  0
LINE
  5
2F4
330
17
100
AcDbEntity
  8
4
100
AcDbLine
 10
1398.924609491211
 20
522.9624996363118
 30
0.0
 11
1398.924609491212
 21
533.9321547509151
 31
0.0
  0
LINE
  5
2F5
330
17
100
AcDbEntity
  8
4
100
AcDbLine
 10
1379.924609491212
 20
522.962499636312
 30
0.0
 11
1389.424609491212
 21
517.4776720790105
 31
0.0
  0
LINE
  5
2F6
330
17
100
AcDbEntity
  8
4
100
AcDbLine
 10
1389.424609491212
 20
517.4776720790105
 30
0.0
 11
1398.924609491211
 21
522.9624996363118
 31
0.0
  0
LINE
  5
2F7
330
17
100
AcDbEntity
  8
4
100
AcDbLine
 10
1398.924609491212
 20
533.9321547509151
 30
0.0
 11
1389.424609491211
 21
539.4169823082161
 31
0.0
  0
LINE
  5
2F8
330
17
100
AcDbEntity
  8
4
100
AcDbLine
 10
1389.424609491211
 20
539.4169823082161
 30
0.0
 11
1379.924609491212
 21
533.9321547509148
 31
0.0
  0
LINE
  5
2F9
330
17
100
AcDbEntity
  8
4
100
AcDbLine
 10
1379.924609491212
 20
533.9321547509148
 30
0.0
 11
1379.924609491212
 21
522.962499636312
 31
0.0
  0
CIRCLE
  5
2FA
330
17
100
AcDbEntity
  8
4
100
AcDbCircle
 10
1473.862086360194
 20
479.6973271936138
 30
0.0
 40
9.5
  0
LINE
  5
2FB
330
17
100
AcDbEntity
  8
4
100
AcDbLine
 10
1483.362086360194
 20
485.1821547509151
 30
0.0
 11
1473.862086360194
 21
490.6669823082173
 31
0.0
  0
LINE
  5
2FC
330
17
100
AcDbEntity
  8
4
100
AcDbLine
 10
1473.862086360194
 20
468.7276720790112
 30
0.0
 11
1483.362086360194
 21
474.2124996363125
 31
0.0
  0
LINE
  5
2FD
330
17
100
AcDbEntity
  8
4
100
AcDbLine
 10
1483.362086360194
 20
474.2124996363125
 30
0.0
 11
1483.362086360194
 21
485.1821547509151
 31
0.0
  0
LINE
  5
2FE
330
17
100
AcDbEntity
  8
4
100
AcDbLine
 10
1473.862086360194
 20
490.6669823082173
 30
0.0
 11
1464.362086360194
 21
485.1821547509151
 31
0.0
  0
LINE
  5
2FF
330
17
100
AcDbEntity
  8
4
100
AcDbLine
 10
1464.362086360194
 20
485.1821547509151
 30
0.0
 11
1464.362086360194
 21
474.2124996363125
 31
0.0
  0
LINE
  5
300
330
17
100
AcDbEntity
  8
4
100
AcDbLine
 10
1464.362086360194
 20
474.2124996363125
 30
0.0
 11
1473.862086360194
 21
468.7276720790112
 31
0.0
  0
CIRCLE
  5
301
330
17
100
AcDbEntity
  8
4
100
AcDbCircle
 10
1558.299563229177
 20
528.4473271936138
 30
0.0
 40
9.5
  0
LINE
  5
302
330
17
100
AcDbEntity
  8
4
100
AcDbLine
 10
1558.299563229177
 20
539.4169823082166
 30
0.0
 11
1548.799563229176
 21
533.9321547509153
 31
0.0
  0
LINE
  5
303
330
17
100
AcDbEntity
  8
4
100
AcDbLine
 10
1567.799563229176
 20
522.9624996363123
 30
0.0
 11
1567.799563229177
 21
533.9321547509153
 31
0.0
  0
LINE
  5
304
330
17
100
AcDbEntity
  8
4
100
AcDbLine
 10
1567.799563229177
 20
533.9321547509153
 30
0.0
 11
1558.299563229177
 21
539.4169823082166
 31
0.0
  0
LINE
  5
305
330
17
100
AcDbEntity
  8
4
100
AcDbLine
 10
1548.799563229176
 20
533.9321547509153
 30
0.0
 11
1548.799563229177
 21
522.9624996363123
 31
0.0
  0
LINE
  5
306
330
17
100
AcDbEntity
  8
4
100
AcDbLine
 10
1548.799563229177
 20
522.9624996363123
 30
0.0
 11
1558.299563229177
 21
517.477672079011
 31
0.0
  0
LINE
  5
307
330
17
100
AcDbEntity
  8
4
100
AcDbLine
 10
1558.299563229177
 20
517.477672079011
 30
0.0
 11
1567.799563229176
 21
522.9624996363123
 31
0.0
  0
CIRCLE
  5
308
330
17
100
AcDbEntity
  8
4
100
AcDbCircle
 10
1558.299563229176
 20
625.947327193614
 30
0.0
 40
9.5
  0
LINE
  5
309
330
17
100
AcDbEntity
  8
4
100
AcDbLine
 10
1548.799563229176
 20
631.4321547509153
 30
0.0
 11
1548.799563229176
 21
620.4624996363118
 31
0.0
  0
LINE
  5
30A
330
17
100
AcDbEntity
  8
4
100
AcDbLine
 10
1567.799563229176
 20
631.4321547509148
 30
0.0
 11
1558.299563229176
 21
636.9169823082166
 31
0.0
  0
LINE
  5
30B
330
17
100
AcDbEntity
  8
4
100
AcDbLine
 10
1558.299563229176
 20
636.9169823082166
 30
0.0
 11
1548.799563229176
 21
631.4321547509153
 31
0.0
  0
LINE
  5
30C
330
17
100
AcDbEntity
  8
4
100
AcDbLine
 10
1548.799563229176
 20
620.4624996363118
 30
0.0
 11
1558.299563229176
 21
614.977672079011
 31
0.0
  0
LINE
  5
30D
330
17
100
AcDbEntity
  8
4
100
AcDbLine
 10
1558.299563229176
 20
614.977672079011
 30
0.0
 11
1567.799563229176
 21
620.4624996363123
 31
0.0
  0
LINE
  5
30E
330
17
100
AcDbEntity
  8
4
100
AcDbLine
 10
1567.799563229176
 20
620.4624996363123
 30
0.0
 11
1567.799563229176
 21
631.4321547509148
 31
0.0
  0
LINE
  5
314
330
17
100
AcDbEntity
  8
L-CENTER
 48
2.0
100
AcDbLine
 10
1503.211473744624
 20
768.4973271437832
 30
0.0
 11
1604.512698927443
 21
768.4973271437832
 31
0.0
  0
ARC
  5
315
330
17
100
AcDbEntity
  8
4
100
AcDbCircle
 10
1553.862086336034
 20
768.4973271437832
 30
0.0
 40
36.0
100
AcDbArc
 50
304.0502224511964
 51
235.9497775487916
  0
LINE
  5
316
330
17
100
AcDbEntity
  8
4
100
AcDbLine
 10
1571.362086336034
 20
733.4973271437832
 30
0.0
 11
1569.862086336034
 21
746.4973271437832
 31
0.0
  0
LINE
  5
317
330
17
100
AcDbEntity
  8
4
100
AcDbLine
 10
1537.862086336034
 20
746.4973271437832
 30
0.0
 11
1553.862086336034
 21
748.4973271437832
 31
0.0
  0
LINE
  5
318
330
17
100
AcDbEntity
  8
4
100
AcDbLine
 10
1536.472586140846
 20
734.4549921188298
 30
0.0
 11
1537.862086336034
 21
746.4973271437832
 31
0.0
  0
LINE
  5
319
330
17
100
AcDbEntity
  8
4
100
AcDbLine
 10
1553.862086336034
 20
748.4973271437832
 30
0.0
 11
1569.862086336034
 21
746.4973271437832
 31
0.0
  0
LINE
  5
31A
330
17
100
AcDbEntity
  8
4
100
AcDbLine
 10
1537.862086336034
 20
746.4973271437832
 30
0.0
 11
1569.862086336034
 21
746.4973271437832
 31
0.0
  0
CIRCLE
  5
31B
330
17
100
AcDbEntity
  8
4
100
AcDbCircle
 10
1553.862086336034
 20
768.4973271437832
 30
0.0
 40
20.0
  0
ARC
  5
31C
330
17
100
AcDbEntity
  8
4
100
AcDbCircle
 10
1577.37870025657
 20
733.6983491456806
 30
0.0
 40
6.0
100
AcDbArc
 50
124.050222451196
 51
181.9199780251475
  0
ARC
  5
31D
330
17
100
AcDbEntity
  8
4
100
AcDbCircle
 10
1530.345472415493
 20
733.6983491456888
 30
0.0
 40
6.0
100
AcDbArc
 50
7.459598857820763
 51
55.94977754878231
  0
CIRCLE
  5
31E
330
17
100
AcDbEntity
  8
4
100
AcDbCircle
 10
1983.862086206175
 20
768.4973271437832
 30
0.0
 40
20.0
  0
ARC
  5
31F
330
17
100
AcDbEntity
  8
4
100
AcDbCircle
 10
1983.862086206175
 20
768.4973271437832
 30
0.0
 40
36.0
100
AcDbArc
 50
304.0502224512069
 51
235.949777548802
  0
LINE
  5
320
330
17
100
AcDbEntity
  8
L-CENTER
 48
2.0
100
AcDbLine
 10
2034.512698797584
 20
768.4973271437832
 30
0.0
 11
1933.211473614766
 21
768.4973271437832
 31
0.0
  0
LINE
  5
321
330
17
100
AcDbEntity
  8
4
100
AcDbLine
 10
1999.862086206175
 20
746.4973271437832
 30
0.0
 11
1967.862086206175
 21
746.4973271437832
 31
0.0
  0
LINE
  5
322
330
17
100
AcDbEntity
  8
4
100
AcDbLine
 10
1983.862086206175
 20
748.4973271437832
 30
0.0
 11
1967.862086206175
 21
746.4973271437832
 31
0.0
  0
LINE
  5
323
330
17
100
AcDbEntity
  8
4
100
AcDbLine
 10
2001.251586401362
 20
734.4549921188298
 30
0.0
 11
1999.862086206175
 21
746.4973271437832
 31
0.0
  0
LINE
  5
324
330
17
100
AcDbEntity
  8
4
100
AcDbLine
 10
1999.862086206175
 20
746.4973271437832
 30
0.0
 11
1983.862086206175
 21
748.4973271437832
 31
0.0
  0
LINE
  5
325
330
17
100
AcDbEntity
  8
4
100
AcDbLine
 10
1966.362086206175
 20
733.4973271437832
 30
0.0
 11
1967.862086206175
 21
746.4973271437832
 31
0.0
  0
ARC
  5
326
330
17
100
AcDbEntity
  8
4
100
AcDbCircle
 10
1960.345472285637
 20
733.6983491456806
 30
0.0
 40
6.0
100
AcDbArc
 50
358.0800219748526
 51
55.94977754880399
  0
ARC
  5
327
330
17
100
AcDbEntity
  8
4
100
AcDbCircle
 10
2007.378700126714
 20
733.6983491456888
 30
0.0
 40
6.0
100
AcDbArc
 50
124.0502224512177
 51
172.5404011421793
  0
LINE
  5
328
330
17
100
AcDbEntity
  8
L-CENTER
 48
2.0
100
AcDbLine
 10
1983.862086206175
 20
819.1479397351925
 30
0.0
 11
1983.862086206175
 21
706.220475039345
 31
0.0
  0
ARC
  5
329
330
17
100
AcDbEntity
  8
4
100
AcDbCircle
 10
591.5234250400763
 20
796.4973271437832
 30
0.0
 40
8.0
100
AcDbArc
 50
0.0
 51
180.0
  0
LINE
  5
32A
330
17
100
AcDbEntity
  8
L-CENTER
100
AcDbLine
 10
575.8134574990172
 20
768.4973271437832
 30
0.0
 11
606.3518874843548
 21
768.4973271437832
 31
0.0
  0
ARC
  5
32B
330
17
100
AcDbEntity
  8
4
100
AcDbCircle
 10
577.5234250400763
 20
739.4973271437832
 30
0.0
 40
6.0
100
AcDbArc
 50
270.0
 51
0.0
  0
LINE
  5
32C
330
17
100
AcDbEntity
  8
4
100
AcDbLine
 10
575.5234250400772
 20
746.4973271437832
 30
0.0
 11
583.5234250400772
 21
747.4973271437832
 31
0.0
  0
LINE
  5
32D
330
17
100
AcDbEntity
  8
4
100
AcDbLine
 10
574.0234250400763
 20
733.4973271437832
 30
0.0
 11
575.5234250400763
 21
746.4973271437832
 31
0.0
  0
LINE
  5
32E
330
17
100
AcDbEntity
  8
4
100
AcDbLine
 10
583.5234250400763
 20
796.4973271437832
 30
0.0
 11
583.5234250400763
 21
739.4973271437832
 31
0.0
  0
ARC
  5
32F
330
17
100
AcDbEntity
  8
4
100
AcDbCircle
 10
605.5234250400763
 20
739.4973271437832
 30
0.0
 40
6.0
100
AcDbArc
 50
180.0
 51
270.0
  0
LINE
  5
330
330
17
100
AcDbEntity
  8
4
100
AcDbLine
 10
599.5234250400772
 20
747.4973271437832
 30
0.0
 11
607.5234250400763
 21
746.4973271437832
 31
0.0
  0
LINE
  5
331
330
17
100
AcDbEntity
  8
4
100
AcDbLine
 10
609.0234250400763
 20
733.4973271437832
 30
0.0
 11
607.5234250400763
 21
746.4973271437832
 31
0.0
  0
LINE
  5
332
330
17
100
AcDbEntity
  8
4
100
AcDbLine
 10
599.5234250400763
 20
796.4973271437832
 30
0.0
 11
599.5234250400763
 21
739.4973271437832
 31
0.0
  0
LINE
  5
333
330
17
100
AcDbEntity
  8
L-CENTER
100
AcDbLine
 10
591.5234250400763
 20
811.1791483347108
 30
0.0
 11
591.5234250400763
 21
731.2146863747978
 31
0.0
  0
ARC
  5
334
330
17
100
AcDbEntity
  8
4
100
AcDbCircle
 10
591.5234250400767
 20
1410.724948435606
 30
0.0
 40
8.0
100
AcDbArc
 50
0.0
 51
180.0
  0
ARC
  5
335
330
17
100
AcDbEntity
  8
4
100
AcDbCircle
 10
591.5234250400767
 20
1354.724948435606
 30
0.0
 40
8.0
100
AcDbArc
 50
180.0
 51
0.0
  0
ARC
  5
336
330
17
100
AcDbEntity
  8
4
100
AcDbCircle
 10
591.5234250400767
 20
1382.724948435606
 30
0.0
 40
17.5
100
AcDbArc
 50
297.2028944122143
 51
62.79710558778572
  0
ARC
  5
337
330
17
100
AcDbEntity
  8
4
100
AcDbCircle
 10
591.5234250400767
 20
1382.724948435606
 30
0.0
 40
16.0
100
AcDbArc
 50
299.9999999999994
 51
60.00000000000097
  0
ARC
  5
338
330
17
100
AcDbEntity
  8
4
100
AcDbCircle
 10
591.5234250400767
 20
1382.724948435606
 30
0.0
 40
16.0
100
AcDbArc
 50
119.999999999999
 51
239.9999999999984
  0
ARC
  5
339
330
17
100
AcDbEntity
  8
4
100
AcDbCircle
 10
591.5234250400767
 20
1382.724948435606
 30
0.0
 40
17.5
100
AcDbArc
 50
117.2028944122143
 51
242.7971055877857
  0
LINE
  5
33A
330
17
100
AcDbEntity
  8
4
100
AcDbLine
 10
599.5234250400758
 20
1354.724948435606
 30
0.0
 11
599.5234250400767
 21
1410.724948435606
 31
0.0
  0
LINE
  5
33B
330
17
100
AcDbEntity
  8
4
100
AcDbLine
 10
583.5234250400758
 20
1354.724948435606
 30
0.0
 11
583.5234250400767
 21
1410.724948435606
 31
0.0
  0
ARC
  5
33C
330
17
100
AcDbEntity
  8
4
100
AcDbCircle
 10
591.5234250400767
 20
1382.724948435606
 30
0.0
 40
25.0
100
AcDbArc
 50
288.6629248849405
 51
71.33707511505739
  0
ARC
  5
33D
330
17
100
AcDbEntity
  8
4
100
AcDbCircle
 10
591.5234250400767
 20
1840.724948435606
 30
0.0
 40
8.0
100
AcDbArc
 50
0.0
 51
180.0
  0
ARC
  5
33E
330
17
100
AcDbEntity
  8
4
100
AcDbCircle
 10
591.5234250400767
 20
1784.724948435606
 30
0.0
 40
8.0
100
AcDbArc
 50
180.0
 51
0.0
  0
ARC
  5
33F
330
17
100
AcDbEntity
  8
4
100
AcDbCircle
 10
591.5234250400767
 20
1812.724948435606
 30
0.0
 40
25.0
100
AcDbArc
 50
108.6629248849446
 51
251.3370751150574
  0
ARC
  5
340
330
17
100
AcDbEntity
  8
4
100
AcDbCircle
 10
591.5234250400767
 20
1812.724948435606
 30
0.0
 40
16.0
100
AcDbArc
 50
120.0000000000016
 51
239.9999999999984
  0
ARC
  5
341
330
17
100
AcDbEntity
  8
4
100
AcDbCircle
 10
591.5234250400767
 20
1812.724948435606
 30
0.0
 40
17.5
100
AcDbArc
 50
117.2028944122143
 51
242.7971055877857
  0
LINE
  5
342
330
17
100
AcDbEntity
  8
4
100
AcDbLine
 10
583.5234250400758
 20
1840.724948435607
 30
0.0
 11
583.5234250400767
 21
1784.724948435607
 31
0.0
  0
ARC
  5
343
330
17
100
AcDbEntity
  8
4
100
AcDbCircle
 10
591.5234250400767
 20
1812.724948435606
 30
0.0
 40
25.0
100
AcDbArc
 50
288.6629248849426
 51
71.33707511505995
  0
ARC
  5
344
330
17
100
AcDbEntity
  8
4
100
AcDbCircle
 10
591.5234250400767
 20
1812.724948435606
 30
0.0
 40
17.5
100
AcDbArc
 50
297.2028944122143
 51
62.79710558778572
  0
ARC
  5
345
330
17
100
AcDbEntity
  8
4
100
AcDbCircle
 10
591.5234250400767
 20
1812.724948435606
 30
0.0
 40
16.0
100
AcDbArc
 50
299.9999999999994
 51
60.00000000000097
  0
LINE
  5
346
330
17
100
AcDbEntity
  8
4
100
AcDbLine
 10
599.5234250400758
 20
1840.724948435607
 30
0.0
 11
599.5234250400767
 21
1784.724948435607
 31
0.0
  0
ARC
  5
347
330
17
100
AcDbEntity
  8
4
100
AcDbCircle
 10
386.5234250400772
 20
1617.643532722649
 30
0.0
 40
3.0
100
AcDbArc
 50
59.9999999999965
 51
120.0000000000035
  0
ARC
  5
348
330
17
100
AcDbEntity
  8
4
100
AcDbCircle
 10
403.7734250400772
 20
1587.765656292085
 30
0.0
 40
3.0
100
AcDbArc
 50
300.0000000000035
 51
0.0
  0
ARC
  5
349
330
17
100
AcDbEntity
  8
4
100
AcDbCircle
 10
403.7734250400772
 20
1607.684240579127
 30
0.0
 40
3.0
100
AcDbArc
 50
0.0
 51
59.9999999999965
  0
LINE
  5
34A
330
17
100
AcDbEntity
  8
4
100
AcDbLine
 10
406.7734250400772
 20
1607.684240579127
 30
0.0
 11
406.7734250400772
 21
1587.765656292085
 31
0.0
  0
ARC
  5
34B
330
17
100
AcDbEntity
  8
4
100
AcDbCircle
 10
369.2734250400763
 20
1607.684240579127
 30
0.0
 40
3.0
100
AcDbArc
 50
119.999999999986
 51
180.0
  0
ARC
  5
34C
330
17
100
AcDbEntity
  8
4
100
AcDbCircle
 10
369.2734250400763
 20
1587.765656292085
 30
0.0
 40
3.0
100
AcDbArc
 50
180.0
 51
240.0000000000084
  0
ARC
  5
34D
330
17
100
AcDbEntity
  8
4
100
AcDbCircle
 10
386.5234250400772
 20
1577.806364148564
 30
0.0
 40
3.0
100
AcDbArc
 50
239.9999999999965
 51
300.0000000000035
  0
LINE
  5
34E
330
17
100
AcDbEntity
  8
4
100
AcDbLine
 10
385.0234250400772
 20
1575.208287937211
 30
0.0
 11
367.7734250400772
 21
1585.167580080732
 31
0.0
  0
LINE
  5
34F
330
17
100
AcDbEntity
  8
4
100
AcDbLine
 10
366.2734250400772
 20
1607.684240579127
 30
0.0
 11
366.2734250400772
 21
1587.765656292085
 31
0.0
  0
LINE
  5
350
330
17
100
AcDbEntity
  8
4
100
AcDbLine
 10
405.2734250400772
 20
1585.167580080732
 30
0.0
 11
388.0234250400772
 21
1575.208287937211
 31
0.0
  0
LINE
  5
351
330
17
100
AcDbEntity
  8
4
100
AcDbLine
 10
388.0234250400772
 20
1620.241608934002
 30
0.0
 11
405.2734250400772
 21
1610.28231679048
 31
0.0
  0
LINE
  5
352
330
17
100
AcDbEntity
  8
4
100
AcDbLine
 10
385.0234250400772
 20
1620.241608934002
 30
0.0
 11
367.7734250400772
 21
1610.28231679048
 31
0.0
  0
CIRCLE
  5
353
330
17
100
AcDbEntity
  8
4
100
AcDbCircle
 10
386.5234250400772
 20
1597.724948435606
 30
0.0
 40
23.0
  0
LINE
  5
354
330
17
100
AcDbEntity
  8
4
100
AcDbLine
 10
730.7734250400763
 20
1849.882678504175
 30
0.0
 11
721.2734250400763
 21
1844.397850946874
 31
0.0
  0
LINE
  5
355
330
17
100
AcDbEntity
  8
4
100
AcDbLine
 10
721.2734250400763
 20
1833.428195832271
 30
0.0
 11
730.7734250400763
 21
1827.943368274969
 31
0.0
  0
CIRCLE
  5
356
330
17
100
AcDbEntity
  8
4
100
AcDbCircle
 10
730.7734250400763
 20
1838.913023389573
 30
0.0
 40
9.5
  0
LINE
  5
357
330
17
100
AcDbEntity
  8
4
100
AcDbLine
 10
721.2734250400763
 20
1844.397850946874
 30
0.0
 11
721.2734250400763
 21
1833.428195832271
 31
0.0
  0
LINE
  5
358
330
17
100
AcDbEntity
  8
4
100
AcDbLine
 10
740.2734250400763
 20
1844.397850946874
 30
0.0
 11
730.7734250400763
 21
1849.882678504175
 31
0.0
  0
LINE
  5
359
330
17
100
AcDbEntity
  8
4
100
AcDbLine
 10
740.2734250400763
 20
1833.428195832271
 30
0.0
 11
740.2734250400763
 21
1844.397850946874
 31
0.0
  0
LINE
  5
35A
330
17
100
AcDbEntity
  8
4
100
AcDbLine
 10
730.7734250400763
 20
1827.943368274969
 30
0.0
 11
740.2734250400763
 21
1833.428195832271
 31
0.0
  0
LINE
  5
35B
330
17
100
AcDbEntity
  8
4
100
AcDbLine
 10
461.7734250400767
 20
1833.42819583227
 30
0.0
 11
461.7734250400763
 21
1844.397850946874
 31
0.0
  0
LINE
  5
35C
330
17
100
AcDbEntity
  8
4
100
AcDbLine
 10
452.2734250400763
 20
1849.882678504175
 30
0.0
 11
442.7734250400763
 21
1844.397850946873
 31
0.0
  0
CIRCLE
  5
35D
330
17
100
AcDbEntity
  8
4
100
AcDbCircle
 10
452.2734250400758
 20
1838.913023389572
 30
0.0
 40
9.5
  0
LINE
  5
35E
330
17
100
AcDbEntity
  8
4
100
AcDbLine
 10
442.7734250400763
 20
1833.42819583227
 30
0.0
 11
452.2734250400763
 21
1827.943368274969
 31
0.0
  0
LINE
  5
35F
330
17
100
AcDbEntity
  8
4
100
AcDbLine
 10
452.2734250400763
 20
1827.943368274969
 30
0.0
 11
461.7734250400767
 21
1833.42819583227
 31
0.0
  0
LINE
  5
360
330
17
100
AcDbEntity
  8
4
100
AcDbLine
 10
442.7734250400763
 20
1844.397850946873
 30
0.0
 11
442.7734250400763
 21
1833.42819583227
 31
0.0
  0
LINE
  5
361
330
17
100
AcDbEntity
  8
4
100
AcDbLine
 10
461.7734250400763
 20
1844.397850946874
 30
0.0
 11
452.2734250400763
 21
1849.882678504175
 31
0.0
  0
LINE
  5
362
330
17
100
AcDbEntity
  8
4
100
AcDbLine
 10
322.5234250400772
 20
1603.209775992907
 30
0.0
 11
313.0234250400763
 21
1608.694603550208
 31
0.0
  0
LINE
  5
363
330
17
100
AcDbEntity
  8
4
100
AcDbLine
 10
303.5234250400763
 20
1603.209775992907
 30
0.0
 11
303.5234250400772
 21
1592.240120878304
 31
0.0
  0
CIRCLE
  5
364
330
17
100
AcDbEntity
  8
4
100
AcDbCircle
 10
313.0234250400767
 20
1597.724948435605
 30
0.0
 40
9.5
  0
LINE
  5
365
330
17
100
AcDbEntity
  8
4
100
AcDbLine
 10
313.0234250400763
 20
1586.755293321002
 30
0.0
 11
322.5234250400763
 21
1592.240120878304
 31
0.0
  0
LINE
  5
366
330
17
100
AcDbEntity
  8
4
100
AcDbLine
 10
322.5234250400763
 20
1592.240120878304
 30
0.0
 11
322.5234250400772
 21
1603.209775992907
 31
0.0
  0
LINE
  5
367
330
17
100
AcDbEntity
  8
4
100
AcDbLine
 10
303.5234250400772
 20
1592.240120878304
 30
0.0
 11
313.0234250400763
 21
1586.755293321002
 31
0.0
  0
LINE
  5
368
330
17
100
AcDbEntity
  8
4
100
AcDbLine
 10
313.0234250400763
 20
1608.694603550208
 30
0.0
 11
303.5234250400763
 21
1603.209775992907
 31
0.0
  0
LINE
  5
369
330
17
100
AcDbEntity
  8
4
100
AcDbLine
 10
452.2734250400772
 20
1367.506528596243
 30
0.0
 11
442.7734250400772
 21
1362.021701038941
 31
0.0
  0
LINE
  5
36A
330
17
100
AcDbEntity
  8
4
100
AcDbLine
 10
442.7734250400772
 20
1351.052045924338
 30
0.0
 11
452.2734250400772
 21
1345.567218367037
 31
0.0
  0
CIRCLE
  5
36B
330
17
100
AcDbEntity
  8
4
100
AcDbCircle
 10
452.2734250400772
 20
1356.53687348164
 30
0.0
 40
9.5
  0
LINE
  5
36C
330
17
100
AcDbEntity
  8
4
100
AcDbLine
 10
461.7734250400772
 20
1351.052045924338
 30
0.0
 11
461.7734250400772
 21
1362.021701038941
 31
0.0
  0
LINE
  5
36D
330
17
100
AcDbEntity
  8
4
100
AcDbLine
 10
461.7734250400772
 20
1362.021701038941
 30
0.0
 11
452.2734250400772
 21
1367.506528596243
 31
0.0
  0
LINE
  5
36E
330
17
100
AcDbEntity
  8
4
100
AcDbLine
 10
452.2734250400772
 20
1345.567218367037
 30
0.0
 11
461.7734250400772
 21
1351.052045924338
 31
0.0
  0
LINE
  5
36F
330
17
100
AcDbEntity
  8
4
100
AcDbLine
 10
442.7734250400772
 20
1362.021701038941
 30
0.0
 11
442.7734250400772
 21
1351.052045924338
 31
0.0
  0
LINE
  5
370
330
17
100
AcDbEntity
  8
4
100
AcDbLine
 10
721.2734250400767
 20
1362.021701038942
 30
0.0
 11
721.2734250400772
 21
1351.052045924338
 31
0.0
  0
LINE
  5
371
330
17
100
AcDbEntity
  8
4
100
AcDbLine
 10
730.7734250400772
 20
1345.567218367037
 30
0.0
 11
740.2734250400767
 21
1351.052045924338
 31
0.0
  0
CIRCLE
  5
372
330
17
100
AcDbEntity
  8
4
100
AcDbCircle
 10
730.7734250400777
 20
1356.53687348164
 30
0.0
 40
9.5
  0
LINE
  5
373
330
17
100
AcDbEntity
  8
4
100
AcDbLine
 10
740.2734250400772
 20
1362.021701038942
 30
0.0
 11
730.7734250400772
 21
1367.506528596243
 31
0.0
  0
LINE
  5
374
330
17
100
AcDbEntity
  8
4
100
AcDbLine
 10
730.7734250400772
 20
1367.506528596243
 30
0.0
 11
721.2734250400767
 21
1362.021701038942
 31
0.0
  0
LINE
  5
375
330
17
100
AcDbEntity
  8
4
100
AcDbLine
 10
740.2734250400767
 20
1351.052045924338
 30
0.0
 11
740.2734250400772
 21
1362.021701038942
 31
0.0
  0
LINE
  5
376
330
17
100
AcDbEntity
  8
4
100
AcDbLine
 10
721.2734250400772
 20
1351.052045924338
 30
0.0
 11
730.7734250400772
 21
1345.567218367037
 31
0.0
  0
LINE
  5
377
330
17
100
AcDbEntity
  8
4
100
AcDbLine
 10
860.5234250400767
 20
1592.240120878304
 30
0.0
 11
870.0234250400777
 21
1586.755293321003
 31
0.0
  0
LINE
  5
378
330
17
100
AcDbEntity
  8
4
100
AcDbLine
 10
879.5234250400777
 20
1592.240120878304
 30
0.0
 11
879.5234250400767
 21
1603.209775992908
 31
0.0
  0
CIRCLE
  5
379
330
17
100
AcDbEntity
  8
4
100
AcDbCircle
 10
870.0234250400767
 20
1597.724948435606
 30
0.0
 40
9.5
  0
LINE
  5
37A
330
17
100
AcDbEntity
  8
4
100
AcDbLine
 10
870.0234250400777
 20
1608.694603550209
 30
0.0
 11
860.5234250400777
 21
1603.209775992908
 31
0.0
  0
LINE
  5
37B
330
17
100
AcDbEntity
  8
4
100
AcDbLine
 10
860.5234250400777
 20
1603.209775992908
 30
0.0
 11
860.5234250400767
 21
1592.240120878304
 31
0.0
  0
LINE
  5
37C
330
17
100
AcDbEntity
  8
4
100
AcDbLine
 10
879.5234250400767
 20
1603.209775992908
 30
0.0
 11
870.0234250400777
 21
1608.694603550209
 31
0.0
  0
LINE
  5
37D
330
17
100
AcDbEntity
  8
4
100
AcDbLine
 10
870.0234250400777
 20
1586.755293321003
 30
0.0
 11
879.5234250400777
 21
1592.240120878304
 31
0.0
  0
LINE
  5
37E
330
17
100
AcDbEntity
  8
4
100
AcDbLine
 10
1999.080431156501
 20
733.3601462388945
 30
0.0
 11
1999.080431156501
 21
723.4973271495212
 31
0.0
  0
LINE
  5
37F
330
17
100
AcDbEntity
  8
4
100
AcDbLine
 10
2004.565258713803
 20
733.3601462388945
 30
0.0
 11
2004.565258713803
 21
726.4973271495212
 31
0.0
  0
LINE
  5
380
330
17
100
AcDbEntity
  8
4
100
AcDbLine
 10
2021.019741385706
 20
723.4973271495212
 30
0.0
 11
2021.019741385706
 21
733.3601462388945
 31
0.0
  0
LINE
  5
381
330
17
100
AcDbEntity
  8
4
100
AcDbLine
 10
2015.534913828406
 20
733.3601462388945
 30
0.0
 11
2015.534913828406
 21
726.4973271495212
 31
0.0
  0
ARC
  5
382
330
17
100
AcDbEntity
  8
4
100
AcDbCircle
 10
2001.822844935152
 20
730.621948274242
 30
0.0
 40
3.875378875279244
100
AcDbArc
 50
44.9559267627547
 51
135.044073237262
  0
LINE
  5
383
330
17
100
AcDbEntity
  8
4
100
AcDbLine
 10
2018.277327607057
 20
734.4973271495212
 30
0.0
 11
2001.822844935152
 21
734.4973271495212
 31
0.0
  0
ARC
  5
384
330
17
100
AcDbEntity
  8
4
100
AcDbCircle
 10
2010.050086271104
 20
720.7015830143439
 30
0.0
 40
13.7957441351769
100
AcDbArc
 50
66.57340249136868
 51
113.4265975086233
  0
ARC
  5
385
330
17
100
AcDbEntity
  8
4
100
AcDbCircle
 10
2018.277327607057
 20
730.621948274242
 30
0.0
 40
3.875378875279264
100
AcDbArc
 50
44.9559267627547
 51
135.044073237262
  0
LINE
  5
386
330
17
100
AcDbEntity
  8
4
100
AcDbLine
 10
1999.080431156501
 20
726.4973271495212
 30
0.0
 11
2021.019741385706
 21
726.4973271495212
 31
0.0
  0
LINE
  5
387
330
17
100
AcDbEntity
  8
4
100
AcDbLine
 10
1999.080431156501
 20
723.4973271495212
 30
0.0
 11
2021.019741385706
 21
723.4973271495212
 31
0.0
  0
LINE
  5
388
330
17
100
AcDbEntity
  8
4
100
AcDbLine
 10
1757.892431156501
 20
723.4973271495212
 30
0.0
 11
1779.831741385706
 21
723.4973271495212
 31
0.0
  0
LINE
  5
389
330
17
100
AcDbEntity
  8
4
100
AcDbLine
 10
1757.892431156501
 20
726.4973271495212
 30
0.0
 11
1779.831741385706
 21
726.4973271495212
 31
0.0
  0
ARC
  5
38A
330
17
100
AcDbEntity
  8
4
100
AcDbCircle
 10
1777.089327607057
 20
730.621948274242
 30
0.0
 40
3.875378875279264
100
AcDbArc
 50
44.9559267627547
 51
135.044073237262
  0
ARC
  5
38B
330
17
100
AcDbEntity
  8
4
100
AcDbCircle
 10
1768.862086271104
 20
720.7015830143439
 30
0.0
 40
13.7957441351769
100
AcDbArc
 50
66.57340249136868
 51
113.4265975086233
  0
LINE
  5
38C
330
17
100
AcDbEntity
  8
4
100
AcDbLine
 10
1777.089327607057
 20
734.4973271495212
 30
0.0
 11
1760.634844935152
 21
734.4973271495212
 31
0.0
  0
ARC
  5
38D
330
17
100
AcDbEntity
  8
4
100
AcDbCircle
 10
1760.634844935152
 20
730.621948274242
 30
0.0
 40
3.875378875279244
100
AcDbArc
 50
44.9559267627547
 51
135.044073237262
  0
LINE
  5
38E
330
17
100
AcDbEntity
  8
4
100
AcDbLine
 10
1774.346913828406
 20
733.3601462388945
 30
0.0
 11
1774.346913828406
 21
726.4973271495212
 31
0.0
  0
LINE
  5
38F
330
17
100
AcDbEntity
  8
4
100
AcDbLine
 10
1779.831741385706
 20
723.4973271495212
 30
0.0
 11
1779.831741385706
 21
733.3601462388945
 31
0.0
  0
LINE
  5
390
330
17
100
AcDbEntity
  8
4
100
AcDbLine
 10
1763.377258713803
 20
733.3601462388945
 30
0.0
 11
1763.377258713803
 21
726.4973271495212
 31
0.0
  0
LINE
  5
391
330
17
100
AcDbEntity
  8
4
100
AcDbLine
 10
1757.892431156501
 20
733.3601462388945
 30
0.0
 11
1757.892431156501
 21
723.4973271495212
 31
0.0
  0
ARC
  5
392
330
17
100
AcDbEntity
  8
4
100
AcDbCircle
 10
1535.901327607057
 20
730.621948274242
 30
0.0
 40
3.875378875279264
100
AcDbArc
 50
44.95592676275233
 51
135.044073237262
  0
LINE
  5
393
330
17
100
AcDbEntity
  8
4
100
AcDbLine
 10
1516.704431156501
 20
726.4973271495212
 30
0.0
 11
1538.643741385706
 21
726.4973271495212
 31
0.0
  0
LINE
  5
394
330
17
100
AcDbEntity
  8
4
100
AcDbLine
 10
1516.704431156501
 20
723.4973271495212
 30
0.0
 11
1538.643741385706
 21
723.4973271495212
 31
0.0
  0
LINE
  5
395
330
17
100
AcDbEntity
  8
4
100
AcDbLine
 10
1516.704431156501
 20
733.3601462388945
 30
0.0
 11
1516.704431156501
 21
723.4973271495212
 31
0.0
  0
LINE
  5
396
330
17
100
AcDbEntity
  8
4
100
AcDbLine
 10
1522.189258713803
 20
733.3601462388945
 30
0.0
 11
1522.189258713803
 21
726.4973271495212
 31
0.0
  0
LINE
  5
397
330
17
100
AcDbEntity
  8
4
100
AcDbLine
 10
1533.158913828406
 20
733.3601462388945
 30
0.0
 11
1533.158913828406
 21
726.4973271495212
 31
0.0
  0
ARC
  5
398
330
17
100
AcDbEntity
  8
4
100
AcDbCircle
 10
1519.446844935152
 20
730.621948274242
 30
0.0
 40
3.875378875279244
100
AcDbArc
 50
44.95592676275233
 51
135.044073237262
  0
LINE
  5
399
330
17
100
AcDbEntity
  8
4
100
AcDbLine
 10
1535.901327607057
 20
734.4973271495212
 30
0.0
 11
1519.446844935152
 21
734.4973271495212
 31
0.0
  0
ARC
  5
39A
330
17
100
AcDbEntity
  8
4
100
AcDbCircle
 10
1527.674086271104
 20
720.7015830143439
 30
0.0
 40
13.7957441351769
100
AcDbArc
 50
66.57340249136868
 51
113.4265975086271
  0
LINE
  5
39B
330
17
100
AcDbEntity
  8
4
100
AcDbLine
 10
1538.643741385706
 20
723.4973271495212
 30
0.0
 11
1538.643741385706
 21
733.3601462388945
 31
0.0
  0
LINE
  5
39C
330
17
100
AcDbEntity
  8
4
100
AcDbLine
 10
1999.224622892378
 20
733.4973271437832
 30
0.0
 11
1958.862086213724
 21
733.4973271437832
 31
0.0
  0
LINE
  5
39D
330
17
100
AcDbEntity
  8
4
100
AcDbLine
 10
1538.499549649831
 20
733.4973271437832
 30
0.0
 11
1578.862086328484
 21
733.4973271437832
 31
0.0
  0
LINE
  5
39E
330
17
100
AcDbEntity
  8
4
100
AcDbLine
 10
2072.3620861799
 20
554.6973272056935
 30
0.0
 11
2070.8620861799
 21
554.6973272056935
 31
0.0
  0
LINE
  5
39F
330
17
100
AcDbEntity
  8
4
100
AcDbLine
 10
2074.3620861799
 20
555.1973272056935
 30
0.0
 11
2072.3620861799
 21
555.1973272056935
 31
0.0
  0
LINE
  5
3A0
330
17
100
AcDbEntity
  8
4
100
AcDbLine
 10
2078.610674631613
 20
554.5178352813823
 30
0.0
 11
2074.3620861799
 21
554.5178352813823
 31
0.0
  0
LINE
  5
3A1
330
17
100
AcDbEntity
  8
4
100
AcDbLine
 10
2079.174498206782
 20
528.537073167849
 30
0.0
 11
2074.3620861799
 21
528.537073167849
 31
0.0
  0
LINE
  5
3A2
330
17
100
AcDbEntity
  8
4
100
AcDbLine
 10
2079.174498206782
 20
545.8575812435379
 30
0.0
 11
2074.3620861799
 21
545.8575812435379
 31
0.0
  0
LINE
  5
3A3
330
17
100
AcDbEntity
  8
4
100
AcDbLine
 10
2072.3620861799
 20
519.6973272056935
 30
0.0
 11
2070.8620861799
 21
519.6973272056935
 31
0.0
  0
LINE
  5
3A4
330
17
100
AcDbEntity
  8
4
100
AcDbLine
 10
2074.3620861799
 20
519.1973272056935
 30
0.0
 11
2072.3620861799
 21
519.1973272056935
 31
0.0
  0
LINE
  5
3A5
330
17
100
AcDbEntity
  8
4
100
AcDbLine
 10
2078.610674631613
 20
519.8768191300046
 30
0.0
 11
2074.3620861799
 21
519.8768191300046
 31
0.0
  0
ARC
  5
3A6
330
17
100
AcDbEntity
  8
4
100
AcDbCircle
 10
1879.3620861799
 20
537.1973272056935
 30
0.0
 40
200.0
100
AcDbArc
 50
355.0318164639294
 51
4.968183536070257
  0
LINE
  5
3A7
330
17
100
AcDbEntity
  8
4
100
AcDbLine
 10
2070.8620861799
 20
554.6973272056935
 30
0.0
 11
2070.8620861799
 21
519.6973272056935
 31
0.0
  0
LINE
  5
3A8
330
17
100
AcDbEntity
  8
4
100
AcDbLine
 10
2072.3620861799
 20
555.1973272056935
 30
0.0
 11
2072.3620861799
 21
519.1973272056935
 31
0.0
  0
LINE
  5
3A9
330
17
100
AcDbEntity
  8
4
100
AcDbLine
 10
2074.3620861799
 20
555.1973272056935
 30
0.0
 11
2074.3620861799
 21
519.1973272056935
 31
0.0
  0
LINE
  5
3AA
330
17
100
AcDbEntity
  8
4
100
AcDbLine
 10
573.5234250400772
 20
1901.224948435607
 30
0.0
 11
609.5234250400772
 21
1901.224948435607
 31
0.0
  0
LINE
  5
3AB
330
17
100
AcDbEntity
  8
4
100
AcDbLine
 10
573.5234250400772
 20
1903.224948435607
 30
0.0
 11
609.5234250400772
 21
1903.224948435607
 31
0.0
  0
LINE
  5
3AC
330
17
100
AcDbEntity
  8
4
100
AcDbLine
 10
573.5234250400772
 20
1903.224948435607
 30
0.0
 11
573.5234250400772
 21
1901.224948435607
 31
0.0
  0
LINE
  5
3AD
330
17
100
AcDbEntity
  8
4
100
AcDbLine
 10
609.0234250400772
 20
1901.224948435607
 30
0.0
 11
609.0234250400772
 21
1899.724948435607
 31
0.0
  0
LINE
  5
3AE
330
17
100
AcDbEntity
  8
4
100
AcDbLine
 10
609.5234250400772
 20
1903.224948435607
 30
0.0
 11
609.5234250400772
 21
1901.224948435607
 31
0.0
  0
LINE
  5
3AF
330
17
100
AcDbEntity
  8
4
100
AcDbLine
 10
606.5234250400772
 20
1907.661655187398
 30
0.0
 11
606.5234250400772
 21
1903.224948435607
 31
0.0
  0
LINE
  5
3B0
330
17
100
AcDbEntity
  8
4
100
AcDbLine
 10
574.0234250400772
 20
1901.224948435607
 30
0.0
 11
574.0234250400772
 21
1899.724948435607
 31
0.0
  0
LINE
  5
3B1
330
17
100
AcDbEntity
  8
4
100
AcDbLine
 10
576.5234250400772
 20
1907.661655187398
 30
0.0
 11
576.5234250400772
 21
1903.224948435607
 31
0.0
  0
ARC
  5
3B2
330
17
100
AcDbEntity
  8
4
100
AcDbCircle
 10
591.5234250400772
 20
1708.224948435607
 30
0.0
 40
200.0
100
AcDbArc
 50
85.69877769532965
 51
94.30122230467038
  0
LINE
  5
3B3
330
17
100
AcDbEntity
  8
4
100
AcDbLine
 10
574.0234250400772
 20
1899.724948435607
 30
0.0
 11
609.0234250400772
 21
1899.724948435607
 31
0.0
  0
LINE
  5
3B4
330
17
100
AcDbEntity
  8
4
100
AcDbLine
 10
940.5234249373966
 20
1311.724948435606
 30
0.0
 11
1041.523424904176
 21
1311.724948435606
 31
0.0
  0
LINE
  5
3B5
330
17
100
AcDbEntity
  8
4
100
AcDbLine
 10
940.5234249373966
 20
1293.724948435606
 30
0.0
 11
1041.523424904176
 21
1293.724948435606
 31
0.0
  0
ARC
  5
3B6
330
17
100
AcDbEntity
  8
4
100
AcDbCircle
 10
940.5234249373966
 20
1302.724948435606
 30
0.0
 40
9.0
100
AcDbArc
 50
90.0
 51
270.0
  0
CIRCLE
  5
417
330
17
100
AcDbEntity
  8
4
100
AcDbCircle
 10
1473.862086360194
 20
577.1973271936135
 30
0.0
 40
50.0
  0
CIRCLE
  5
418
330
17
100
AcDbEntity
  8
4
100
AcDbCircle
 10
1473.862086360194
 20
577.1973271936135
 30
0.0
 40
72.0
  0
SPLINE
  5
586
330
17
100
AcDbEntity
  8
4
100
AcDbSpline
210
0.0
220
0.0
230
1.0
 70
     8
 71
     3
 72
    10
 73
     6
 74
     0
 42
0.000000001
 43
0.0
 40
10.15181342429091
 40
10.15181342429091
 40
10.15181342429091
 40
10.15181342429091
 40
22.97080335179979
 40
39.7370718880326
 40
53.00932436427401
 40
53.00932436427401
 40
53.00932436427401
 40
53.00932436427401
 10
839.9623741730952
 20
389.1973272509938
 30
0.0
 10
841.5355141411824
 20
384.9758640853606
 30
0.0
 10
843.5400247615416
 20
374.9438554130736
 30
0.0
 10
834.004752371095
 20
363.2953910375886
 30
0.0
 10
832.7841845644903
 20
351.7756711422571
 30
0.0
 10
833.6282514027976
 20
347.1973272630737
 30
0.0
  0
ARC
  5
587
330
17
100
AcDbEntity
  8
4
100
AcDbCircle
 10
280.2234251343007
 20
463.6973272281925
 30
0.0
 40
1.0
100
AcDbArc
 50
180.0
 51
270.0
  0
ARC
  5
588
330
17
100
AcDbEntity
  8
4
100
AcDbCircle
 10
280.2234251343007
 20
690.6973271590346
 30
0.0
 40
1.0
100
AcDbArc
 50
90.0
 51
180.0
  0
ARC
  5
589
330
17
100
AcDbEntity
  8
4
100
AcDbCircle
 10
902.8234249458524
 20
690.6973271590346
 30
0.0
 40
1.0
100
AcDbArc
 50
0.0
 51
90.0
  0
ARC
  5
58A
330
17
100
AcDbEntity
  8
4
100
AcDbCircle
 10
902.8234249458524
 20
463.6973272281925
 30
0.0
 40
1.0
100
AcDbArc
 50
270.0
 51
0.0
  0
ARC
  5
5E6
330
17
100
AcDbEntity
  8
4
100
AcDbCircle
 10
1768.862086271104
 20
355.1973272817977
 30
0.0
 40
11.999999996376
100
AcDbArc
 50
0.0
 51
180.0
  0
LINE
  5
5E7
330
17
100
AcDbEntity
  8
4
100
AcDbLine
 10
1756.862086274728
 20
217.1973273334397
 30
0.0
 11
1756.862086274728
 21
355.1973272817977
 31
0.0
  0
LINE
  5
5E8
330
17
100
AcDbEntity
  8
4
100
AcDbLine
 10
1780.86208626748
 20
355.1973272817977
 30
0.0
 11
1780.86208626748
 21
217.1973273334397
 31
0.0
  0
LINE
  5
5E9
330
17
100
AcDbEntity
  8
4
100
AcDbLine
 10
544.0234250544218
 20
386.1973272512955
 30
0.0
 11
544.0234250544218
 21
377.1973272721339
 31
0.0
  0
LINE
  5
5EA
330
17
100
AcDbEntity
  8
4
100
AcDbLine
 10
639.0234250257317
 20
386.197327251296
 30
0.0
 11
639.0234250257317
 21
377.1973272721339
 31
0.0
  0
LINE
  5
5EC
330
17
100
AcDbEntity
  8
4
100
AcDbLine
 10
1723.86208628424
 20
217.1973273334402
 30
0.0
 11
1722.362086284693
 21
218.6973273329863
 31
0.0
  0
LINE
  5
5ED
330
17
100
AcDbEntity
  8
4
100
AcDbLine
 10
1722.362086284693
 20
218.6973273329863
 30
0.0
 11
1722.362086284693
 21
377.1973272721339
 31
0.0
  0
LINE
  5
5EE
330
17
100
AcDbEntity
  8
4
100
AcDbLine
 10
1813.862086257967
 20
217.1973273334402
 30
0.0
 11
1815.362086257514
 21
218.6973273329863
 31
0.0
  0
LINE
  5
5EF
330
17
100
AcDbEntity
  8
4
100
AcDbLine
 10
1813.862086257967
 20
217.1973273334402
 30
0.0
 11
1723.86208628424
 21
217.1973273334402
 31
0.0
  0
LINE
  5
5F0
330
17
100
AcDbEntity
  8
4
100
AcDbLine
 10
1815.362086257514
 20
218.6973273329863
 30
0.0
 11
1815.362086257514
 21
377.1973272721339
 31
0.0
  0
LINE
  5
5F1
330
17
100
AcDbEntity
  8
4
100
AcDbLine
 10
1815.362086257514
 20
218.6973273329863
 30
0.0
 11
1780.86208626748
 21
218.6973273329868
 31
0.0
  0
LINE
  5
5F2
330
17
100
AcDbEntity
  8
4
100
AcDbLine
 10
1816.362086256759
 20
377.1973272721339
 30
0.0
 11
1721.362086285448
 21
377.1973272721339
 31
0.0
  0
LINE
  5
5F3
330
17
100
AcDbEntity
  8
4
100
AcDbLine
 10
1816.362086256759
 20
386.1973272512955
 30
0.0
 11
1816.362086256759
 21
377.1973272721339
 31
0.0
  0
LINE
  5
5F4
330
17
100
AcDbEntity
  8
4
100
AcDbLine
 10
1721.362086285448
 20
386.1973272512955
 30
0.0
 11
1721.362086285448
 21
377.1973272721339
 31
0.0
  0
LINE
  5
5F5
330
17
100
AcDbEntity
  8
4
100
AcDbLine
 10
651.5234250219569
 20
386.197327251296
 30
0.0
 11
531.5234250581966
 21
386.1973272512955
 31
0.0
  0
LINE
  5
5F7
330
17
100
AcDbEntity
  8
4
100
AcDbLine
 10
531.5234250581966
 20
387.1973272509936
 30
0.0
 11
531.5234250581966
 21
386.1973272512955
 31
0.0
  0
LINE
  5
5F8
330
17
100
AcDbEntity
  8
4
100
AcDbLine
 10
651.5234250219569
 20
387.1973272509936
 30
0.0
 11
651.5234250219569
 21
386.1973272512955
 31
0.0
  0
LINE
  5
5F9
330
17
100
AcDbEntity
  8
4
100
AcDbLine
 10
1708.862086289224
 20
387.1973272509936
 30
0.0
 11
1708.862086289224
 21
386.1973272512955
 31
0.0
  0
LINE
  5
5FA
330
17
100
AcDbEntity
  8
4
100
AcDbLine
 10
1768.862086271104
 20
386.1973272512955
 30
0.0
 11
1708.862086289224
 21
386.1973272512955
 31
0.0
  0
LINE
  5
5FB
330
17
100
AcDbEntity
  8
4
100
AcDbLine
 10
1768.862086271104
 20
386.1973272512955
 30
0.0
 11
1828.862086252983
 21
386.1973272512955
 31
0.0
  0
LINE
  5
5FC
330
17
100
AcDbEntity
  8
4
100
AcDbLine
 10
1828.862086252983
 20
387.1973272509936
 30
0.0
 11
1828.862086252983
 21
386.1973272512955
 31
0.0
  0
LINE
  5
5FD
330
17
100
AcDbEntity
  8
4
100
AcDbLine
 10
1756.862086274728
 20
218.6973273329868
 30
0.0
 11
1722.362086284693
 21
218.6973273329863
 31
0.0
  0
LINE
  5
5FE
330
17
100
AcDbEntity
  8
4
100
AcDbLine
 10
546.5234250532139
 20
217.1973273334402
 30
0.0
 11
646.0234250264871
 21
217.1973273334397
 31
0.0
  0
LINE
  5
5FF
330
17
100
AcDbEntity
  8
4
100
AcDbLine
 10
545.0234250536669
 20
218.6973273329863
 30
0.0
 11
638.0234250264866
 21
218.6973273329863
 31
0.0
  0
LINE
  5
600
330
17
100
AcDbEntity
  8
4
100
AcDbLine
 10
646.0234250264871
 20
217.1973273334397
 30
0.0
 11
646.0234250264862
 21
367.1973273334406
 31
0.0
  0
LINE
  5
601
330
17
100
AcDbEntity
  8
4
100
AcDbLine
 10
638.0234250264866
 20
218.6973273329863
 30
0.0
 11
638.0234250264866
 21
377.1973272721339
 31
0.0
  0
LINE
  5
602
330
17
100
AcDbEntity
  8
4
100
AcDbLine
 10
636.5234250269395
 20
217.1973273334402
 30
0.0
 11
638.0234250264866
 21
218.6973273329863
 31
0.0
  0
LINE
  5
603
330
17
100
AcDbEntity
  8
4
100
AcDbLine
 10
545.0234250536669
 20
218.6973273329863
 30
0.0
 11
545.0234250536669
 21
377.1973272721339
 31
0.0
  0
LINE
  5
604
330
17
100
AcDbEntity
  8
4
100
AcDbLine
 10
546.5234250532139
 20
217.1973273334402
 30
0.0
 11
545.0234250536669
 21
218.6973273329863
 31
0.0
  0
LINE
  5
605
330
17
100
AcDbEntity
  8
4
100
AcDbLine
 10
638.0234250264866
 20
367.1973273334397
 30
0.0
 11
646.0234250264875
 21
367.1973273334397
 31
0.0
  0
LINE
  5
606
330
17
100
AcDbEntity
  8
4
100
AcDbLine
 10
639.0234250257317
 20
377.1973272721327
 30
0.0
 11
544.0234250544218
 21
377.1973272721339
 31
0.0
  0
LINE
  5
626
330
17
100
AcDbEntity
  8
4
100
AcDbLine
 10
256.5234250400767
 20
1307.724948435606
 30
0.0
 11
268.2234250400766
 21
1307.724948435606
 31
0.0
  0
ARC
  5
627
330
17
100
AcDbEntity
  8
4
100
AcDbCircle
 10
256.5234250400767
 20
1312.724948435606
 30
0.0
 40
5.0
100
AcDbArc
 50
180.0
 51
270.0
  0
LINE
  5
64B
330
17
100
AcDbEntity
  8
4
100
AcDbLine
 10
1780.862086271104
 20
147.1746440499852
 30
0.0
 11
1756.862086271104
 21
147.1746440499852
 31
0.0
  0
LINE
  5
64C
330
17
100
AcDbEntity
  8
4
100
AcDbLine
 10
1780.862086271104
 20
131.1746420499852
 30
0.0
 11
1756.862086271104
 21
131.1746420499852
 31
0.0
  0
LINE
  5
64D
330
17
100
AcDbEntity
  8
4
100
AcDbLine
 10
1756.862086271104
 20
147.1746440499852
 30
0.0
 11
1756.862086271104
 21
131.1746420499852
 31
0.0
  0
LINE
  5
64E
330
17
100
AcDbEntity
  8
4
100
AcDbLine
 10
1780.862086271104
 20
131.1746420499852
 30
0.0
 11
1780.862086271104
 21
147.1746440499852
 31
0.0
  0
LINE
  5
651
330
17
100
AcDbEntity
  8
L-CENTER
 48
2.0
100
AcDbLine
 10
1768.862086271104
 20
25.41600204998542
 30
0.0
 11
1768.862086271104
 21
159.9332900499852
 31
0.0
  0
LINE
  5
652
330
17
100
AcDbEntity
  8
L-CENTER
 48
2.0
100
AcDbLine
 10
1701.603442271103
 20
92.67464604998543
 30
0.0
 11
1836.120730271103
 21
92.6746460499852
 31
0.0
  0
ARC
  5
653
330
17
100
AcDbEntity
  8
4
100
AcDbCircle
 10
1768.862086271104
 20
92.6746460499852
 30
0.0
 40
46.500054
100
AcDbArc
 50
104.9552305438094
 51
75.04478700000078
  0
ENDSEC
  0
SECTION
  2
OBJECTS
  0
DICTIONARY
  5
5
330
0
100
AcDbDictionary
281
     1
  3
ACAD_COLOR
350
29
  3
ACAD_GROUP
350
27
  3
ACAD_LAYOUT
350
1E
  3
ACAD_MATERIAL
350
7
  3
ACAD_MLEADERSTYLE
350
58E
  3
ACAD_MLINESTYLE
350
15
  3
ACAD_PLOTSETTINGS
350
28
  3
ACAD_PLOTSTYLENAME
350
4
  3
ACAD_SCALELIST
350
2D
  3
ACAD_TABLESTYLE
350
58D
  3
ACAD_VISUALSTYLE
350
2A
  3
ACDBHEADERROUNDTRIPXREC
350
658
  3
AcDbVariableDictionary
350
58B
  3
DWGPROPS
350
65B
  0
DICTIONARY
  5
65C
330
26
100
AcDbDictionary
280
     1
281
     1
  3
ACAD_XREC_ROUNDTRIP
360
65D
  0
DICTIONARY
  5
18
330
17
100
AcDbDictionary
280
     1
281
     1
  3
ACAD_SORTENTS
360
19
  0
DICTIONARY
  5
29
102
{ACAD_REACTORS
330
5
102
}
330
5
100
AcDbDictionary
281
     1
  0
DICTIONARY
  5
27
102
{ACAD_REACTORS
330
5
102
}
330
5
100
AcDbDictionary
281
     1
  0
DICTIONARY
  5
1E
102
{ACAD_REACTORS
330
5
102
}
330
5
100
AcDbDictionary
281
     1
  3
Model
350
1D
  3
ﾚｲｱｳﾄ1
350
23
  0
DICTIONARY
  5
7
102
{ACAD_REACTORS
330
5
102
}
330
5
100
AcDbDictionary
281
     1
  3
ByBlock
350
70
  3
ByLayer
350
10
  3
Global
350
6
  0
DICTIONARY
  5
58E
102
{ACAD_REACTORS
330
5
102
}
330
5
100
AcDbDictionary
281
     1
  3
Standard
350
5A9
  0
DICTIONARY
  5
15
102
{ACAD_REACTORS
330
5
102
}
330
5
100
AcDbDictionary
281
     1
  3
STANDARD
350
14
  0
DICTIONARY
  5
28
102
{ACAD_REACTORS
330
5
102
}
330
5
100
AcDbDictionary
281
     1
  0
ACDBDICTIONARYWDFLT
  5
4
102
{ACAD_REACTORS
330
5
102
}
330
5
100
AcDbDictionary
281
     1
  3
Normal
350
3
100
AcDbDictionaryWithDefault
340
3
  0
DICTIONARY
  5
2D
102
{ACAD_REACTORS
330
5
102
}
330
5
100
AcDbDictionary
281
     1
  3
*A1
350
4F
  3
*A10
350
58
  3
*A11
350
59
  3
*A12
350
5A
  3
*A13
350
5B
  3
*A14
350
5C
  3
*A15
350
5D
  3
*A16
350
5E
  3
*A17
350
5F
  3
*A18
350
60
  3
*A19
350
61
  3
*A2
350
50
  3
*A20
350
62
  3
*A21
350
63
  3
*A22
350
64
  3
*A23
350
65
  3
*A24
350
66
  3
*A25
350
67
  3
*A26
350
68
  3
*A27
350
69
  3
*A28
350
6A
  3
*A29
350
6B
  3
*A3
350
51
  3
*A30
350
6C
  3
*A31
350
6D
  3
*A32
350
6E
  3
*A33
350
6F
  3
*A4
350
52
  3
*A5
350
53
  3
*A6
350
54
  3
*A7
350
55
  3
*A8
350
56
  3
*A9
350
57
  0
DICTIONARY
  5
58D
102
{ACAD_REACTORS
330
5
102
}
330
5
100
AcDbDictionary
281
     1
  3
Standard
350
654
  0
DICTIONARY
  5
2A
102
{ACAD_REACTORS
330
5
102
}
330
5
100
AcDbDictionary
281
     1
  3
2dWireframe
350
595
  3
Basic
350
598
  3
Brighten
350
59C
  3
ColorChange
350
5A0
  3
Conceptual
350
59A
  3
Dim
350
59B
  3
EdgeColorOff
350
5A3
  3
Facepattern
350
59F
  3
Flat
350
591
  3
FlatWithEdges
350
592
  3
Gouraud
350
593
  3
GouraudWithEdges
350
594
  3
Hidden
350
597
  3
JitterOff
350
5A1
  3
Linepattern
350
59E
  3
OverhangOff
350
5A2
  3
Realistic
350
599
  3
Shaded
350
5A8
  3
Shaded with edges
350
5A7
  3
Shades of Gray
350
5A4
  3
Sketchy
350
5A5
  3
Thicken
350
59D
  3
Wireframe
350
596
  3
X-Ray
350
5A6
  0
DICTIONARY
  5
658
102
{ACAD_REACTORS
330
5
102
}
330
5
100
AcDbDictionary
281
     1
  3
COLORDICT
350
659
  3
MATERIALDICT
350
65A
  0
DICTIONARY
  5
58B
102
{ACAD_REACTORS
330
5
102
}
330
5
100
AcDbDictionary
281
     1
  3
CANNOSCALE
350
58C
  3
CMLEADERSTYLE
350
5AB
  3
CTABLESTYLE
350
655
  3
DIMASSOC
350
656
  3
HIDETEXT
350
657
  3
MSLTSCALE
350
65E
  0
XRECORD
  5
65B
102
{ACAD_REACTORS
330
5
102
}
330
5
100
AcDbXrecord
280
     1
  1
DWGPROPS COOKIE
  2

  3

  4

  6

  7

  8
sg-d04
  9

300
=
301
=
302
=
303
=
304
=
305
=
306
=
307
=
308
=
309
=
 40
0.0
 41
2457431.467175023
 42
2457871.468622095
  1

 90
        0
  0
XRECORD
  5
65D
102
{ACAD_REACTORS
330
65C
102
}
330
65C
100
AcDbXrecord
280
     1
102
VTR_0.000_0.000_1.000_1.000_VISUALSTYLE
340
595
102
VTR_0.000_0.000_1.000_1.000_GRIDDISPLAY
 70
     3
102
VTR_0.000_0.000_1.000_1.000_GRIDMAJOR
 70
     5
102
VTR_0.000_0.000_1.000_1.000_DEFAULTLIGHTING
280
     1
102
VTR_0.000_0.000_1.000_1.000_DEFAULTLIGHTINGTYPE
 70
     1
102
VTR_0.000_0.000_1.000_1.000_BRIGHTNESS
141
0.0
102
VTR_0.000_0.000_1.000_1.000_CONTRAST
142
0.0
  0
SORTENTSTABLE
  5
19
102
{ACAD_REACTORS
330
18
102
}
330
18
100
AcDbSortentsTable
330
17
  0
LAYOUT
  5
1D
102
{ACAD_REACTORS
330
1E
102
}
330
1E
100
AcDbPlotSettings
  1

  2
Bullzip PDF Printer.pc3
  4
A3
  6

 40
0.2
 41
0.0
 42
0.0
 43
0.0
 44
420.2
 45
297.1
 46
25.0
 47
12.0
 48
139.9999997783334
 49
0.0
140
2813.999993653335
141
1907.499995549166
142
1.0
143
7.0
 70
  1696
 72
     1
 73
     0
 74
     4
  7
monochrome.ctb
 75
     0
147
0.1428571428571428
148
-139.9999997783334
149
0.0
100
AcDbLayout
  1
Model
 70
     0
 71
     0
 10
0.0
 20
0.0
 11
12.0
 21
9.0
 12
0.0
 22
0.0
 32
0.0
 14
251.5234250400767
 24
25.41600204998531
 34
0.0
 15
2082.564623443051
 25
1915.972188677524
 35
0.0
146
0.0
 13
0.0
 23
0.0
 33
0.0
 16
1.0
 26
0.0
 36
0.0
 17
0.0
 27
1.0
 37
0.0
 76
     0
330
17
331
2B
1001
ACAD_PSEXT
1000
Bullzip PDF Printer.pc3
1000
Bullzip PDF Printer
1000
BULLZIP
1000
Bullzip PDF Printer 10.1.0.1871
1070
     0
  0
LAYOUT
  5
23
102
{ACAD_REACTORS
330
1E
102
}
330
1E
100
AcDbPlotSettings
  1

  2
SR-LP8300F
  4

  6

 40
0.0
 41
0.0
 42
0.0
 43
0.0
 44
0.0
 45
0.0
 46
0.0
 47
0.0
 48
0.0
 49
0.0
140
0.0
141
0.0
142
1.0
143
1.0
 70
   688
 72
     0
 73
     0
 74
     5
  7
monochrome.ctb
 75
    16
147
1.0
148
0.0
149
0.0
100
AcDbLayout
  1
ﾚｲｱｳﾄ1
 70
     0
 71
     1
 10
0.0
 20
0.0
 11
12.0
 21
9.0
 12
0.0
 22
0.0
 32
0.0
 14
1.000000000000000E+20
 24
1.000000000000000E+20
 34
1.000000000000000E+20
 15
-1.000000000000000E+20
 25
-1.000000000000000E+20
 35
-1.000000000000000E+20
146
0.0
 13
0.0
 23
0.0
 33
0.0
 16
1.0
 26
0.0
 36
0.0
 17
0.0
 27
1.0
 37
0.0
 76
     0
330
20
  0
MATERIAL
  5
70
102
{ACAD_REACTORS
330
7
102
}
102
{ACAD_XDICTIONARY
360
663
102
}
330
7
100
AcDbMaterial
  1
ByBlock
  0
MATERIAL
  5
10
102
{ACAD_REACTORS
330
7
102
}
102
{ACAD_XDICTIONARY
360
65F
102
}
330
7
100
AcDbMaterial
  1
ByLayer
  0
MATERIAL
  5
6
102
{ACAD_REACTORS
330
7
102
}
102
{ACAD_XDICTIONARY
360
661
102
}
330
7
100
AcDbMaterial
  1
Global
1001
ACAD
1070
    -1
1070
     3
1070
     0
1000

1071
        0
  0
MLEADERSTYLE
  5
5A9
102
{ACAD_REACTORS
330
58E
102
}
102
{ACAD_XDICTIONARY
360
695
102
}
330
58E
100
AcDbMLeaderStyle
170
     2
171
     1
172
     0
 90
        2
 40
0.0
 41
0.0
173
     1
 91
-1056964608
340
D
 92
       -2
290
     1
 42
0.09
291
     1
 43
0.36
  3
Standard
341
0
 44
0.18
300

342
E
174
     1
178
     6
175
     1
176
     0
 93
-1056964608
 45
0.18
292
     0
297
     0
 46
0.18
343
0
 94
-1056964608
 47
1.0
 49
1.0
140
1.0
293
     1
141
0.0
294
     1
177
     0
142
1.0
295
     0
296
     0
143
0.125
1001
ACAD_MLEADERVER
1070
     2
  0
MLINESTYLE
  5
14
102
{ACAD_REACTORS
330
15
102
}
330
15
100
AcDbMlineStyle
  2
STANDARD
 70
     0
  3

 62
     0
 51
90.0
 52
90.0
 71
     2
 49
0.5
 62
   256
  6
BYLAYER
 49
-0.5
 62
   256
  6
BYLAYER
  0
ACDBPLACEHOLDER
  5
3
102
{ACAD_REACTORS
330
4
102
}
330
4
  0
SCALE
  5
4F
102
{ACAD_REACTORS
330
2D
102
}
330
2D
100
AcDbScale
 70
     0
300
1:1
140
1.0
141
1.0
290
     1
  0
SCALE
  5
58
102
{ACAD_REACTORS
330
2D
102
}
330
2D
100
AcDbScale
 70
     0
300
1:40
140
1.0
141
40.0
290
     0
  0
SCALE
  5
59
102
{ACAD_REACTORS
330
2D
102
}
330
2D
100
AcDbScale
 70
     0
300
1:50
140
1.0
141
50.0
290
     0
  0
SCALE
  5
5A
102
{ACAD_REACTORS
330
2D
102
}
330
2D
100
AcDbScale
 70
     0
300
1:100
140
1.0
141
100.0
290
     0
  0
SCALE
  5
5B
102
{ACAD_REACTORS
330
2D
102
}
330
2D
100
AcDbScale
 70
     0
300
2:1
140
2.0
141
1.0
290
     0
  0
SCALE
  5
5C
102
{ACAD_REACTORS
330
2D
102
}
330
2D
100
AcDbScale
 70
     0
300
4:1
140
4.0
141
1.0
290
     0
  0
SCALE
  5
5D
102
{ACAD_REACTORS
330
2D
102
}
330
2D
100
AcDbScale
 70
     0
300
8:1
140
8.0
141
1.0
290
     0
  0
SCALE
  5
5E
102
{ACAD_REACTORS
330
2D
102
}
330
2D
100
AcDbScale
 70
     0
300
10:1
140
10.0
141
1.0
290
     0
  0
SCALE
  5
5F
102
{ACAD_REACTORS
330
2D
102
}
330
2D
100
AcDbScale
 70
     0
300
100:1
140
100.0
141
1.0
290
     0
  0
SCALE
  5
60
102
{ACAD_REACTORS
330
2D
102
}
330
2D
100
AcDbScale
 70
     0
300
1/128" = 1'-0"
140
0.0078125
141
12.0
290
     0
  0
SCALE
  5
61
102
{ACAD_REACTORS
330
2D
102
}
330
2D
100
AcDbScale
 70
     0
300
1/64" = 1'-0"
140
0.015625
141
12.0
290
     0
  0
SCALE
  5
50
102
{ACAD_REACTORS
330
2D
102
}
330
2D
100
AcDbScale
 70
     0
300
1:2
140
1.0
141
2.0
290
     0
  0
SCALE
  5
62
102
{ACAD_REACTORS
330
2D
102
}
330
2D
100
AcDbScale
 70
     0
300
1/32" = 1'-0"
140
0.03125
141
12.0
290
     0
  0
SCALE
  5
63
102
{ACAD_REACTORS
330
2D
102
}
330
2D
100
AcDbScale
 70
     0
300
1/16" = 1'-0"
140
0.0625
141
12.0
290
     0
  0
SCALE
  5
64
102
{ACAD_REACTORS
330
2D
102
}
330
2D
100
AcDbScale
 70
     0
300
3/32" = 1'-0"
140
0.09375
141
12.0
290
     0
  0
SCALE
  5
65
102
{ACAD_REACTORS
330
2D
102
}
330
2D
100
AcDbScale
 70
     0
300
1/8" = 1'-0"
140
0.125
141
12.0
290
     0
  0
SCALE
  5
66
102
{ACAD_REACTORS
330
2D
102
}
330
2D
100
AcDbScale
 70
     0
300
3/16" = 1'-0"
140
0.1875
141
12.0
290
     0
  0
SCALE
  5
67
102
{ACAD_REACTORS
330
2D
102
}
330
2D
100
AcDbScale
 70
     0
300
1/4" = 1'-0"
140
0.25
141
12.0
290
     0
  0
SCALE
  5
68
102
{ACAD_REACTORS
330
2D
102
}
330
2D
100
AcDbScale
 70
     0
300
3/8" = 1'-0"
140
0.375
141
12.0
290
     0
  0
SCALE
  5
69
102
{ACAD_REACTORS
330
2D
102
}
330
2D
100
AcDbScale
 70
     0
300
1/2" = 1'-0"
140
0.5
141
12.0
290
     0
  0
SCALE
  5
6A
102
{ACAD_REACTORS
330
2D
102
}
330
2D
100
AcDbScale
 70
     0
300
3/4" = 1'-0"
140
0.75
141
12.0
290
     0
  0
SCALE
  5
6B
102
{ACAD_REACTORS
330
2D
102
}
330
2D
100
AcDbScale
 70
     0
300
1" = 1'-0"
140
1.0
141
12.0
290
     0
  0
SCALE
  5
51
102
{ACAD_REACTORS
330
2D
102
}
330
2D
100
AcDbScale
 70
     0
300
1:4
140
1.0
141
4.0
290
     0
  0
SCALE
  5
6C
102
{ACAD_REACTORS
330
2D
102
}
330
2D
100
AcDbScale
 70
     0
300
1-1/2" = 1'-0"
140
1.5
141
12.0
290
     0
  0
SCALE
  5
6D
102
{ACAD_REACTORS
330
2D
102
}
330
2D
100
AcDbScale
 70
     0
300
3" = 1'-0"
140
3.0
141
12.0
290
     0
  0
SCALE
  5
6E
102
{ACAD_REACTORS
330
2D
102
}
330
2D
100
AcDbScale
 70
     0
300
6" = 1'-0"
140
6.0
141
12.0
290
     0
  0
SCALE
  5
6F
102
{ACAD_REACTORS
330
2D
102
}
330
2D
100
AcDbScale
 70
     0
300
1'-0" = 1'-0"
140
12.0
141
12.0
290
     0
  0
SCALE
  5
52
102
{ACAD_REACTORS
330
2D
102
}
330
2D
100
AcDbScale
 70
     0
300
1:5
140
1.0
141
5.0
290
     0
  0
SCALE
  5
53
102
{ACAD_REACTORS
330
2D
102
}
330
2D
100
AcDbScale
 70
     0
300
1:8
140
1.0
141
8.0
290
     0
  0
SCALE
  5
54
102
{ACAD_REACTORS
330
2D
102
}
330
2D
100
AcDbScale
 70
     0
300
1:10
140
1.0
141
10.0
290
     0
  0
SCALE
  5
55
102
{ACAD_REACTORS
330
2D
102
}
330
2D
100
AcDbScale
 70
     0
300
1:16
140
1.0
141
16.0
290
     0
  0
SCALE
  5
56
102
{ACAD_REACTORS
330
2D
102
}
330
2D
100
AcDbScale
 70
     0
300
1:20
140
1.0
141
20.0
290
     0
  0
SCALE
  5
57
102
{ACAD_REACTORS
330
2D
102
}
330
2D
100
AcDbScale
 70
     0
300
1:30
140
1.0
141
30.0
290
     0
  0
TABLESTYLE
  5
654
102
{ACAD_REACTORS
330
58D
102
}
330
58D
100
AcDbTableStyle
  3
Standard
 70
     0
 71
     0
 40
0.06
 41
0.06
280
     0
281
     0
  7
STANDARD
140
0.18
170
     2
 62
     0
 63
   257
283
     0
274
    -2
284
     1
 64
     0
275
    -2
285
     1
 65
     0
276
    -2
286
     1
 66
     0
277
    -2
287
     1
 67
     0
278
    -2
288
     1
 68
     0
279
    -2
289
     1
 69
     0
  7
STANDARD
140
0.25
170
     5
 62
     0
 63
   257
283
     0
274
    -2
284
     1
 64
     0
275
    -2
285
     1
 65
     0
276
    -2
286
     1
 66
     0
277
    -2
287
     1
 67
     0
278
    -2
288
     1
 68
     0
279
    -2
289
     1
 69
     0
  7
STANDARD
140
0.18
170
     5
 62
     0
 63
   257
283
     0
274
    -2
284
     1
 64
     0
275
    -2
285
     1
 65
     0
276
    -2
286
     1
 66
     0
277
    -2
287
     1
 67
     0
278
    -2
288
     1
 68
     0
279
    -2
289
     1
 69
     0
  0
VISUALSTYLE
  5
595
102
{ACAD_REACTORS
330
2A
102
}
102
{ACAD_XDICTIONARY
360
66D
102
}
330
2A
100
AcDbVisualStyle
  2
2dWireframe
 70
     4
 71
     0
 72
     2
 73
     0
 90
        0
 40
0.6
 41
30.0
 62
     5
 63
     7
 74
     1
 91
        4
 64
     7
 65
   257
 75
     1
175
     1
 42
1.0
 92
        0
 66
   257
 43
1.0
 76
     1
 77
     6
 78
     2
 67
     7
 79
     5
170
     0
171
     0
290
     0
174
     0
 93
        1
 44
0.0
173
     0
291
     0
 45
0.0
1001
ACAD
1000
AcDbSavedByObjectVersion
1070
     0
  0
VISUALSTYLE
  5
598
102
{ACAD_REACTORS
330
2A
102
}
102
{ACAD_XDICTIONARY
360
673
102
}
330
2A
100
AcDbVisualStyle
  2
Basic
 70
     7
 71
     1
 72
     0
 73
     1
 90
        0
 40
0.6
 41
30.0
 62
     5
 63
     7
 74
     0
 91
        4
 64
     7
 65
   257
 75
     1
175
     1
 42
1.0
 92
        8
 66
     7
 43
1.0
 76
     1
 77
     6
 78
     2
 67
     7
 79
     5
170
     0
171
     0
290
     0
174
     0
 93
        1
 44
0.0
173
     0
291
     1
 45
0.0
1001
ACAD
1000
AcDbSavedByObjectVersion
1070
     0
  0
VISUALSTYLE
  5
59C
102
{ACAD_REACTORS
330
2A
102
}
102
{ACAD_XDICTIONARY
360
67B
102
}
330
2A
100
AcDbVisualStyle
  2
Brighten
 70
    12
 71
     2
 72
     2
 73
     0
 90
        0
 40
0.6
 41
30.0
 62
     5
 63
     7
 74
     1
 91
        4
 64
     7
 65
   257
 75
     1
175
     1
 42
1.0
 92
        8
 66
     7
 43
1.0
 76
     1
 77
     6
 78
     2
 67
     7
 79
     5
170
     0
171
     0
290
     0
174
     0
 93
        1
 44
50.0
173
     0
291
     1
 45
0.0
1001
ACAD
1000
AcDbSavedByObjectVersion
1070
     0
  0
VISUALSTYLE
  5
5A0
102
{ACAD_REACTORS
330
2A
102
}
102
{ACAD_XDICTIONARY
360
683
102
}
330
2A
100
AcDbVisualStyle
  2
ColorChange
 70
    16
 71
     2
 72
     2
 73
     3
 90
        0
 40
0.6
 41
30.0
 62
     5
 63
     8
 74
     1
 91
        4
 64
     7
 65
   257
 75
     1
175
     1
 42
1.0
 92
        8
 66
     8
 43
1.0
 76
     1
 77
     6
 78
     2
 67
     7
 79
     5
170
     0
171
     0
290
     0
174
     0
 93
        1
 44
0.0
173
     0
291
     1
 45
0.0
1001
ACAD
1000
AcDbSavedByObjectVersion
1070
     0
  0
VISUALSTYLE
  5
59A
102
{ACAD_REACTORS
330
2A
102
}
102
{ACAD_XDICTIONARY
360
677
102
}
330
2A
100
AcDbVisualStyle
  2
Conceptual
 70
     9
 71
     3
 72
     2
 73
     0
 90
        0
 40
0.6
 41
30.0
 62
     5
 63
     7
 74
     2
 91
        2
 64
     7
 65
   257
 75
     1
175
     1
 42
40.0
 92
        8
 66
     7
 43
1.0
 76
     1
 77
     6
 78
     2
 67
     7
 79
     3
170
     0
171
     0
290
     0
174
     0
 93
        1
 44
0.0
173
     0
291
     0
 45
0.0
1001
ACAD
1000
AcDbSavedByObjectVersion
1070
     0
  0
VISUALSTYLE
  5
59B
102
{ACAD_REACTORS
330
2A
102
}
102
{ACAD_XDICTIONARY
360
679
102
}
330
2A
100
AcDbVisualStyle
  2
Dim
 70
    11
 71
     2
 72
     2
 73
     0
 90
        0
 40
0.6
 41
30.0
 62
     5
 63
     7
 74
     1
 91
        4
 64
     7
 65
   257
 75
     1
175
     1
 42
1.0
 92
        8
 66
     7
 43
1.0
 76
     1
 77
     6
 78
     2
 67
     7
 79
     5
170
     0
171
     0
290
     0
174
     0
 93
        1
 44
-50.0
173
     0
291
     1
 45
0.0
1001
ACAD
1000
AcDbSavedByObjectVersion
1070
     0
  0
VISUALSTYLE
  5
5A3
102
{ACAD_REACTORS
330
2A
102
}
102
{ACAD_XDICTIONARY
360
689
102
}
330
2A
100
AcDbVisualStyle
  2
EdgeColorOff
 70
    22
 71
     2
 72
     2
 73
     0
 90
        0
 40
0.6
 41
30.0
 62
     5
 63
     7
 74
     1
 91
        4
 64
     7
 65
   257
 75
     1
175
     1
 42
1.0
 92
        8
 66
     7
 43
1.0
 76
     1
 77
     6
 78
     2
 67
     7
 79
     5
170
     0
171
     0
290
     0
174
     0
 93
        1
 44
0.0
173
     0
291
     1
 45
0.0
1001
ACAD
1000
AcDbSavedByObjectVersion
1070
     0
  0
VISUALSTYLE
  5
59F
102
{ACAD_REACTORS
330
2A
102
}
102
{ACAD_XDICTIONARY
360
681
102
}
330
2A
100
AcDbVisualStyle
  2
Facepattern
 70
    15
 71
     2
 72
     2
 73
     0
 90
        0
 40
0.6
 41
30.0
 62
     5
 63
     7
 74
     1
 91
        4
 64
     7
 65
   257
 75
     1
175
     1
 42
1.0
 92
        8
 66
     7
 43
1.0
 76
     1
 77
     6
 78
     2
 67
     7
 79
     5
170
     0
171
     0
290
     0
174
     0
 93
        1
 44
0.0
173
     0
291
     1
 45
0.0
1001
ACAD
1000
AcDbSavedByObjectVersion
1070
     0
  0
VISUALSTYLE
  5
591
102
{ACAD_REACTORS
330
2A
102
}
102
{ACAD_XDICTIONARY
360
665
102
}
330
2A
100
AcDbVisualStyle
  2
Flat
 70
     0
 71
     2
 72
     1
 73
     1
 90
        2
 40
0.6
 41
30.0
 62
     5
 63
     7
 74
     0
 91
        4
 64
     7
 65
   257
 75
     1
175
     1
 42
1.0
 92
        8
 66
     7
 43
1.0
 76
     1
 77
     6
 78
     2
 67
     7
 79
     5
170
     0
171
     0
290
     0
174
     0
 93
       13
 44
0.0
173
     0
291
     1
 45
0.0
1001
ACAD
1000
AcDbSavedByObjectVersion
1070
     0
  0
VISUALSTYLE
  5
592
102
{ACAD_REACTORS
330
2A
102
}
102
{ACAD_XDICTIONARY
360
667
102
}
330
2A
100
AcDbVisualStyle
  2
FlatWithEdges
 70
     1
 71
     2
 72
     1
 73
     1
 90
        2
 40
0.6
 41
30.0
 62
     5
 63
     7
 74
     1
 91
        4
 64
     7
 65
   257
 75
     1
175
     1
 42
1.0
 92
        0
 66
   257
 43
1.0
 76
     1
 77
     6
 78
     2
 67
     7
 79
     5
170
     0
171
     0
290
     0
174
     0
 93
       13
 44
0.0
173
     0
291
     1
 45
0.0
1001
ACAD
1000
AcDbSavedByObjectVersion
1070
     0
  0
VISUALSTYLE
  5
593
102
{ACAD_REACTORS
330
2A
102
}
102
{ACAD_XDICTIONARY
360
669
102
}
330
2A
100
AcDbVisualStyle
  2
Gouraud
 70
     2
 71
     2
 72
     2
 73
     1
 90
        2
 40
0.6
 41
30.0
 62
     5
 63
     7
 74
     0
 91
        4
 64
     7
 65
   257
 75
     1
175
     1
 42
1.0
 92
        0
 66
     7
 43
1.0
 76
     1
 77
     6
 78
     2
 67
     7
 79
     5
170
     0
171
     0
290
     0
174
     0
 93
       13
 44
0.0
173
     0
291
     1
 45
0.0
1001
ACAD
1000
AcDbSavedByObjectVersion
1070
     0
  0
VISUALSTYLE
  5
594
102
{ACAD_REACTORS
330
2A
102
}
102
{ACAD_XDICTIONARY
360
66B
102
}
330
2A
100
AcDbVisualStyle
  2
GouraudWithEdges
 70
     3
 71
     2
 72
     2
 73
     1
 90
        2
 40
0.6
 41
30.0
 62
     5
 63
     7
 74
     1
 91
        4
 64
     7
 65
   257
 75
     1
175
     1
 42
1.0
 92
        0
 66
   257
 43
1.0
 76
     1
 77
     6
 78
     2
 67
     7
 79
     5
170
     0
171
     0
290
     0
174
     0
 93
       13
 44
0.0
173
     0
291
     1
 45
0.0
1001
ACAD
1000
AcDbSavedByObjectVersion
1070
     0
  0
VISUALSTYLE
  5
597
102
{ACAD_REACTORS
330
2A
102
}
102
{ACAD_XDICTIONARY
360
671
102
}
330
2A
100
AcDbVisualStyle
  2
Hidden
 70
     6
 71
     1
 72
     2
 73
     2
 90
        0
 40
0.6
 41
30.0
 62
     5
 63
     7
 74
     2
 91
        2
 64
     7
 65
   257
 75
     2
175
     1
 42
40.0
 92
        0
 66
   257
 43
1.0
 76
     1
 77
     6
 78
     2
 67
     7
 79
     3
170
     0
171
     0
290
     0
174
     0
 93
        1
 44
0.0
173
     0
291
     0
 45
0.0
1001
ACAD
1000
AcDbSavedByObjectVersion
1070
     0
  0
VISUALSTYLE
  5
5A1
102
{ACAD_REACTORS
330
2A
102
}
102
{ACAD_XDICTIONARY
360
685
102
}
330
2A
100
AcDbVisualStyle
  2
JitterOff
 70
    20
 71
     2
 72
     2
 73
     0
 90
        0
 40
0.6
 41
30.0
 62
     5
 63
     7
 74
     1
 91
        4
 64
     7
 65
   257
 75
     1
175
     1
 42
1.0
 92
       10
 66
     7
 43
1.0
 76
     1
 77
     6
 78
     2
 67
     7
 79
     5
170
     0
171
     0
290
     0
174
     0
 93
        1
 44
0.0
173
     0
291
     1
 45
0.0
1001
ACAD
1000
AcDbSavedByObjectVersion
1070
     0
  0
VISUALSTYLE
  5
59E
102
{ACAD_REACTORS
330
2A
102
}
102
{ACAD_XDICTIONARY
360
67F
102
}
330
2A
100
AcDbVisualStyle
  2
Linepattern
 70
    14
 71
     2
 72
     2
 73
     0
 90
        0
 40
0.6
 41
30.0
 62
     5
 63
     7
 74
     1
 91
        4
 64
     7
 65
   257
 75
     7
175
     7
 42
1.0
 92
        8
 66
     7
 43
1.0
 76
     1
 77
     6
 78
     2
 67
     7
 79
     5
170
     0
171
     0
290
     0
174
     0
 93
        1
 44
0.0
173
     0
291
     1
 45
0.0
1001
ACAD
1000
AcDbSavedByObjectVersion
1070
     0
  0
VISUALSTYLE
  5
5A2
102
{ACAD_REACTORS
330
2A
102
}
102
{ACAD_XDICTIONARY
360
687
102
}
330
2A
100
AcDbVisualStyle
  2
OverhangOff
 70
    21
 71
     2
 72
     2
 73
     0
 90
        0
 40
0.6
 41
30.0
 62
     5
 63
     7
 74
     1
 91
        4
 64
     7
 65
   257
 75
     1
175
     1
 42
1.0
 92
        9
 66
     7
 43
1.0
 76
     1
 77
     6
 78
     2
 67
     7
 79
     5
170
     0
171
     0
290
     0
174
     0
 93
        1
 44
0.0
173
     0
291
     1
 45
0.0
1001
ACAD
1000
AcDbSavedByObjectVersion
1070
     0
  0
VISUALSTYLE
  5
599
102
{ACAD_REACTORS
330
2A
102
}
102
{ACAD_XDICTIONARY
360
675
102
}
330
2A
100
AcDbVisualStyle
  2
Realistic
 70
     8
 71
     2
 72
     3
 73
     0
 90
        2
 40
0.6
 41
30.0
 62
     5
 63
     7
 74
     0
 91
        0
 64
     7
 65
   257
 75
     1
175
     1
 42
1.0
 92
        8
 66
   257
 43
1.0
 76
     1
 77
     6
 78
     2
 67
     7
 79
     3
170
     0
171
     0
290
     0
174
     0
 93
       13
 44
0.0
173
     0
291
     0
 45
0.0
1001
ACAD
1000
AcDbSavedByObjectVersion
1070
     0
  0
VISUALSTYLE
  5
5A8
102
{ACAD_REACTORS
330
2A
102
}
102
{ACAD_XDICTIONARY
360
693
102
}
330
2A
100
AcDbVisualStyle
  2
Shaded
 70
    27
 71
     2
 72
     2
 73
     1
 90
        2
 40
0.6
 41
30.0
 62
     5
 63
     7
 74
     0
 91
        4
 64
     7
 65
   257
 75
     1
175
     1
 42
1.0
 92
        8
 66
   257
 43
1.0
 76
     1
 77
     6
 78
     2
 67
   251
 79
     3
170
     0
171
     0
290
     0
174
     0
 93
        5
 44
0.0
173
     0
291
     0
 45
0.0
1001
ACAD
1000
AcDbSavedByObjectVersion
1070
     0
  0
VISUALSTYLE
  5
5A7
102
{ACAD_REACTORS
330
2A
102
}
102
{ACAD_XDICTIONARY
360
691
102
}
330
2A
100
AcDbVisualStyle
  2
Shaded with edges
 70
    26
 71
     2
 72
     2
 73
     1
 90
        2
 40
0.6
 41
30.0
 62
     5
 63
     7
 74
     1
 91
       10
 64
     7
 65
   257
 75
     2
175
     1
 42
1.0
 92
        8
 66
   257
 43
1.0
 76
     1
 77
     6
 78
     2
 67
     7
 79
     3
170
     0
171
     0
290
     0
174
     0
 93
        5
 44
0.0
173
     0
291
     0
 45
0.0
1001
ACAD
1000
AcDbSavedByObjectVersion
1070
     0
  0
VISUALSTYLE
  5
5A4
102
{ACAD_REACTORS
330
2A
102
}
102
{ACAD_XDICTIONARY
360
68B
102
}
330
2A
100
AcDbVisualStyle
  2
Shades of Gray
 70
    23
 71
     2
 72
     2
 73
     3
 90
        0
 40
0.6
 41
30.0
 62
     5
 63
     7
 74
     2
 91
        2
 64
     7
 65
     7
 75
     1
175
     1
 42
40.0
 92
        8
 66
     7
 43
1.0
 76
     1
 77
     6
 78
     2
 67
     7
 79
     3
170
     0
171
     0
290
     0
174
     0
 93
        1
 44
0.0
173
     0
291
     0
 45
0.0
1001
ACAD
1000
AcDbSavedByObjectVersion
1070
     0
  0
VISUALSTYLE
  5
5A5
102
{ACAD_REACTORS
330
2A
102
}
102
{ACAD_XDICTIONARY
360
68D
102
}
330
2A
100
AcDbVisualStyle
  2
Sketchy
 70
    24
 71
     1
 72
     2
 73
     2
 90
        0
 40
0.6
 41
30.0
 62
     5
 63
     7
 74
     2
 91
        2
 64
     7
 65
     7
 75
     1
175
     1
 42
40.0
 92
       11
 66
     7
 43
1.0
 76
     1
 77
     6
 78
     2
 67
     7
 79
     6
170
     0
171
     0
290
     0
174
     0
 93
        1
 44
0.0
173
     0
291
     0
 45
0.0
1001
ACAD
1000
AcDbSavedByObjectVersion
1070
     0
  0
VISUALSTYLE
  5
59D
102
{ACAD_REACTORS
330
2A
102
}
102
{ACAD_XDICTIONARY
360
67D
102
}
330
2A
100
AcDbVisualStyle
  2
Thicken
 70
    13
 71
     2
 72
     2
 73
     0
 90
        0
 40
0.6
 41
30.0
 62
     5
 63
     7
 74
     1
 91
        4
 64
     7
 65
   257
 75
     1
175
     1
 42
1.0
 92
       12
 66
     7
 43
1.0
 76
     1
 77
     6
 78
     2
 67
     7
 79
     5
170
     0
171
     0
290
     0
174
     0
 93
        1
 44
0.0
173
     0
291
     1
 45
0.0
1001
ACAD
1000
AcDbSavedByObjectVersion
1070
     0
  0
VISUALSTYLE
  5
596
102
{ACAD_REACTORS
330
2A
102
}
102
{ACAD_XDICTIONARY
360
66F
102
}
330
2A
100
AcDbVisualStyle
  2
Wireframe
 70
     5
 71
     0
 72
     2
 73
     0
 90
        0
 40
0.6
 41
30.0
 62
     5
 63
     7
 74
     1
 91
        4
 64
     7
 65
   257
 75
     1
175
     1
 42
1.0
 92
        0
 66
   257
 43
1.0
 76
     1
 77
     6
 78
     2
 67
     7
 79
     5
170
     0
171
     0
290
     0
174
     0
 93
        1
 44
0.0
173
     0
291
     0
 45
0.0
1001
ACAD
1000
AcDbSavedByObjectVersion
1070
     0
  0
VISUALSTYLE
  5
5A6
102
{ACAD_REACTORS
330
2A
102
}
102
{ACAD_XDICTIONARY
360
68F
102
}
330
2A
100
AcDbVisualStyle
  2
X-Ray
 70
    25
 71
     2
 72
     2
 73
     1
 90
        1
 40
0.5
 41
30.0
 62
     5
 63
     7
 74
     1
 91
        0
 64
     7
 65
   257
 75
     1
175
     1
 42
1.0
 92
        8
 66
     7
 43
1.0
 76
     1
 77
     6
 78
     2
 67
     7
 79
     3
170
     0
171
     0
290
     0
174
     0
 93
       13
 44
0.0
173
     0
291
     0
 45
0.0
1001
ACAD
1000
AcDbSavedByObjectVersion
1070
     0
  0
XRECORD
  5
659
102
{ACAD_REACTORS
330
658
102
}
330
658
100
AcDbXrecord
280
     1
340
29
  0
XRECORD
  5
65A
102
{ACAD_REACTORS
330
658
102
}
330
658
100
AcDbXrecord
280
     1
340
7
  0
DICTIONARYVAR
  5
58C
102
{ACAD_REACTORS
330
58B
102
}
330
58B
100
DictionaryVariables
280
     0
  1
1:1
  0
DICTIONARYVAR
  5
5AB
102
{ACAD_REACTORS
330
58B
102
}
330
58B
100
DictionaryVariables
280
     0
  1
Standard
  0
DICTIONARYVAR
  5
655
102
{ACAD_REACTORS
330
58B
102
}
330
58B
100
DictionaryVariables
280
     0
  1
Standard
  0
DICTIONARYVAR
  5
656
102
{ACAD_REACTORS
330
58B
102
}
330
58B
100
DictionaryVariables
280
     0
  1
0
  0
DICTIONARYVAR
  5
657
102
{ACAD_REACTORS
330
58B
102
}
330
58B
100
DictionaryVariables
280
     0
  1
1
  0
DICTIONARYVAR
  5
65E
102
{ACAD_REACTORS
330
58B
102
}
330
58B
100
DictionaryVariables
280
     0
  1
1
  0
DICTIONARY
  5
663
330
70
100
AcDbDictionary
280
     1
281
     1
  3
ACAD_XREC_ROUNDTRIP
360
664
  0
DICTIONARY
  5
65F
330
10
100
AcDbDictionary
280
     1
281
     1
  3
ACAD_XREC_ROUNDTRIP
360
660
  0
DICTIONARY
  5
661
330
6
100
AcDbDictionary
280
     1
281
     1
  3
ACAD_XREC_ROUNDTRIP
360
662
  0
DICTIONARY
  5
695
330
5A9
100
AcDbDictionary
280
     1
281
     1
  3
ACAD_XREC_ROUNDTRIP
360
696
  0
DICTIONARY
  5
66D
330
595
100
AcDbDictionary
280
     1
281
     1
  3
ACAD_XREC_ROUNDTRIP
360
66E
  0
DICTIONARY
  5
673
330
598
100
AcDbDictionary
280
     1
281
     1
  3
ACAD_XREC_ROUNDTRIP
360
674
  0
DICTIONARY
  5
67B
330
59C
100
AcDbDictionary
280
     1
281
     1
  3
ACAD_XREC_ROUNDTRIP
360
67C
  0
DICTIONARY
  5
683
330
5A0
100
AcDbDictionary
280
     1
281
     1
  3
ACAD_XREC_ROUNDTRIP
360
684
  0
DICTIONARY
  5
677
330
59A
100
AcDbDictionary
280
     1
281
     1
  3
ACAD_XREC_ROUNDTRIP
360
678
  0
DICTIONARY
  5
679
330
59B
100
AcDbDictionary
280
     1
281
     1
  3
ACAD_XREC_ROUNDTRIP
360
67A
  0
DICTIONARY
  5
689
330
5A3
100
AcDbDictionary
280
     1
281
     1
  3
ACAD_XREC_ROUNDTRIP
360
68A
  0
DICTIONARY
  5
681
330
59F
100
AcDbDictionary
280
     1
281
     1
  3
ACAD_XREC_ROUNDTRIP
360
682
  0
DICTIONARY
  5
665
330
591
100
AcDbDictionary
280
     1
281
     1
  3
ACAD_XREC_ROUNDTRIP
360
666
  0
DICTIONARY
  5
667
330
592
100
AcDbDictionary
280
     1
281
     1
  3
ACAD_XREC_ROUNDTRIP
360
668
  0
DICTIONARY
  5
669
330
593
100
AcDbDictionary
280
     1
281
     1
  3
ACAD_XREC_ROUNDTRIP
360
66A
  0
DICTIONARY
  5
66B
330
594
100
AcDbDictionary
280
     1
281
     1
  3
ACAD_XREC_ROUNDTRIP
360
66C
  0
DICTIONARY
  5
671
330
597
100
AcDbDictionary
280
     1
281
     1
  3
ACAD_XREC_ROUNDTRIP
360
672
  0
DICTIONARY
  5
685
330
5A1
100
AcDbDictionary
280
     1
281
     1
  3
ACAD_XREC_ROUNDTRIP
360
686
  0
DICTIONARY
  5
67F
330
59E
100
AcDbDictionary
280
     1
281
     1
  3
ACAD_XREC_ROUNDTRIP
360
680
  0
DICTIONARY
  5
687
330
5A2
100
AcDbDictionary
280
     1
281
     1
  3
ACAD_XREC_ROUNDTRIP
360
688
  0
DICTIONARY
  5
675
330
599
100
AcDbDictionary
280
     1
281
     1
  3
ACAD_XREC_ROUNDTRIP
360
676
  0
DICTIONARY
  5
693
330
5A8
100
AcDbDictionary
280
     1
281
     1
  3
ACAD_XREC_ROUNDTRIP
360
694
  0
DICTIONARY
  5
691
330
5A7
100
AcDbDictionary
280
     1
281
     1
  3
ACAD_XREC_ROUNDTRIP
360
692
  0
DICTIONARY
  5
68B
330
5A4
100
AcDbDictionary
280
     1
281
     1
  3
ACAD_XREC_ROUNDTRIP
360
68C
  0
DICTIONARY
  5
68D
330
5A5
100
AcDbDictionary
280
     1
281
     1
  3
ACAD_XREC_ROUNDTRIP
360
68E
  0
DICTIONARY
  5
67D
330
59D
100
AcDbDictionary
280
     1
281
     1
  3
ACAD_XREC_ROUNDTRIP
360
67E
  0
DICTIONARY
  5
66F
330
596
100
AcDbDictionary
280
     1
281
     1
  3
ACAD_XREC_ROUNDTRIP
360
670
  0
DICTIONARY
  5
68F
330
5A6
100
AcDbDictionary
280
     1
281
     1
  3
ACAD_XREC_ROUNDTRIP
360
690
  0
XRECORD
  5
664
102
{ACAD_REACTORS
330
663
102
}
330
663
100
AcDbXrecord
280
     1
102
MATERIAL
148
0.0
149
0.0
149
0.0
 93
        0
 94
      127
282
     0
 72
     1
 77
     1
171
     1
175
     1
179
     1
273
     0
  0
XRECORD
  5
660
102
{ACAD_REACTORS
330
65F
102
}
330
65F
100
AcDbXrecord
280
     1
102
MATERIAL
148
0.0
149
0.0
149
0.0
 93
        0
 94
      127
282
     0
 72
     1
 77
     1
171
     1
175
     1
179
     1
273
     0
  0
XRECORD
  5
662
102
{ACAD_REACTORS
330
661
102
}
330
661
100
AcDbXrecord
280
     1
102
MATERIAL
148
0.0
149
0.0
149
0.0
 93
        0
 94
      127
282
     0
 72
     1
 77
     1
171
     1
175
     1
179
     1
273
     0
  0
XRECORD
  5
696
102
{ACAD_REACTORS
330
695
102
}
330
695
100
AcDbXrecord
280
     1
102
ACAD_ROUNDTRIP_2010_MLEADER_STYLE
  0
XRECORD
  5
66E
102
{ACAD_REACTORS
330
66D
102
}
330
66D
100
AcDbXrecord
280
     1
102
RTVSPropertyOp0
 70
     1
102
RTVSPropertyOp1
 70
     1
102
RTVSPropertyOp2
 70
     1
102
RTVSPropertyOp3
 70
     1
102
RTVSPropertyOp4
 70
     1
102
RTVSPropertyOp5
 70
     1
102
RTVSPropertyOp6
 70
     1
102
RTVSPropertyOp7
 70
     1
102
RTVSPropertyOp8
 70
     1
102
RTVSPropertyOp9
 70
     1
102
RTVSPropertyOp10
 70
     1
102
RTVSPropertyOp11
 70
     1
102
RTVSPropertyOp12
 70
     1
102
RTVSPropertyOp13
 70
     1
102
RTVSPropertyOp14
 70
     1
102
RTVSPropertyOp15
 70
     1
102
RTVSPropertyOp16
 70
     1
102
RTVSPropertyOp17
 70
     1
102
RTVSPropertyOp18
 70
     1
102
RTVSPropertyOp19
 70
     1
102
RTVSPropertyOp20
 70
     1
102
RTVSPropertyOp21
 70
     1
102
RTVSPropertyOp22
 70
     1
102
RTVSPropertyOp23
 70
     1
102
RTVSPropertyOp24
 70
     1
102
RTVSPropertyOp25
 70
     1
102
RTVSPropertyOp26
 70
     1
102
RTVSPropertyOp27
 70
     1
102
RTVSPropertyOp28
 70
     1
102
RTVSPropertyOp29
 70
     1
102
RTVSPropertyOp30
 70
     1
102
RTVSPropertyOp31
 70
     1
102
RTVSPropertyOp32
 70
     1
102
RTVSPropertyOp33
 70
     1
102
RTVSPropertyOp34
 70
     1
102
RTVSPropertyOp35
 70
     1
102
RTVSPropertyOp36
 70
     1
102
RTVSPropertyOp37
 70
     1
102
RTVSPropertyOp38
 70
     1
102
RTVSPropertyOp39
 70
     1
102
RTVSPropertyOp40
 70
     1
102
RTVSPropertyOp41
 70
     1
102
RTVSPropertyOp42
 70
     1
102
RTVSPropertyOp43
 70
     1
102
RTVSPropertyOp44
 70
     1
102
RTVSPropertyOp45
 70
     1
102
RTVSPropertyOp46
 70
     1
102
RTVSPropertyOp47
 70
     1
102
RTVSPropertyOp48
 70
     1
102
RTVSPropertyOp49
 70
     1
102
RTVSPropertyOp50
 70
     1
102
RTVSPropertyOp51
 70
     0
102
RTVSPropertyOp52
 70
     0
102
RTVSPropertyOp53
 70
     1
102
RTVSPropertyOp54
 70
     1
102
RTVSPropertyOp55
 70
     1
102
RTVSPropertyOp56
 70
     1
102
RTVSPropertyOp57
 70
     1
102
RTVSPost2010Prop28
280
     1
102
RTVSPost2010PropOp28
 70
     1
102
RTVSPost2010Prop29
280
     1
102
RTVSPost2010PropOp29
 70
     1
102
RTVSPost2010Prop30
280
     0
102
RTVSPost2010PropOp30
 70
     1
102
RTVSPost2010Prop31
280
     0
102
RTVSPost2010PropOp31
 70
     1
102
RTVSPost2010Prop32
280
     0
102
RTVSPost2010PropOp32
 70
     1
102
RTVSPost2010Prop33
280
     0
102
RTVSPost2010PropOp33
 70
     1
102
RTVSPost2010Prop34
280
     0
102
RTVSPost2010PropOp34
 70
     1
102
RTVSPost2010Prop35
280
     0
102
RTVSPost2010PropOp35
 70
     1
102
RTVSPost2010Prop36
280
     0
102
RTVSPost2010PropOp36
 70
     1
102
RTVSPost2010Prop37
 90
       50
102
RTVSPost2010PropOp37
 70
     1
102
RTVSPost2010Prop38
140
0.0
102
RTVSPost2010PropOp38
 70
     1
102
RTVSPost2010Prop39
140
1.0
102
RTVSPost2010PropOp39
 70
     1
102
RTVSPost2010Prop40
 90
        0
102
RTVSPost2010PropOp40
 70
     1
102
RTVSPost2010Prop41ColorIndex
 90
       18
102
RTVSPost2010Prop41ColorRGB
 90
        0
102
RTVSPost2010PropOp41
 70
     1
102
RTVSPost2010Prop42
 90
       50
102
RTVSPost2010PropOp42
 70
     1
102
RTVSPost2010Prop43
 90
        3
102
RTVSPost2010PropOp43
 70
     1
102
RTVSPost2010Prop44ColorIndex
 90
        5
102
RTVSPost2010Prop44ColorRGB
 90
      255
102
RTVSPost2010PropOp44
 70
     1
102
RTVSPost2010Prop45
280
     0
102
RTVSPost2010PropOp45
 70
     1
102
RTVSPost2010Prop46
 90
       50
102
RTVSPost2010PropOp46
 70
     1
102
RTVSPost2010Prop47
 90
       50
102
RTVSPost2010PropOp47
 70
     1
102
RTVSPost2010Prop48
 90
       50
102
RTVSPost2010PropOp48
 70
     1
102
RTVSPost2010Prop49
280
     0
102
RTVSPost2010PropOp49
 70
     1
102
RTVSPost2010Prop50
 90
       50
102
RTVSPost2010PropOp50
 70
     1
102
RTVSPost2010Prop51ColorIndex
 90
      256
102
RTVSPost2010Prop51ColorRGB
 90
-16777216
102
RTVSPost2010PropOp51
 70
     0
102
RTVSPost2010Prop52
140
1.0
102
RTVSPost2010PropOp52
 70
     0
102
RTVSPost2010Prop53
 90
        2
102
RTVSPost2010PropOp53
 70
     1
102
RTVSPost2010Prop54
  1
strokes_ogs.tif
102
RTVSPost2010PropOp54
 70
     1
102
RTVSPost2010Prop55
280
     0
102
RTVSPost2010PropOp55
 70
     1
102
RTVSPost2010Prop56
140
1.0
102
RTVSPost2010PropOp56
 70
     1
102
RTVSPost2010Prop57
140
1.0
102
RTVSPost2010PropOp57
 70
     1
  0
XRECORD
  5
674
102
{ACAD_REACTORS
330
673
102
}
330
673
100
AcDbXrecord
280
     1
102
RTVSPropertyOp0
 70
     1
102
RTVSPropertyOp1
 70
     1
102
RTVSPropertyOp2
 70
     1
102
RTVSPropertyOp3
 70
     1
102
RTVSPropertyOp4
 70
     1
102
RTVSPropertyOp5
 70
     1
102
RTVSPropertyOp6
 70
     1
102
RTVSPropertyOp7
 70
     1
102
RTVSPropertyOp8
 70
     1
102
RTVSPropertyOp9
 70
     1
102
RTVSPropertyOp10
 70
     1
102
RTVSPropertyOp11
 70
     1
102
RTVSPropertyOp12
 70
     1
102
RTVSPropertyOp13
 70
     1
102
RTVSPropertyOp14
 70
     1
102
RTVSPropertyOp15
 70
     1
102
RTVSPropertyOp16
 70
     1
102
RTVSPropertyOp17
 70
     1
102
RTVSPropertyOp18
 70
     1
102
RTVSPropertyOp19
 70
     1
102
RTVSPropertyOp20
 70
     1
102
RTVSPropertyOp21
 70
     1
102
RTVSPropertyOp22
 70
     1
102
RTVSPropertyOp23
 70
     1
102
RTVSPropertyOp24
 70
     1
102
RTVSPropertyOp25
 70
     1
102
RTVSPropertyOp26
 70
     1
102
RTVSPropertyOp27
 70
     1
102
RTVSPropertyOp28
 70
     1
102
RTVSPropertyOp29
 70
     1
102
RTVSPropertyOp30
 70
     1
102
RTVSPropertyOp31
 70
     1
102
RTVSPropertyOp32
 70
     1
102
RTVSPropertyOp33
 70
     1
102
RTVSPropertyOp34
 70
     1
102
RTVSPropertyOp35
 70
     1
102
RTVSPropertyOp36
 70
     1
102
RTVSPropertyOp37
 70
     1
102
RTVSPropertyOp38
 70
     1
102
RTVSPropertyOp39
 70
     1
102
RTVSPropertyOp40
 70
     1
102
RTVSPropertyOp41
 70
     1
102
RTVSPropertyOp42
 70
     1
102
RTVSPropertyOp43
 70
     1
102
RTVSPropertyOp44
 70
     1
102
RTVSPropertyOp45
 70
     1
102
RTVSPropertyOp46
 70
     1
102
RTVSPropertyOp47
 70
     1
102
RTVSPropertyOp48
 70
     1
102
RTVSPropertyOp49
 70
     1
102
RTVSPropertyOp50
 70
     1
102
RTVSPropertyOp51
 70
     0
102
RTVSPropertyOp52
 70
     0
102
RTVSPropertyOp53
 70
     1
102
RTVSPropertyOp54
 70
     1
102
RTVSPropertyOp55
 70
     1
102
RTVSPropertyOp56
 70
     1
102
RTVSPropertyOp57
 70
     1
102
RTVSPost2010Prop28
280
     0
102
RTVSPost2010PropOp28
 70
     1
102
RTVSPost2010Prop29
280
     1
102
RTVSPost2010PropOp29
 70
     1
102
RTVSPost2010Prop30
280
     1
102
RTVSPost2010PropOp30
 70
     1
102
RTVSPost2010Prop31
280
     0
102
RTVSPost2010PropOp31
 70
     1
102
RTVSPost2010Prop32
280
     0
102
RTVSPost2010PropOp32
 70
     1
102
RTVSPost2010Prop33
280
     0
102
RTVSPost2010PropOp33
 70
     1
102
RTVSPost2010Prop34
280
     0
102
RTVSPost2010PropOp34
 70
     1
102
RTVSPost2010Prop35
280
     0
102
RTVSPost2010PropOp35
 70
     1
102
RTVSPost2010Prop36
280
     0
102
RTVSPost2010PropOp36
 70
     1
102
RTVSPost2010Prop37
 90
       50
102
RTVSPost2010PropOp37
 70
     1
102
RTVSPost2010Prop38
140
0.0
102
RTVSPost2010PropOp38
 70
     1
102
RTVSPost2010Prop39
140
1.0
102
RTVSPost2010PropOp39
 70
     1
102
RTVSPost2010Prop40
 90
        0
102
RTVSPost2010PropOp40
 70
     1
102
RTVSPost2010Prop41ColorIndex
 90
       18
102
RTVSPost2010Prop41ColorRGB
 90
        0
102
RTVSPost2010PropOp41
 70
     1
102
RTVSPost2010Prop42
 90
       50
102
RTVSPost2010PropOp42
 70
     1
102
RTVSPost2010Prop43
 90
        3
102
RTVSPost2010PropOp43
 70
     1
102
RTVSPost2010Prop44ColorIndex
 90
        5
102
RTVSPost2010Prop44ColorRGB
 90
      255
102
RTVSPost2010PropOp44
 70
     1
102
RTVSPost2010Prop45
280
     0
102
RTVSPost2010PropOp45
 70
     1
102
RTVSPost2010Prop46
 90
       50
102
RTVSPost2010PropOp46
 70
     1
102
RTVSPost2010Prop47
 90
       50
102
RTVSPost2010PropOp47
 70
     1
102
RTVSPost2010Prop48
 90
       50
102
RTVSPost2010PropOp48
 70
     1
102
RTVSPost2010Prop49
280
     0
102
RTVSPost2010PropOp49
 70
     1
102
RTVSPost2010Prop50
 90
       50
102
RTVSPost2010PropOp50
 70
     1
102
RTVSPost2010Prop51ColorIndex
 90
      256
102
RTVSPost2010Prop51ColorRGB
 90
-16777216
102
RTVSPost2010PropOp51
 70
     0
102
RTVSPost2010Prop52
140
1.0
102
RTVSPost2010PropOp52
 70
     0
102
RTVSPost2010Prop53
 90
        2
102
RTVSPost2010PropOp53
 70
     1
102
RTVSPost2010Prop54
  1
strokes_ogs.tif
102
RTVSPost2010PropOp54
 70
     1
102
RTVSPost2010Prop55
280
     0
102
RTVSPost2010PropOp55
 70
     1
102
RTVSPost2010Prop56
140
1.0
102
RTVSPost2010PropOp56
 70
     1
102
RTVSPost2010Prop57
140
1.0
102
RTVSPost2010PropOp57
 70
     1
  0
XRECORD
  5
67C
102
{ACAD_REACTORS
330
67B
102
}
330
67B
100
AcDbXrecord
280
     1
102
RTVSPropertyOp0
 70
     1
102
RTVSPropertyOp1
 70
     1
102
RTVSPropertyOp2
 70
     1
102
RTVSPropertyOp3
 70
     1
102
RTVSPropertyOp4
 70
     1
102
RTVSPropertyOp5
 70
     1
102
RTVSPropertyOp6
 70
     1
102
RTVSPropertyOp7
 70
     1
102
RTVSPropertyOp8
 70
     1
102
RTVSPropertyOp9
 70
     1
102
RTVSPropertyOp10
 70
     1
102
RTVSPropertyOp11
 70
     1
102
RTVSPropertyOp12
 70
     1
102
RTVSPropertyOp13
 70
     1
102
RTVSPropertyOp14
 70
     1
102
RTVSPropertyOp15
 70
     1
102
RTVSPropertyOp16
 70
     1
102
RTVSPropertyOp17
 70
     1
102
RTVSPropertyOp18
 70
     1
102
RTVSPropertyOp19
 70
     1
102
RTVSPropertyOp20
 70
     1
102
RTVSPropertyOp21
 70
     1
102
RTVSPropertyOp22
 70
     1
102
RTVSPropertyOp23
 70
     1
102
RTVSPropertyOp24
 70
     1
102
RTVSPropertyOp25
 70
     1
102
RTVSPropertyOp26
 70
     1
102
RTVSPropertyOp27
 70
     1
102
RTVSPropertyOp28
 70
     1
102
RTVSPropertyOp29
 70
     1
102
RTVSPropertyOp30
 70
     1
102
RTVSPropertyOp31
 70
     1
102
RTVSPropertyOp32
 70
     1
102
RTVSPropertyOp33
 70
     1
102
RTVSPropertyOp34
 70
     1
102
RTVSPropertyOp35
 70
     1
102
RTVSPropertyOp36
 70
     1
102
RTVSPropertyOp37
 70
     1
102
RTVSPropertyOp38
 70
     1
102
RTVSPropertyOp39
 70
     1
102
RTVSPropertyOp40
 70
     1
102
RTVSPropertyOp41
 70
     1
102
RTVSPropertyOp42
 70
     1
102
RTVSPropertyOp43
 70
     1
102
RTVSPropertyOp44
 70
     1
102
RTVSPropertyOp45
 70
     1
102
RTVSPropertyOp46
 70
     1
102
RTVSPropertyOp47
 70
     1
102
RTVSPropertyOp48
 70
     1
102
RTVSPropertyOp49
 70
     1
102
RTVSPropertyOp50
 70
     1
102
RTVSPropertyOp51
 70
     0
102
RTVSPropertyOp52
 70
     0
102
RTVSPropertyOp53
 70
     1
102
RTVSPropertyOp54
 70
     1
102
RTVSPropertyOp55
 70
     1
102
RTVSPropertyOp56
 70
     1
102
RTVSPropertyOp57
 70
     1
102
RTVSPost2010Prop28
280
     0
102
RTVSPost2010PropOp28
 70
     1
102
RTVSPost2010Prop29
280
     1
102
RTVSPost2010PropOp29
 70
     1
102
RTVSPost2010Prop30
280
     1
102
RTVSPost2010PropOp30
 70
     1
102
RTVSPost2010Prop31
280
     0
102
RTVSPost2010PropOp31
 70
     1
102
RTVSPost2010Prop32
280
     0
102
RTVSPost2010PropOp32
 70
     1
102
RTVSPost2010Prop33
280
     0
102
RTVSPost2010PropOp33
 70
     1
102
RTVSPost2010Prop34
280
     0
102
RTVSPost2010PropOp34
 70
     1
102
RTVSPost2010Prop35
280
     0
102
RTVSPost2010PropOp35
 70
     1
102
RTVSPost2010Prop36
280
     0
102
RTVSPost2010PropOp36
 70
     1
102
RTVSPost2010Prop37
 90
       50
102
RTVSPost2010PropOp37
 70
     1
102
RTVSPost2010Prop38
140
0.0
102
RTVSPost2010PropOp38
 70
     1
102
RTVSPost2010Prop39
140
1.0
102
RTVSPost2010PropOp39
 70
     1
102
RTVSPost2010Prop40
 90
        0
102
RTVSPost2010PropOp40
 70
     1
102
RTVSPost2010Prop41ColorIndex
 90
       18
102
RTVSPost2010Prop41ColorRGB
 90
        0
102
RTVSPost2010PropOp41
 70
     1
102
RTVSPost2010Prop42
 90
       50
102
RTVSPost2010PropOp42
 70
     1
102
RTVSPost2010Prop43
 90
        3
102
RTVSPost2010PropOp43
 70
     1
102
RTVSPost2010Prop44ColorIndex
 90
        5
102
RTVSPost2010Prop44ColorRGB
 90
      255
102
RTVSPost2010PropOp44
 70
     1
102
RTVSPost2010Prop45
280
     0
102
RTVSPost2010PropOp45
 70
     1
102
RTVSPost2010Prop46
 90
       50
102
RTVSPost2010PropOp46
 70
     1
102
RTVSPost2010Prop47
 90
       50
102
RTVSPost2010PropOp47
 70
     1
102
RTVSPost2010Prop48
 90
       50
102
RTVSPost2010PropOp48
 70
     1
102
RTVSPost2010Prop49
280
     0
102
RTVSPost2010PropOp49
 70
     1
102
RTVSPost2010Prop50
 90
       50
102
RTVSPost2010PropOp50
 70
     1
102
RTVSPost2010Prop51ColorIndex
 90
      256
102
RTVSPost2010Prop51ColorRGB
 90
-16777216
102
RTVSPost2010PropOp51
 70
     0
102
RTVSPost2010Prop52
140
1.0
102
RTVSPost2010PropOp52
 70
     0
102
RTVSPost2010Prop53
 90
        2
102
RTVSPost2010PropOp53
 70
     1
102
RTVSPost2010Prop54
  1
strokes_ogs.tif
102
RTVSPost2010PropOp54
 70
     1
102
RTVSPost2010Prop55
280
     0
102
RTVSPost2010PropOp55
 70
     1
102
RTVSPost2010Prop56
140
1.0
102
RTVSPost2010PropOp56
 70
     1
102
RTVSPost2010Prop57
140
1.0
102
RTVSPost2010PropOp57
 70
     1
  0
XRECORD
  5
684
102
{ACAD_REACTORS
330
683
102
}
330
683
100
AcDbXrecord
280
     1
102
RTVSPropertyOp0
 70
     1
102
RTVSPropertyOp1
 70
     1
102
RTVSPropertyOp2
 70
     1
102
RTVSPropertyOp3
 70
     1
102
RTVSPropertyOp4
 70
     1
102
RTVSPropertyOp5
 70
     1
102
RTVSPropertyOp6
 70
     1
102
RTVSPropertyOp7
 70
     1
102
RTVSPropertyOp8
 70
     1
102
RTVSPropertyOp9
 70
     1
102
RTVSPropertyOp10
 70
     1
102
RTVSPropertyOp11
 70
     1
102
RTVSPropertyOp12
 70
     1
102
RTVSPropertyOp13
 70
     1
102
RTVSPropertyOp14
 70
     1
102
RTVSPropertyOp15
 70
     1
102
RTVSPropertyOp16
 70
     1
102
RTVSPropertyOp17
 70
     1
102
RTVSPropertyOp18
 70
     1
102
RTVSPropertyOp19
 70
     1
102
RTVSPropertyOp20
 70
     1
102
RTVSPropertyOp21
 70
     1
102
RTVSPropertyOp22
 70
     1
102
RTVSPropertyOp23
 70
     1
102
RTVSPropertyOp24
 70
     1
102
RTVSPropertyOp25
 70
     1
102
RTVSPropertyOp26
 70
     1
102
RTVSPropertyOp27
 70
     1
102
RTVSPropertyOp28
 70
     1
102
RTVSPropertyOp29
 70
     1
102
RTVSPropertyOp30
 70
     1
102
RTVSPropertyOp31
 70
     1
102
RTVSPropertyOp32
 70
     1
102
RTVSPropertyOp33
 70
     1
102
RTVSPropertyOp34
 70
     1
102
RTVSPropertyOp35
 70
     1
102
RTVSPropertyOp36
 70
     1
102
RTVSPropertyOp37
 70
     1
102
RTVSPropertyOp38
 70
     1
102
RTVSPropertyOp39
 70
     1
102
RTVSPropertyOp40
 70
     1
102
RTVSPropertyOp41
 70
     1
102
RTVSPropertyOp42
 70
     1
102
RTVSPropertyOp43
 70
     1
102
RTVSPropertyOp44
 70
     1
102
RTVSPropertyOp45
 70
     1
102
RTVSPropertyOp46
 70
     1
102
RTVSPropertyOp47
 70
     1
102
RTVSPropertyOp48
 70
     1
102
RTVSPropertyOp49
 70
     1
102
RTVSPropertyOp50
 70
     1
102
RTVSPropertyOp51
 70
     0
102
RTVSPropertyOp52
 70
     0
102
RTVSPropertyOp53
 70
     1
102
RTVSPropertyOp54
 70
     1
102
RTVSPropertyOp55
 70
     1
102
RTVSPropertyOp56
 70
     1
102
RTVSPropertyOp57
 70
     1
102
RTVSPost2010Prop28
280
     0
102
RTVSPost2010PropOp28
 70
     1
102
RTVSPost2010Prop29
280
     1
102
RTVSPost2010PropOp29
 70
     1
102
RTVSPost2010Prop30
280
     1
102
RTVSPost2010PropOp30
 70
     1
102
RTVSPost2010Prop31
280
     0
102
RTVSPost2010PropOp31
 70
     1
102
RTVSPost2010Prop32
280
     0
102
RTVSPost2010PropOp32
 70
     1
102
RTVSPost2010Prop33
280
     0
102
RTVSPost2010PropOp33
 70
     1
102
RTVSPost2010Prop34
280
     0
102
RTVSPost2010PropOp34
 70
     1
102
RTVSPost2010Prop35
280
     0
102
RTVSPost2010PropOp35
 70
     1
102
RTVSPost2010Prop36
280
     0
102
RTVSPost2010PropOp36
 70
     1
102
RTVSPost2010Prop37
 90
       50
102
RTVSPost2010PropOp37
 70
     1
102
RTVSPost2010Prop38
140
0.0
102
RTVSPost2010PropOp38
 70
     1
102
RTVSPost2010Prop39
140
1.0
102
RTVSPost2010PropOp39
 70
     1
102
RTVSPost2010Prop40
 90
        0
102
RTVSPost2010PropOp40
 70
     1
102
RTVSPost2010Prop41ColorIndex
 90
       18
102
RTVSPost2010Prop41ColorRGB
 90
        0
102
RTVSPost2010PropOp41
 70
     1
102
RTVSPost2010Prop42
 90
       50
102
RTVSPost2010PropOp42
 70
     1
102
RTVSPost2010Prop43
 90
        3
102
RTVSPost2010PropOp43
 70
     1
102
RTVSPost2010Prop44ColorIndex
 90
        5
102
RTVSPost2010Prop44ColorRGB
 90
      255
102
RTVSPost2010PropOp44
 70
     1
102
RTVSPost2010Prop45
280
     0
102
RTVSPost2010PropOp45
 70
     1
102
RTVSPost2010Prop46
 90
       50
102
RTVSPost2010PropOp46
 70
     1
102
RTVSPost2010Prop47
 90
       50
102
RTVSPost2010PropOp47
 70
     1
102
RTVSPost2010Prop48
 90
       50
102
RTVSPost2010PropOp48
 70
     1
102
RTVSPost2010Prop49
280
     0
102
RTVSPost2010PropOp49
 70
     1
102
RTVSPost2010Prop50
 90
       50
102
RTVSPost2010PropOp50
 70
     1
102
RTVSPost2010Prop51ColorIndex
 90
      256
102
RTVSPost2010Prop51ColorRGB
 90
-16777216
102
RTVSPost2010PropOp51
 70
     0
102
RTVSPost2010Prop52
140
1.0
102
RTVSPost2010PropOp52
 70
     0
102
RTVSPost2010Prop53
 90
        2
102
RTVSPost2010PropOp53
 70
     1
102
RTVSPost2010Prop54
  1
strokes_ogs.tif
102
RTVSPost2010PropOp54
 70
     1
102
RTVSPost2010Prop55
280
     0
102
RTVSPost2010PropOp55
 70
     1
102
RTVSPost2010Prop56
140
1.0
102
RTVSPost2010PropOp56
 70
     1
102
RTVSPost2010Prop57
140
1.0
102
RTVSPost2010PropOp57
 70
     1
  0
XRECORD
  5
678
102
{ACAD_REACTORS
330
677
102
}
330
677
100
AcDbXrecord
280
     1
102
RTVSPropertyOp0
 70
     1
102
RTVSPropertyOp1
 70
     1
102
RTVSPropertyOp2
 70
     1
102
RTVSPropertyOp3
 70
     1
102
RTVSPropertyOp4
 70
     1
102
RTVSPropertyOp5
 70
     1
102
RTVSPropertyOp6
 70
     1
102
RTVSPropertyOp7
 70
     1
102
RTVSPropertyOp8
 70
     1
102
RTVSPropertyOp9
 70
     1
102
RTVSPropertyOp10
 70
     1
102
RTVSPropertyOp11
 70
     1
102
RTVSPropertyOp12
 70
     1
102
RTVSPropertyOp13
 70
     1
102
RTVSPropertyOp14
 70
     1
102
RTVSPropertyOp15
 70
     1
102
RTVSPropertyOp16
 70
     1
102
RTVSPropertyOp17
 70
     1
102
RTVSPropertyOp18
 70
     1
102
RTVSPropertyOp19
 70
     1
102
RTVSPropertyOp20
 70
     1
102
RTVSPropertyOp21
 70
     1
102
RTVSPropertyOp22
 70
     1
102
RTVSPropertyOp23
 70
     1
102
RTVSPropertyOp24
 70
     1
102
RTVSPropertyOp25
 70
     1
102
RTVSPropertyOp26
 70
     1
102
RTVSPropertyOp27
 70
     1
102
RTVSPropertyOp28
 70
     1
102
RTVSPropertyOp29
 70
     1
102
RTVSPropertyOp30
 70
     1
102
RTVSPropertyOp31
 70
     1
102
RTVSPropertyOp32
 70
     1
102
RTVSPropertyOp33
 70
     1
102
RTVSPropertyOp34
 70
     1
102
RTVSPropertyOp35
 70
     1
102
RTVSPropertyOp36
 70
     1
102
RTVSPropertyOp37
 70
     1
102
RTVSPropertyOp38
 70
     1
102
RTVSPropertyOp39
 70
     1
102
RTVSPropertyOp40
 70
     1
102
RTVSPropertyOp41
 70
     1
102
RTVSPropertyOp42
 70
     1
102
RTVSPropertyOp43
 70
     1
102
RTVSPropertyOp44
 70
     1
102
RTVSPropertyOp45
 70
     1
102
RTVSPropertyOp46
 70
     1
102
RTVSPropertyOp47
 70
     1
102
RTVSPropertyOp48
 70
     1
102
RTVSPropertyOp49
 70
     1
102
RTVSPropertyOp50
 70
     1
102
RTVSPropertyOp51
 70
     0
102
RTVSPropertyOp52
 70
     0
102
RTVSPropertyOp53
 70
     1
102
RTVSPropertyOp54
 70
     1
102
RTVSPropertyOp55
 70
     1
102
RTVSPropertyOp56
 70
     1
102
RTVSPropertyOp57
 70
     1
102
RTVSPost2010Prop28
280
     0
102
RTVSPost2010PropOp28
 70
     1
102
RTVSPost2010Prop29
280
     1
102
RTVSPost2010PropOp29
 70
     1
102
RTVSPost2010Prop30
280
     1
102
RTVSPost2010PropOp30
 70
     1
102
RTVSPost2010Prop31
280
     0
102
RTVSPost2010PropOp31
 70
     1
102
RTVSPost2010Prop32
280
     0
102
RTVSPost2010PropOp32
 70
     1
102
RTVSPost2010Prop33
280
     0
102
RTVSPost2010PropOp33
 70
     1
102
RTVSPost2010Prop34
280
     0
102
RTVSPost2010PropOp34
 70
     1
102
RTVSPost2010Prop35
280
     0
102
RTVSPost2010PropOp35
 70
     1
102
RTVSPost2010Prop36
280
     0
102
RTVSPost2010PropOp36
 70
     1
102
RTVSPost2010Prop37
 90
       50
102
RTVSPost2010PropOp37
 70
     1
102
RTVSPost2010Prop38
140
0.0
102
RTVSPost2010PropOp38
 70
     1
102
RTVSPost2010Prop39
140
1.0
102
RTVSPost2010PropOp39
 70
     1
102
RTVSPost2010Prop40
 90
        0
102
RTVSPost2010PropOp40
 70
     1
102
RTVSPost2010Prop41ColorIndex
 90
       18
102
RTVSPost2010Prop41ColorRGB
 90
        0
102
RTVSPost2010PropOp41
 70
     1
102
RTVSPost2010Prop42
 90
       50
102
RTVSPost2010PropOp42
 70
     1
102
RTVSPost2010Prop43
 90
        3
102
RTVSPost2010PropOp43
 70
     1
102
RTVSPost2010Prop44ColorIndex
 90
        5
102
RTVSPost2010Prop44ColorRGB
 90
      255
102
RTVSPost2010PropOp44
 70
     1
102
RTVSPost2010Prop45
280
     0
102
RTVSPost2010PropOp45
 70
     1
102
RTVSPost2010Prop46
 90
       50
102
RTVSPost2010PropOp46
 70
     1
102
RTVSPost2010Prop47
 90
       50
102
RTVSPost2010PropOp47
 70
     1
102
RTVSPost2010Prop48
 90
       50
102
RTVSPost2010PropOp48
 70
     1
102
RTVSPost2010Prop49
280
     0
102
RTVSPost2010PropOp49
 70
     1
102
RTVSPost2010Prop50
 90
       50
102
RTVSPost2010PropOp50
 70
     1
102
RTVSPost2010Prop51ColorIndex
 90
      256
102
RTVSPost2010Prop51ColorRGB
 90
-16777216
102
RTVSPost2010PropOp51
 70
     0
102
RTVSPost2010Prop52
140
1.0
102
RTVSPost2010PropOp52
 70
     0
102
RTVSPost2010Prop53
 90
        2
102
RTVSPost2010PropOp53
 70
     1
102
RTVSPost2010Prop54
  1
strokes_ogs.tif
102
RTVSPost2010PropOp54
 70
     1
102
RTVSPost2010Prop55
280
     0
102
RTVSPost2010PropOp55
 70
     1
102
RTVSPost2010Prop56
140
1.0
102
RTVSPost2010PropOp56
 70
     1
102
RTVSPost2010Prop57
140
1.0
102
RTVSPost2010PropOp57
 70
     1
  0
XRECORD
  5
67A
102
{ACAD_REACTORS
330
679
102
}
330
679
100
AcDbXrecord
280
     1
102
RTVSPropertyOp0
 70
     1
102
RTVSPropertyOp1
 70
     1
102
RTVSPropertyOp2
 70
     1
102
RTVSPropertyOp3
 70
     1
102
RTVSPropertyOp4
 70
     1
102
RTVSPropertyOp5
 70
     1
102
RTVSPropertyOp6
 70
     1
102
RTVSPropertyOp7
 70
     1
102
RTVSPropertyOp8
 70
     1
102
RTVSPropertyOp9
 70
     1
102
RTVSPropertyOp10
 70
     1
102
RTVSPropertyOp11
 70
     1
102
RTVSPropertyOp12
 70
     1
102
RTVSPropertyOp13
 70
     1
102
RTVSPropertyOp14
 70
     1
102
RTVSPropertyOp15
 70
     1
102
RTVSPropertyOp16
 70
     1
102
RTVSPropertyOp17
 70
     1
102
RTVSPropertyOp18
 70
     1
102
RTVSPropertyOp19
 70
     1
102
RTVSPropertyOp20
 70
     1
102
RTVSPropertyOp21
 70
     1
102
RTVSPropertyOp22
 70
     1
102
RTVSPropertyOp23
 70
     1
102
RTVSPropertyOp24
 70
     1
102
RTVSPropertyOp25
 70
     1
102
RTVSPropertyOp26
 70
     1
102
RTVSPropertyOp27
 70
     1
102
RTVSPropertyOp28
 70
     1
102
RTVSPropertyOp29
 70
     1
102
RTVSPropertyOp30
 70
     1
102
RTVSPropertyOp31
 70
     1
102
RTVSPropertyOp32
 70
     1
102
RTVSPropertyOp33
 70
     1
102
RTVSPropertyOp34
 70
     1
102
RTVSPropertyOp35
 70
     1
102
RTVSPropertyOp36
 70
     1
102
RTVSPropertyOp37
 70
     1
102
RTVSPropertyOp38
 70
     1
102
RTVSPropertyOp39
 70
     1
102
RTVSPropertyOp40
 70
     1
102
RTVSPropertyOp41
 70
     1
102
RTVSPropertyOp42
 70
     1
102
RTVSPropertyOp43
 70
     1
102
RTVSPropertyOp44
 70
     1
102
RTVSPropertyOp45
 70
     1
102
RTVSPropertyOp46
 70
     1
102
RTVSPropertyOp47
 70
     1
102
RTVSPropertyOp48
 70
     1
102
RTVSPropertyOp49
 70
     1
102
RTVSPropertyOp50
 70
     1
102
RTVSPropertyOp51
 70
     0
102
RTVSPropertyOp52
 70
     0
102
RTVSPropertyOp53
 70
     1
102
RTVSPropertyOp54
 70
     1
102
RTVSPropertyOp55
 70
     1
102
RTVSPropertyOp56
 70
     1
102
RTVSPropertyOp57
 70
     1
102
RTVSPost2010Prop28
280
     0
102
RTVSPost2010PropOp28
 70
     1
102
RTVSPost2010Prop29
280
     1
102
RTVSPost2010PropOp29
 70
     1
102
RTVSPost2010Prop30
280
     1
102
RTVSPost2010PropOp30
 70
     1
102
RTVSPost2010Prop31
280
     0
102
RTVSPost2010PropOp31
 70
     1
102
RTVSPost2010Prop32
280
     0
102
RTVSPost2010PropOp32
 70
     1
102
RTVSPost2010Prop33
280
     0
102
RTVSPost2010PropOp33
 70
     1
102
RTVSPost2010Prop34
280
     0
102
RTVSPost2010PropOp34
 70
     1
102
RTVSPost2010Prop35
280
     0
102
RTVSPost2010PropOp35
 70
     1
102
RTVSPost2010Prop36
280
     0
102
RTVSPost2010PropOp36
 70
     1
102
RTVSPost2010Prop37
 90
       50
102
RTVSPost2010PropOp37
 70
     1
102
RTVSPost2010Prop38
140
0.0
102
RTVSPost2010PropOp38
 70
     1
102
RTVSPost2010Prop39
140
1.0
102
RTVSPost2010PropOp39
 70
     1
102
RTVSPost2010Prop40
 90
        0
102
RTVSPost2010PropOp40
 70
     1
102
RTVSPost2010Prop41ColorIndex
 90
       18
102
RTVSPost2010Prop41ColorRGB
 90
        0
102
RTVSPost2010PropOp41
 70
     1
102
RTVSPost2010Prop42
 90
       50
102
RTVSPost2010PropOp42
 70
     1
102
RTVSPost2010Prop43
 90
        3
102
RTVSPost2010PropOp43
 70
     1
102
RTVSPost2010Prop44ColorIndex
 90
        5
102
RTVSPost2010Prop44ColorRGB
 90
      255
102
RTVSPost2010PropOp44
 70
     1
102
RTVSPost2010Prop45
280
     0
102
RTVSPost2010PropOp45
 70
     1
102
RTVSPost2010Prop46
 90
       50
102
RTVSPost2010PropOp46
 70
     1
102
RTVSPost2010Prop47
 90
       50
102
RTVSPost2010PropOp47
 70
     1
102
RTVSPost2010Prop48
 90
       50
102
RTVSPost2010PropOp48
 70
     1
102
RTVSPost2010Prop49
280
     0
102
RTVSPost2010PropOp49
 70
     1
102
RTVSPost2010Prop50
 90
       50
102
RTVSPost2010PropOp50
 70
     1
102
RTVSPost2010Prop51ColorIndex
 90
      256
102
RTVSPost2010Prop51ColorRGB
 90
-16777216
102
RTVSPost2010PropOp51
 70
     0
102
RTVSPost2010Prop52
140
1.0
102
RTVSPost2010PropOp52
 70
     0
102
RTVSPost2010Prop53
 90
        2
102
RTVSPost2010PropOp53
 70
     1
102
RTVSPost2010Prop54
  1
strokes_ogs.tif
102
RTVSPost2010PropOp54
 70
     1
102
RTVSPost2010Prop55
280
     0
102
RTVSPost2010PropOp55
 70
     1
102
RTVSPost2010Prop56
140
1.0
102
RTVSPost2010PropOp56
 70
     1
102
RTVSPost2010Prop57
140
1.0
102
RTVSPost2010PropOp57
 70
     1
  0
XRECORD
  5
68A
102
{ACAD_REACTORS
330
689
102
}
330
689
100
AcDbXrecord
280
     1
102
RTVSPropertyOp0
 70
     0
102
RTVSPropertyOp1
 70
     0
102
RTVSPropertyOp2
 70
     0
102
RTVSPropertyOp3
 70
     0
102
RTVSPropertyOp4
 70
     0
102
RTVSPropertyOp5
 70
     0
102
RTVSPropertyOp6
 70
     0
102
RTVSPropertyOp7
 70
     0
102
RTVSPropertyOp8
 70
     0
102
RTVSPropertyOp9
 70
     0
102
RTVSPropertyOp10
 70
     0
102
RTVSPropertyOp11
 70
     0
102
RTVSPropertyOp12
 70
     0
102
RTVSPropertyOp13
 70
     0
102
RTVSPropertyOp14
 70
     0
102
RTVSPropertyOp15
 70
     0
102
RTVSPropertyOp16
 70
     0
102
RTVSPropertyOp17
 70
     0
102
RTVSPropertyOp18
 70
     0
102
RTVSPropertyOp19
 70
     0
102
RTVSPropertyOp20
 70
     0
102
RTVSPropertyOp21
 70
     0
102
RTVSPropertyOp22
 70
     0
102
RTVSPropertyOp23
 70
     0
102
RTVSPropertyOp24
 70
     0
102
RTVSPropertyOp25
 70
     0
102
RTVSPropertyOp26
 70
     0
102
RTVSPropertyOp27
 70
     0
102
RTVSPropertyOp28
 70
     1
102
RTVSPropertyOp29
 70
     1
102
RTVSPropertyOp30
 70
     1
102
RTVSPropertyOp31
 70
     1
102
RTVSPropertyOp32
 70
     1
102
RTVSPropertyOp33
 70
     1
102
RTVSPropertyOp34
 70
     1
102
RTVSPropertyOp35
 70
     1
102
RTVSPropertyOp36
 70
     1
102
RTVSPropertyOp37
 70
     1
102
RTVSPropertyOp38
 70
     1
102
RTVSPropertyOp39
 70
     1
102
RTVSPropertyOp40
 70
     1
102
RTVSPropertyOp41
 70
     1
102
RTVSPropertyOp42
 70
     1
102
RTVSPropertyOp43
 70
     1
102
RTVSPropertyOp44
 70
     1
102
RTVSPropertyOp45
 70
     1
102
RTVSPropertyOp46
 70
     1
102
RTVSPropertyOp47
 70
     1
102
RTVSPropertyOp48
 70
     1
102
RTVSPropertyOp49
 70
     1
102
RTVSPropertyOp50
 70
     1
102
RTVSPropertyOp51
 70
     0
102
RTVSPropertyOp52
 70
     0
102
RTVSPropertyOp53
 70
     1
102
RTVSPropertyOp54
 70
     1
102
RTVSPropertyOp55
 70
     1
102
RTVSPropertyOp56
 70
     1
102
RTVSPropertyOp57
 70
     1
102
RTVSPost2010Prop28
280
     0
102
RTVSPost2010PropOp28
 70
     1
102
RTVSPost2010Prop29
280
     1
102
RTVSPost2010PropOp29
 70
     1
102
RTVSPost2010Prop30
280
     1
102
RTVSPost2010PropOp30
 70
     1
102
RTVSPost2010Prop31
280
     0
102
RTVSPost2010PropOp31
 70
     1
102
RTVSPost2010Prop32
280
     0
102
RTVSPost2010PropOp32
 70
     1
102
RTVSPost2010Prop33
280
     0
102
RTVSPost2010PropOp33
 70
     1
102
RTVSPost2010Prop34
280
     0
102
RTVSPost2010PropOp34
 70
     1
102
RTVSPost2010Prop35
280
     0
102
RTVSPost2010PropOp35
 70
     1
102
RTVSPost2010Prop36
280
     0
102
RTVSPost2010PropOp36
 70
     1
102
RTVSPost2010Prop37
 90
       50
102
RTVSPost2010PropOp37
 70
     1
102
RTVSPost2010Prop38
140
0.0
102
RTVSPost2010PropOp38
 70
     1
102
RTVSPost2010Prop39
140
1.0
102
RTVSPost2010PropOp39
 70
     1
102
RTVSPost2010Prop40
 90
        0
102
RTVSPost2010PropOp40
 70
     1
102
RTVSPost2010Prop41ColorIndex
 90
       18
102
RTVSPost2010Prop41ColorRGB
 90
        0
102
RTVSPost2010PropOp41
 70
     1
102
RTVSPost2010Prop42
 90
       50
102
RTVSPost2010PropOp42
 70
     1
102
RTVSPost2010Prop43
 90
        3
102
RTVSPost2010PropOp43
 70
     1
102
RTVSPost2010Prop44ColorIndex
 90
        5
102
RTVSPost2010Prop44ColorRGB
 90
      255
102
RTVSPost2010PropOp44
 70
     1
102
RTVSPost2010Prop45
280
     0
102
RTVSPost2010PropOp45
 70
     1
102
RTVSPost2010Prop46
 90
       50
102
RTVSPost2010PropOp46
 70
     1
102
RTVSPost2010Prop47
 90
       50
102
RTVSPost2010PropOp47
 70
     1
102
RTVSPost2010Prop48
 90
       50
102
RTVSPost2010PropOp48
 70
     1
102
RTVSPost2010Prop49
280
     0
102
RTVSPost2010PropOp49
 70
     1
102
RTVSPost2010Prop50
 90
       50
102
RTVSPost2010PropOp50
 70
     1
102
RTVSPost2010Prop51ColorIndex
 90
      256
102
RTVSPost2010Prop51ColorRGB
 90
-16777216
102
RTVSPost2010PropOp51
 70
     0
102
RTVSPost2010Prop52
140
1.0
102
RTVSPost2010PropOp52
 70
     0
102
RTVSPost2010Prop53
 90
        2
102
RTVSPost2010PropOp53
 70
     1
102
RTVSPost2010Prop54
  1
strokes_ogs.tif
102
RTVSPost2010PropOp54
 70
     1
102
RTVSPost2010Prop55
280
     0
102
RTVSPost2010PropOp55
 70
     1
102
RTVSPost2010Prop56
140
1.0
102
RTVSPost2010PropOp56
 70
     1
102
RTVSPost2010Prop57
140
1.0
102
RTVSPost2010PropOp57
 70
     1
  0
XRECORD
  5
682
102
{ACAD_REACTORS
330
681
102
}
330
681
100
AcDbXrecord
280
     1
102
RTVSPropertyOp0
 70
     1
102
RTVSPropertyOp1
 70
     1
102
RTVSPropertyOp2
 70
     1
102
RTVSPropertyOp3
 70
     1
102
RTVSPropertyOp4
 70
     1
102
RTVSPropertyOp5
 70
     1
102
RTVSPropertyOp6
 70
     1
102
RTVSPropertyOp7
 70
     1
102
RTVSPropertyOp8
 70
     1
102
RTVSPropertyOp9
 70
     1
102
RTVSPropertyOp10
 70
     1
102
RTVSPropertyOp11
 70
     1
102
RTVSPropertyOp12
 70
     1
102
RTVSPropertyOp13
 70
     1
102
RTVSPropertyOp14
 70
     1
102
RTVSPropertyOp15
 70
     1
102
RTVSPropertyOp16
 70
     1
102
RTVSPropertyOp17
 70
     1
102
RTVSPropertyOp18
 70
     1
102
RTVSPropertyOp19
 70
     1
102
RTVSPropertyOp20
 70
     1
102
RTVSPropertyOp21
 70
     1
102
RTVSPropertyOp22
 70
     1
102
RTVSPropertyOp23
 70
     1
102
RTVSPropertyOp24
 70
     1
102
RTVSPropertyOp25
 70
     1
102
RTVSPropertyOp26
 70
     1
102
RTVSPropertyOp27
 70
     1
102
RTVSPropertyOp28
 70
     1
102
RTVSPropertyOp29
 70
     1
102
RTVSPropertyOp30
 70
     1
102
RTVSPropertyOp31
 70
     1
102
RTVSPropertyOp32
 70
     1
102
RTVSPropertyOp33
 70
     1
102
RTVSPropertyOp34
 70
     1
102
RTVSPropertyOp35
 70
     1
102
RTVSPropertyOp36
 70
     1
102
RTVSPropertyOp37
 70
     1
102
RTVSPropertyOp38
 70
     1
102
RTVSPropertyOp39
 70
     1
102
RTVSPropertyOp40
 70
     1
102
RTVSPropertyOp41
 70
     1
102
RTVSPropertyOp42
 70
     1
102
RTVSPropertyOp43
 70
     1
102
RTVSPropertyOp44
 70
     1
102
RTVSPropertyOp45
 70
     1
102
RTVSPropertyOp46
 70
     1
102
RTVSPropertyOp47
 70
     1
102
RTVSPropertyOp48
 70
     1
102
RTVSPropertyOp49
 70
     1
102
RTVSPropertyOp50
 70
     1
102
RTVSPropertyOp51
 70
     0
102
RTVSPropertyOp52
 70
     0
102
RTVSPropertyOp53
 70
     1
102
RTVSPropertyOp54
 70
     1
102
RTVSPropertyOp55
 70
     1
102
RTVSPropertyOp56
 70
     1
102
RTVSPropertyOp57
 70
     1
102
RTVSPost2010Prop28
280
     0
102
RTVSPost2010PropOp28
 70
     1
102
RTVSPost2010Prop29
280
     1
102
RTVSPost2010PropOp29
 70
     1
102
RTVSPost2010Prop30
280
     1
102
RTVSPost2010PropOp30
 70
     1
102
RTVSPost2010Prop31
280
     0
102
RTVSPost2010PropOp31
 70
     1
102
RTVSPost2010Prop32
280
     0
102
RTVSPost2010PropOp32
 70
     1
102
RTVSPost2010Prop33
280
     0
102
RTVSPost2010PropOp33
 70
     1
102
RTVSPost2010Prop34
280
     0
102
RTVSPost2010PropOp34
 70
     1
102
RTVSPost2010Prop35
280
     0
102
RTVSPost2010PropOp35
 70
     1
102
RTVSPost2010Prop36
280
     0
102
RTVSPost2010PropOp36
 70
     1
102
RTVSPost2010Prop37
 90
       50
102
RTVSPost2010PropOp37
 70
     1
102
RTVSPost2010Prop38
140
0.0
102
RTVSPost2010PropOp38
 70
     1
102
RTVSPost2010Prop39
140
1.0
102
RTVSPost2010PropOp39
 70
     1
102
RTVSPost2010Prop40
 90
        0
102
RTVSPost2010PropOp40
 70
     1
102
RTVSPost2010Prop41ColorIndex
 90
       18
102
RTVSPost2010Prop41ColorRGB
 90
        0
102
RTVSPost2010PropOp41
 70
     1
102
RTVSPost2010Prop42
 90
       50
102
RTVSPost2010PropOp42
 70
     1
102
RTVSPost2010Prop43
 90
        3
102
RTVSPost2010PropOp43
 70
     1
102
RTVSPost2010Prop44ColorIndex
 90
        5
102
RTVSPost2010Prop44ColorRGB
 90
      255
102
RTVSPost2010PropOp44
 70
     1
102
RTVSPost2010Prop45
280
     0
102
RTVSPost2010PropOp45
 70
     1
102
RTVSPost2010Prop46
 90
       50
102
RTVSPost2010PropOp46
 70
     1
102
RTVSPost2010Prop47
 90
       50
102
RTVSPost2010PropOp47
 70
     1
102
RTVSPost2010Prop48
 90
       50
102
RTVSPost2010PropOp48
 70
     1
102
RTVSPost2010Prop49
280
     0
102
RTVSPost2010PropOp49
 70
     1
102
RTVSPost2010Prop50
 90
       50
102
RTVSPost2010PropOp50
 70
     1
102
RTVSPost2010Prop51ColorIndex
 90
      256
102
RTVSPost2010Prop51ColorRGB
 90
-16777216
102
RTVSPost2010PropOp51
 70
     0
102
RTVSPost2010Prop52
140
1.0
102
RTVSPost2010PropOp52
 70
     0
102
RTVSPost2010Prop53
 90
        2
102
RTVSPost2010PropOp53
 70
     1
102
RTVSPost2010Prop54
  1
strokes_ogs.tif
102
RTVSPost2010PropOp54
 70
     1
102
RTVSPost2010Prop55
280
     0
102
RTVSPost2010PropOp55
 70
     1
102
RTVSPost2010Prop56
140
1.0
102
RTVSPost2010PropOp56
 70
     1
102
RTVSPost2010Prop57
140
1.0
102
RTVSPost2010PropOp57
 70
     1
  0
XRECORD
  5
666
102
{ACAD_REACTORS
330
665
102
}
330
665
100
AcDbXrecord
280
     1
102
RTVSPropertyOp0
 70
     1
102
RTVSPropertyOp1
 70
     1
102
RTVSPropertyOp2
 70
     1
102
RTVSPropertyOp3
 70
     1
102
RTVSPropertyOp4
 70
     1
102
RTVSPropertyOp5
 70
     1
102
RTVSPropertyOp6
 70
     1
102
RTVSPropertyOp7
 70
     1
102
RTVSPropertyOp8
 70
     1
102
RTVSPropertyOp9
 70
     1
102
RTVSPropertyOp10
 70
     1
102
RTVSPropertyOp11
 70
     1
102
RTVSPropertyOp12
 70
     1
102
RTVSPropertyOp13
 70
     1
102
RTVSPropertyOp14
 70
     1
102
RTVSPropertyOp15
 70
     1
102
RTVSPropertyOp16
 70
     1
102
RTVSPropertyOp17
 70
     1
102
RTVSPropertyOp18
 70
     1
102
RTVSPropertyOp19
 70
     1
102
RTVSPropertyOp20
 70
     1
102
RTVSPropertyOp21
 70
     1
102
RTVSPropertyOp22
 70
     1
102
RTVSPropertyOp23
 70
     1
102
RTVSPropertyOp24
 70
     1
102
RTVSPropertyOp25
 70
     1
102
RTVSPropertyOp26
 70
     1
102
RTVSPropertyOp27
 70
     1
102
RTVSPropertyOp28
 70
     1
102
RTVSPropertyOp29
 70
     1
102
RTVSPropertyOp30
 70
     1
102
RTVSPropertyOp31
 70
     1
102
RTVSPropertyOp32
 70
     1
102
RTVSPropertyOp33
 70
     1
102
RTVSPropertyOp34
 70
     1
102
RTVSPropertyOp35
 70
     1
102
RTVSPropertyOp36
 70
     1
102
RTVSPropertyOp37
 70
     1
102
RTVSPropertyOp38
 70
     1
102
RTVSPropertyOp39
 70
     1
102
RTVSPropertyOp40
 70
     1
102
RTVSPropertyOp41
 70
     1
102
RTVSPropertyOp42
 70
     1
102
RTVSPropertyOp43
 70
     1
102
RTVSPropertyOp44
 70
     1
102
RTVSPropertyOp45
 70
     1
102
RTVSPropertyOp46
 70
     1
102
RTVSPropertyOp47
 70
     1
102
RTVSPropertyOp48
 70
     1
102
RTVSPropertyOp49
 70
     1
102
RTVSPropertyOp50
 70
     1
102
RTVSPropertyOp51
 70
     0
102
RTVSPropertyOp52
 70
     0
102
RTVSPropertyOp53
 70
     1
102
RTVSPropertyOp54
 70
     1
102
RTVSPropertyOp55
 70
     1
102
RTVSPropertyOp56
 70
     1
102
RTVSPropertyOp57
 70
     1
102
RTVSPost2010Prop28
280
     0
102
RTVSPost2010PropOp28
 70
     1
102
RTVSPost2010Prop29
280
     1
102
RTVSPost2010PropOp29
 70
     1
102
RTVSPost2010Prop30
280
     1
102
RTVSPost2010PropOp30
 70
     1
102
RTVSPost2010Prop31
280
     0
102
RTVSPost2010PropOp31
 70
     1
102
RTVSPost2010Prop32
280
     0
102
RTVSPost2010PropOp32
 70
     1
102
RTVSPost2010Prop33
280
     0
102
RTVSPost2010PropOp33
 70
     1
102
RTVSPost2010Prop34
280
     0
102
RTVSPost2010PropOp34
 70
     1
102
RTVSPost2010Prop35
280
     0
102
RTVSPost2010PropOp35
 70
     1
102
RTVSPost2010Prop36
280
     0
102
RTVSPost2010PropOp36
 70
     1
102
RTVSPost2010Prop37
 90
       50
102
RTVSPost2010PropOp37
 70
     1
102
RTVSPost2010Prop38
140
0.0
102
RTVSPost2010PropOp38
 70
     1
102
RTVSPost2010Prop39
140
1.0
102
RTVSPost2010PropOp39
 70
     1
102
RTVSPost2010Prop40
 90
        0
102
RTVSPost2010PropOp40
 70
     1
102
RTVSPost2010Prop41ColorIndex
 90
       18
102
RTVSPost2010Prop41ColorRGB
 90
        0
102
RTVSPost2010PropOp41
 70
     1
102
RTVSPost2010Prop42
 90
       50
102
RTVSPost2010PropOp42
 70
     1
102
RTVSPost2010Prop43
 90
        3
102
RTVSPost2010PropOp43
 70
     1
102
RTVSPost2010Prop44ColorIndex
 90
        5
102
RTVSPost2010Prop44ColorRGB
 90
      255
102
RTVSPost2010PropOp44
 70
     1
102
RTVSPost2010Prop45
280
     0
102
RTVSPost2010PropOp45
 70
     1
102
RTVSPost2010Prop46
 90
       50
102
RTVSPost2010PropOp46
 70
     1
102
RTVSPost2010Prop47
 90
       50
102
RTVSPost2010PropOp47
 70
     1
102
RTVSPost2010Prop48
 90
       50
102
RTVSPost2010PropOp48
 70
     1
102
RTVSPost2010Prop49
280
     0
102
RTVSPost2010PropOp49
 70
     1
102
RTVSPost2010Prop50
 90
       50
102
RTVSPost2010PropOp50
 70
     1
102
RTVSPost2010Prop51ColorIndex
 90
      256
102
RTVSPost2010Prop51ColorRGB
 90
-16777216
102
RTVSPost2010PropOp51
 70
     0
102
RTVSPost2010Prop52
140
1.0
102
RTVSPost2010PropOp52
 70
     0
102
RTVSPost2010Prop53
 90
        2
102
RTVSPost2010PropOp53
 70
     1
102
RTVSPost2010Prop54
  1
strokes_ogs.tif
102
RTVSPost2010PropOp54
 70
     1
102
RTVSPost2010Prop55
280
     0
102
RTVSPost2010PropOp55
 70
     1
102
RTVSPost2010Prop56
140
1.0
102
RTVSPost2010PropOp56
 70
     1
102
RTVSPost2010Prop57
140
1.0
102
RTVSPost2010PropOp57
 70
     1
  0
XRECORD
  5
668
102
{ACAD_REACTORS
330
667
102
}
330
667
100
AcDbXrecord
280
     1
102
RTVSPropertyOp0
 70
     1
102
RTVSPropertyOp1
 70
     1
102
RTVSPropertyOp2
 70
     1
102
RTVSPropertyOp3
 70
     1
102
RTVSPropertyOp4
 70
     1
102
RTVSPropertyOp5
 70
     1
102
RTVSPropertyOp6
 70
     1
102
RTVSPropertyOp7
 70
     1
102
RTVSPropertyOp8
 70
     1
102
RTVSPropertyOp9
 70
     1
102
RTVSPropertyOp10
 70
     1
102
RTVSPropertyOp11
 70
     1
102
RTVSPropertyOp12
 70
     1
102
RTVSPropertyOp13
 70
     1
102
RTVSPropertyOp14
 70
     1
102
RTVSPropertyOp15
 70
     1
102
RTVSPropertyOp16
 70
     1
102
RTVSPropertyOp17
 70
     1
102
RTVSPropertyOp18
 70
     1
102
RTVSPropertyOp19
 70
     1
102
RTVSPropertyOp20
 70
     1
102
RTVSPropertyOp21
 70
     1
102
RTVSPropertyOp22
 70
     1
102
RTVSPropertyOp23
 70
     1
102
RTVSPropertyOp24
 70
     1
102
RTVSPropertyOp25
 70
     1
102
RTVSPropertyOp26
 70
     1
102
RTVSPropertyOp27
 70
     1
102
RTVSPropertyOp28
 70
     1
102
RTVSPropertyOp29
 70
     1
102
RTVSPropertyOp30
 70
     1
102
RTVSPropertyOp31
 70
     1
102
RTVSPropertyOp32
 70
     1
102
RTVSPropertyOp33
 70
     1
102
RTVSPropertyOp34
 70
     1
102
RTVSPropertyOp35
 70
     1
102
RTVSPropertyOp36
 70
     1
102
RTVSPropertyOp37
 70
     1
102
RTVSPropertyOp38
 70
     1
102
RTVSPropertyOp39
 70
     1
102
RTVSPropertyOp40
 70
     1
102
RTVSPropertyOp41
 70
     1
102
RTVSPropertyOp42
 70
     1
102
RTVSPropertyOp43
 70
     1
102
RTVSPropertyOp44
 70
     1
102
RTVSPropertyOp45
 70
     1
102
RTVSPropertyOp46
 70
     1
102
RTVSPropertyOp47
 70
     1
102
RTVSPropertyOp48
 70
     1
102
RTVSPropertyOp49
 70
     1
102
RTVSPropertyOp50
 70
     1
102
RTVSPropertyOp51
 70
     0
102
RTVSPropertyOp52
 70
     0
102
RTVSPropertyOp53
 70
     1
102
RTVSPropertyOp54
 70
     1
102
RTVSPropertyOp55
 70
     1
102
RTVSPropertyOp56
 70
     1
102
RTVSPropertyOp57
 70
     1
102
RTVSPost2010Prop28
280
     0
102
RTVSPost2010PropOp28
 70
     1
102
RTVSPost2010Prop29
280
     1
102
RTVSPost2010PropOp29
 70
     1
102
RTVSPost2010Prop30
280
     1
102
RTVSPost2010PropOp30
 70
     1
102
RTVSPost2010Prop31
280
     0
102
RTVSPost2010PropOp31
 70
     1
102
RTVSPost2010Prop32
280
     0
102
RTVSPost2010PropOp32
 70
     1
102
RTVSPost2010Prop33
280
     0
102
RTVSPost2010PropOp33
 70
     1
102
RTVSPost2010Prop34
280
     0
102
RTVSPost2010PropOp34
 70
     1
102
RTVSPost2010Prop35
280
     0
102
RTVSPost2010PropOp35
 70
     1
102
RTVSPost2010Prop36
280
     0
102
RTVSPost2010PropOp36
 70
     1
102
RTVSPost2010Prop37
 90
       50
102
RTVSPost2010PropOp37
 70
     1
102
RTVSPost2010Prop38
140
0.0
102
RTVSPost2010PropOp38
 70
     1
102
RTVSPost2010Prop39
140
1.0
102
RTVSPost2010PropOp39
 70
     1
102
RTVSPost2010Prop40
 90
        0
102
RTVSPost2010PropOp40
 70
     1
102
RTVSPost2010Prop41ColorIndex
 90
       18
102
RTVSPost2010Prop41ColorRGB
 90
        0
102
RTVSPost2010PropOp41
 70
     1
102
RTVSPost2010Prop42
 90
       50
102
RTVSPost2010PropOp42
 70
     1
102
RTVSPost2010Prop43
 90
        3
102
RTVSPost2010PropOp43
 70
     1
102
RTVSPost2010Prop44ColorIndex
 90
        5
102
RTVSPost2010Prop44ColorRGB
 90
      255
102
RTVSPost2010PropOp44
 70
     1
102
RTVSPost2010Prop45
280
     0
102
RTVSPost2010PropOp45
 70
     1
102
RTVSPost2010Prop46
 90
       50
102
RTVSPost2010PropOp46
 70
     1
102
RTVSPost2010Prop47
 90
       50
102
RTVSPost2010PropOp47
 70
     1
102
RTVSPost2010Prop48
 90
       50
102
RTVSPost2010PropOp48
 70
     1
102
RTVSPost2010Prop49
280
     0
102
RTVSPost2010PropOp49
 70
     1
102
RTVSPost2010Prop50
 90
       50
102
RTVSPost2010PropOp50
 70
     1
102
RTVSPost2010Prop51ColorIndex
 90
      256
102
RTVSPost2010Prop51ColorRGB
 90
-16777216
102
RTVSPost2010PropOp51
 70
     0
102
RTVSPost2010Prop52
140
1.0
102
RTVSPost2010PropOp52
 70
     0
102
RTVSPost2010Prop53
 90
        2
102
RTVSPost2010PropOp53
 70
     1
102
RTVSPost2010Prop54
  1
strokes_ogs.tif
102
RTVSPost2010PropOp54
 70
     1
102
RTVSPost2010Prop55
280
     0
102
RTVSPost2010PropOp55
 70
     1
102
RTVSPost2010Prop56
140
1.0
102
RTVSPost2010PropOp56
 70
     1
102
RTVSPost2010Prop57
140
1.0
102
RTVSPost2010PropOp57
 70
     1
  0
XRECORD
  5
66A
102
{ACAD_REACTORS
330
669
102
}
330
669
100
AcDbXrecord
280
     1
102
RTVSPropertyOp0
 70
     1
102
RTVSPropertyOp1
 70
     1
102
RTVSPropertyOp2
 70
     1
102
RTVSPropertyOp3
 70
     1
102
RTVSPropertyOp4
 70
     1
102
RTVSPropertyOp5
 70
     1
102
RTVSPropertyOp6
 70
     1
102
RTVSPropertyOp7
 70
     1
102
RTVSPropertyOp8
 70
     1
102
RTVSPropertyOp9
 70
     1
102
RTVSPropertyOp10
 70
     1
102
RTVSPropertyOp11
 70
     1
102
RTVSPropertyOp12
 70
     1
102
RTVSPropertyOp13
 70
     1
102
RTVSPropertyOp14
 70
     1
102
RTVSPropertyOp15
 70
     1
102
RTVSPropertyOp16
 70
     1
102
RTVSPropertyOp17
 70
     1
102
RTVSPropertyOp18
 70
     1
102
RTVSPropertyOp19
 70
     1
102
RTVSPropertyOp20
 70
     1
102
RTVSPropertyOp21
 70
     1
102
RTVSPropertyOp22
 70
     1
102
RTVSPropertyOp23
 70
     1
102
RTVSPropertyOp24
 70
     1
102
RTVSPropertyOp25
 70
     1
102
RTVSPropertyOp26
 70
     1
102
RTVSPropertyOp27
 70
     1
102
RTVSPropertyOp28
 70
     1
102
RTVSPropertyOp29
 70
     1
102
RTVSPropertyOp30
 70
     1
102
RTVSPropertyOp31
 70
     1
102
RTVSPropertyOp32
 70
     1
102
RTVSPropertyOp33
 70
     1
102
RTVSPropertyOp34
 70
     1
102
RTVSPropertyOp35
 70
     1
102
RTVSPropertyOp36
 70
     1
102
RTVSPropertyOp37
 70
     1
102
RTVSPropertyOp38
 70
     1
102
RTVSPropertyOp39
 70
     1
102
RTVSPropertyOp40
 70
     1
102
RTVSPropertyOp41
 70
     1
102
RTVSPropertyOp42
 70
     1
102
RTVSPropertyOp43
 70
     1
102
RTVSPropertyOp44
 70
     1
102
RTVSPropertyOp45
 70
     1
102
RTVSPropertyOp46
 70
     1
102
RTVSPropertyOp47
 70
     1
102
RTVSPropertyOp48
 70
     1
102
RTVSPropertyOp49
 70
     1
102
RTVSPropertyOp50
 70
     1
102
RTVSPropertyOp51
 70
     0
102
RTVSPropertyOp52
 70
     0
102
RTVSPropertyOp53
 70
     1
102
RTVSPropertyOp54
 70
     1
102
RTVSPropertyOp55
 70
     1
102
RTVSPropertyOp56
 70
     1
102
RTVSPropertyOp57
 70
     1
102
RTVSPost2010Prop28
280
     0
102
RTVSPost2010PropOp28
 70
     1
102
RTVSPost2010Prop29
280
     1
102
RTVSPost2010PropOp29
 70
     1
102
RTVSPost2010Prop30
280
     1
102
RTVSPost2010PropOp30
 70
     1
102
RTVSPost2010Prop31
280
     0
102
RTVSPost2010PropOp31
 70
     1
102
RTVSPost2010Prop32
280
     0
102
RTVSPost2010PropOp32
 70
     1
102
RTVSPost2010Prop33
280
     0
102
RTVSPost2010PropOp33
 70
     1
102
RTVSPost2010Prop34
280
     0
102
RTVSPost2010PropOp34
 70
     1
102
RTVSPost2010Prop35
280
     0
102
RTVSPost2010PropOp35
 70
     1
102
RTVSPost2010Prop36
280
     0
102
RTVSPost2010PropOp36
 70
     1
102
RTVSPost2010Prop37
 90
       50
102
RTVSPost2010PropOp37
 70
     1
102
RTVSPost2010Prop38
140
0.0
102
RTVSPost2010PropOp38
 70
     1
102
RTVSPost2010Prop39
140
1.0
102
RTVSPost2010PropOp39
 70
     1
102
RTVSPost2010Prop40
 90
        0
102
RTVSPost2010PropOp40
 70
     1
102
RTVSPost2010Prop41ColorIndex
 90
       18
102
RTVSPost2010Prop41ColorRGB
 90
        0
102
RTVSPost2010PropOp41
 70
     1
102
RTVSPost2010Prop42
 90
       50
102
RTVSPost2010PropOp42
 70
     1
102
RTVSPost2010Prop43
 90
        3
102
RTVSPost2010PropOp43
 70
     1
102
RTVSPost2010Prop44ColorIndex
 90
        5
102
RTVSPost2010Prop44ColorRGB
 90
      255
102
RTVSPost2010PropOp44
 70
     1
102
RTVSPost2010Prop45
280
     0
102
RTVSPost2010PropOp45
 70
     1
102
RTVSPost2010Prop46
 90
       50
102
RTVSPost2010PropOp46
 70
     1
102
RTVSPost2010Prop47
 90
       50
102
RTVSPost2010PropOp47
 70
     1
102
RTVSPost2010Prop48
 90
       50
102
RTVSPost2010PropOp48
 70
     1
102
RTVSPost2010Prop49
280
     0
102
RTVSPost2010PropOp49
 70
     1
102
RTVSPost2010Prop50
 90
       50
102
RTVSPost2010PropOp50
 70
     1
102
RTVSPost2010Prop51ColorIndex
 90
      256
102
RTVSPost2010Prop51ColorRGB
 90
-16777216
102
RTVSPost2010PropOp51
 70
     0
102
RTVSPost2010Prop52
140
1.0
102
RTVSPost2010PropOp52
 70
     0
102
RTVSPost2010Prop53
 90
        2
102
RTVSPost2010PropOp53
 70
     1
102
RTVSPost2010Prop54
  1
strokes_ogs.tif
102
RTVSPost2010PropOp54
 70
     1
102
RTVSPost2010Prop55
280
     0
102
RTVSPost2010PropOp55
 70
     1
102
RTVSPost2010Prop56
140
1.0
102
RTVSPost2010PropOp56
 70
     1
102
RTVSPost2010Prop57
140
1.0
102
RTVSPost2010PropOp57
 70
     1
  0
XRECORD
  5
66C
102
{ACAD_REACTORS
330
66B
102
}
330
66B
100
AcDbXrecord
280
     1
102
RTVSPropertyOp0
 70
     1
102
RTVSPropertyOp1
 70
     1
102
RTVSPropertyOp2
 70
     1
102
RTVSPropertyOp3
 70
     1
102
RTVSPropertyOp4
 70
     1
102
RTVSPropertyOp5
 70
     1
102
RTVSPropertyOp6
 70
     1
102
RTVSPropertyOp7
 70
     1
102
RTVSPropertyOp8
 70
     1
102
RTVSPropertyOp9
 70
     1
102
RTVSPropertyOp10
 70
     1
102
RTVSPropertyOp11
 70
     1
102
RTVSPropertyOp12
 70
     1
102
RTVSPropertyOp13
 70
     1
102
RTVSPropertyOp14
 70
     1
102
RTVSPropertyOp15
 70
     1
102
RTVSPropertyOp16
 70
     1
102
RTVSPropertyOp17
 70
     1
102
RTVSPropertyOp18
 70
     1
102
RTVSPropertyOp19
 70
     1
102
RTVSPropertyOp20
 70
     1
102
RTVSPropertyOp21
 70
     1
102
RTVSPropertyOp22
 70
     1
102
RTVSPropertyOp23
 70
     1
102
RTVSPropertyOp24
 70
     1
102
RTVSPropertyOp25
 70
     1
102
RTVSPropertyOp26
 70
     1
102
RTVSPropertyOp27
 70
     1
102
RTVSPropertyOp28
 70
     1
102
RTVSPropertyOp29
 70
     1
102
RTVSPropertyOp30
 70
     1
102
RTVSPropertyOp31
 70
     1
102
RTVSPropertyOp32
 70
     1
102
RTVSPropertyOp33
 70
     1
102
RTVSPropertyOp34
 70
     1
102
RTVSPropertyOp35
 70
     1
102
RTVSPropertyOp36
 70
     1
102
RTVSPropertyOp37
 70
     1
102
RTVSPropertyOp38
 70
     1
102
RTVSPropertyOp39
 70
     1
102
RTVSPropertyOp40
 70
     1
102
RTVSPropertyOp41
 70
     1
102
RTVSPropertyOp42
 70
     1
102
RTVSPropertyOp43
 70
     1
102
RTVSPropertyOp44
 70
     1
102
RTVSPropertyOp45
 70
     1
102
RTVSPropertyOp46
 70
     1
102
RTVSPropertyOp47
 70
     1
102
RTVSPropertyOp48
 70
     1
102
RTVSPropertyOp49
 70
     1
102
RTVSPropertyOp50
 70
     1
102
RTVSPropertyOp51
 70
     0
102
RTVSPropertyOp52
 70
     0
102
RTVSPropertyOp53
 70
     1
102
RTVSPropertyOp54
 70
     1
102
RTVSPropertyOp55
 70
     1
102
RTVSPropertyOp56
 70
     1
102
RTVSPropertyOp57
 70
     1
102
RTVSPost2010Prop28
280
     0
102
RTVSPost2010PropOp28
 70
     1
102
RTVSPost2010Prop29
280
     1
102
RTVSPost2010PropOp29
 70
     1
102
RTVSPost2010Prop30
280
     1
102
RTVSPost2010PropOp30
 70
     1
102
RTVSPost2010Prop31
280
     0
102
RTVSPost2010PropOp31
 70
     1
102
RTVSPost2010Prop32
280
     0
102
RTVSPost2010PropOp32
 70
     1
102
RTVSPost2010Prop33
280
     0
102
RTVSPost2010PropOp33
 70
     1
102
RTVSPost2010Prop34
280
     0
102
RTVSPost2010PropOp34
 70
     1
102
RTVSPost2010Prop35
280
     0
102
RTVSPost2010PropOp35
 70
     1
102
RTVSPost2010Prop36
280
     0
102
RTVSPost2010PropOp36
 70
     1
102
RTVSPost2010Prop37
 90
       50
102
RTVSPost2010PropOp37
 70
     1
102
RTVSPost2010Prop38
140
0.0
102
RTVSPost2010PropOp38
 70
     1
102
RTVSPost2010Prop39
140
1.0
102
RTVSPost2010PropOp39
 70
     1
102
RTVSPost2010Prop40
 90
        0
102
RTVSPost2010PropOp40
 70
     1
102
RTVSPost2010Prop41ColorIndex
 90
       18
102
RTVSPost2010Prop41ColorRGB
 90
        0
102
RTVSPost2010PropOp41
 70
     1
102
RTVSPost2010Prop42
 90
       50
102
RTVSPost2010PropOp42
 70
     1
102
RTVSPost2010Prop43
 90
        3
102
RTVSPost2010PropOp43
 70
     1
102
RTVSPost2010Prop44ColorIndex
 90
        5
102
RTVSPost2010Prop44ColorRGB
 90
      255
102
RTVSPost2010PropOp44
 70
     1
102
RTVSPost2010Prop45
280
     0
102
RTVSPost2010PropOp45
 70
     1
102
RTVSPost2010Prop46
 90
       50
102
RTVSPost2010PropOp46
 70
     1
102
RTVSPost2010Prop47
 90
       50
102
RTVSPost2010PropOp47
 70
     1
102
RTVSPost2010Prop48
 90
       50
102
RTVSPost2010PropOp48
 70
     1
102
RTVSPost2010Prop49
280
     0
102
RTVSPost2010PropOp49
 70
     1
102
RTVSPost2010Prop50
 90
       50
102
RTVSPost2010PropOp50
 70
     1
102
RTVSPost2010Prop51ColorIndex
 90
      256
102
RTVSPost2010Prop51ColorRGB
 90
-16777216
102
RTVSPost2010PropOp51
 70
     0
102
RTVSPost2010Prop52
140
1.0
102
RTVSPost2010PropOp52
 70
     0
102
RTVSPost2010Prop53
 90
        2
102
RTVSPost2010PropOp53
 70
     1
102
RTVSPost2010Prop54
  1
strokes_ogs.tif
102
RTVSPost2010PropOp54
 70
     1
102
RTVSPost2010Prop55
280
     0
102
RTVSPost2010PropOp55
 70
     1
102
RTVSPost2010Prop56
140
1.0
102
RTVSPost2010PropOp56
 70
     1
102
RTVSPost2010Prop57
140
1.0
102
RTVSPost2010PropOp57
 70
     1
  0
XRECORD
  5
672
102
{ACAD_REACTORS
330
671
102
}
330
671
100
AcDbXrecord
280
     1
102
RTVSPropertyOp0
 70
     1
102
RTVSPropertyOp1
 70
     1
102
RTVSPropertyOp2
 70
     1
102
RTVSPropertyOp3
 70
     1
102
RTVSPropertyOp4
 70
     1
102
RTVSPropertyOp5
 70
     1
102
RTVSPropertyOp6
 70
     1
102
RTVSPropertyOp7
 70
     1
102
RTVSPropertyOp8
 70
     1
102
RTVSPropertyOp9
 70
     1
102
RTVSPropertyOp10
 70
     1
102
RTVSPropertyOp11
 70
     1
102
RTVSPropertyOp12
 70
     1
102
RTVSPropertyOp13
 70
     1
102
RTVSPropertyOp14
 70
     1
102
RTVSPropertyOp15
 70
     1
102
RTVSPropertyOp16
 70
     1
102
RTVSPropertyOp17
 70
     1
102
RTVSPropertyOp18
 70
     1
102
RTVSPropertyOp19
 70
     1
102
RTVSPropertyOp20
 70
     1
102
RTVSPropertyOp21
 70
     1
102
RTVSPropertyOp22
 70
     1
102
RTVSPropertyOp23
 70
     1
102
RTVSPropertyOp24
 70
     1
102
RTVSPropertyOp25
 70
     1
102
RTVSPropertyOp26
 70
     1
102
RTVSPropertyOp27
 70
     1
102
RTVSPropertyOp28
 70
     1
102
RTVSPropertyOp29
 70
     1
102
RTVSPropertyOp30
 70
     1
102
RTVSPropertyOp31
 70
     1
102
RTVSPropertyOp32
 70
     1
102
RTVSPropertyOp33
 70
     1
102
RTVSPropertyOp34
 70
     1
102
RTVSPropertyOp35
 70
     1
102
RTVSPropertyOp36
 70
     1
102
RTVSPropertyOp37
 70
     1
102
RTVSPropertyOp38
 70
     1
102
RTVSPropertyOp39
 70
     1
102
RTVSPropertyOp40
 70
     1
102
RTVSPropertyOp41
 70
     1
102
RTVSPropertyOp42
 70
     1
102
RTVSPropertyOp43
 70
     1
102
RTVSPropertyOp44
 70
     1
102
RTVSPropertyOp45
 70
     1
102
RTVSPropertyOp46
 70
     1
102
RTVSPropertyOp47
 70
     1
102
RTVSPropertyOp48
 70
     1
102
RTVSPropertyOp49
 70
     1
102
RTVSPropertyOp50
 70
     1
102
RTVSPropertyOp51
 70
     0
102
RTVSPropertyOp52
 70
     0
102
RTVSPropertyOp53
 70
     1
102
RTVSPropertyOp54
 70
     1
102
RTVSPropertyOp55
 70
     1
102
RTVSPropertyOp56
 70
     1
102
RTVSPropertyOp57
 70
     1
102
RTVSPost2010Prop28
280
     0
102
RTVSPost2010PropOp28
 70
     1
102
RTVSPost2010Prop29
280
     1
102
RTVSPost2010PropOp29
 70
     1
102
RTVSPost2010Prop30
280
     1
102
RTVSPost2010PropOp30
 70
     1
102
RTVSPost2010Prop31
280
     0
102
RTVSPost2010PropOp31
 70
     1
102
RTVSPost2010Prop32
280
     0
102
RTVSPost2010PropOp32
 70
     1
102
RTVSPost2010Prop33
280
     0
102
RTVSPost2010PropOp33
 70
     1
102
RTVSPost2010Prop34
280
     0
102
RTVSPost2010PropOp34
 70
     1
102
RTVSPost2010Prop35
280
     0
102
RTVSPost2010PropOp35
 70
     1
102
RTVSPost2010Prop36
280
     0
102
RTVSPost2010PropOp36
 70
     1
102
RTVSPost2010Prop37
 90
       50
102
RTVSPost2010PropOp37
 70
     1
102
RTVSPost2010Prop38
140
0.0
102
RTVSPost2010PropOp38
 70
     1
102
RTVSPost2010Prop39
140
1.0
102
RTVSPost2010PropOp39
 70
     1
102
RTVSPost2010Prop40
 90
        0
102
RTVSPost2010PropOp40
 70
     1
102
RTVSPost2010Prop41ColorIndex
 90
       18
102
RTVSPost2010Prop41ColorRGB
 90
        0
102
RTVSPost2010PropOp41
 70
     1
102
RTVSPost2010Prop42
 90
       50
102
RTVSPost2010PropOp42
 70
     1
102
RTVSPost2010Prop43
 90
        3
102
RTVSPost2010PropOp43
 70
     1
102
RTVSPost2010Prop44ColorIndex
 90
        5
102
RTVSPost2010Prop44ColorRGB
 90
      255
102
RTVSPost2010PropOp44
 70
     1
102
RTVSPost2010Prop45
280
     0
102
RTVSPost2010PropOp45
 70
     1
102
RTVSPost2010Prop46
 90
       50
102
RTVSPost2010PropOp46
 70
     1
102
RTVSPost2010Prop47
 90
       50
102
RTVSPost2010PropOp47
 70
     1
102
RTVSPost2010Prop48
 90
       50
102
RTVSPost2010PropOp48
 70
     1
102
RTVSPost2010Prop49
280
     0
102
RTVSPost2010PropOp49
 70
     1
102
RTVSPost2010Prop50
 90
       50
102
RTVSPost2010PropOp50
 70
     1
102
RTVSPost2010Prop51ColorIndex
 90
      256
102
RTVSPost2010Prop51ColorRGB
 90
-16777216
102
RTVSPost2010PropOp51
 70
     0
102
RTVSPost2010Prop52
140
1.0
102
RTVSPost2010PropOp52
 70
     0
102
RTVSPost2010Prop53
 90
        2
102
RTVSPost2010PropOp53
 70
     1
102
RTVSPost2010Prop54
  1
strokes_ogs.tif
102
RTVSPost2010PropOp54
 70
     1
102
RTVSPost2010Prop55
280
     0
102
RTVSPost2010PropOp55
 70
     1
102
RTVSPost2010Prop56
140
1.0
102
RTVSPost2010PropOp56
 70
     1
102
RTVSPost2010Prop57
140
1.0
102
RTVSPost2010PropOp57
 70
     1
  0
XRECORD
  5
686
102
{ACAD_REACTORS
330
685
102
}
330
685
100
AcDbXrecord
280
     1
102
RTVSPropertyOp0
 70
     0
102
RTVSPropertyOp1
 70
     0
102
RTVSPropertyOp2
 70
     0
102
RTVSPropertyOp3
 70
     0
102
RTVSPropertyOp4
 70
     0
102
RTVSPropertyOp5
 70
     0
102
RTVSPropertyOp6
 70
     0
102
RTVSPropertyOp7
 70
     0
102
RTVSPropertyOp8
 70
     0
102
RTVSPropertyOp9
 70
     0
102
RTVSPropertyOp10
 70
     0
102
RTVSPropertyOp11
 70
     0
102
RTVSPropertyOp12
 70
     0
102
RTVSPropertyOp13
 70
     0
102
RTVSPropertyOp14
 70
     0
102
RTVSPropertyOp15
 70
     0
102
RTVSPropertyOp16
 70
     0
102
RTVSPropertyOp17
 70
     0
102
RTVSPropertyOp18
 70
     0
102
RTVSPropertyOp19
 70
     0
102
RTVSPropertyOp20
 70
     0
102
RTVSPropertyOp21
 70
     0
102
RTVSPropertyOp22
 70
     0
102
RTVSPropertyOp23
 70
     0
102
RTVSPropertyOp24
 70
     0
102
RTVSPropertyOp25
 70
     0
102
RTVSPropertyOp26
 70
     0
102
RTVSPropertyOp27
 70
     0
102
RTVSPropertyOp28
 70
     1
102
RTVSPropertyOp29
 70
     1
102
RTVSPropertyOp30
 70
     1
102
RTVSPropertyOp31
 70
     1
102
RTVSPropertyOp32
 70
     1
102
RTVSPropertyOp33
 70
     1
102
RTVSPropertyOp34
 70
     1
102
RTVSPropertyOp35
 70
     1
102
RTVSPropertyOp36
 70
     1
102
RTVSPropertyOp37
 70
     1
102
RTVSPropertyOp38
 70
     1
102
RTVSPropertyOp39
 70
     1
102
RTVSPropertyOp40
 70
     1
102
RTVSPropertyOp41
 70
     1
102
RTVSPropertyOp42
 70
     1
102
RTVSPropertyOp43
 70
     1
102
RTVSPropertyOp44
 70
     1
102
RTVSPropertyOp45
 70
     1
102
RTVSPropertyOp46
 70
     1
102
RTVSPropertyOp47
 70
     1
102
RTVSPropertyOp48
 70
     1
102
RTVSPropertyOp49
 70
     1
102
RTVSPropertyOp50
 70
     1
102
RTVSPropertyOp51
 70
     0
102
RTVSPropertyOp52
 70
     0
102
RTVSPropertyOp53
 70
     1
102
RTVSPropertyOp54
 70
     1
102
RTVSPropertyOp55
 70
     1
102
RTVSPropertyOp56
 70
     1
102
RTVSPropertyOp57
 70
     1
102
RTVSPost2010Prop28
280
     0
102
RTVSPost2010PropOp28
 70
     1
102
RTVSPost2010Prop29
280
     1
102
RTVSPost2010PropOp29
 70
     1
102
RTVSPost2010Prop30
280
     1
102
RTVSPost2010PropOp30
 70
     1
102
RTVSPost2010Prop31
280
     0
102
RTVSPost2010PropOp31
 70
     1
102
RTVSPost2010Prop32
280
     0
102
RTVSPost2010PropOp32
 70
     1
102
RTVSPost2010Prop33
280
     0
102
RTVSPost2010PropOp33
 70
     1
102
RTVSPost2010Prop34
280
     0
102
RTVSPost2010PropOp34
 70
     1
102
RTVSPost2010Prop35
280
     0
102
RTVSPost2010PropOp35
 70
     1
102
RTVSPost2010Prop36
280
     0
102
RTVSPost2010PropOp36
 70
     1
102
RTVSPost2010Prop37
 90
       50
102
RTVSPost2010PropOp37
 70
     1
102
RTVSPost2010Prop38
140
0.0
102
RTVSPost2010PropOp38
 70
     1
102
RTVSPost2010Prop39
140
1.0
102
RTVSPost2010PropOp39
 70
     1
102
RTVSPost2010Prop40
 90
        0
102
RTVSPost2010PropOp40
 70
     1
102
RTVSPost2010Prop41ColorIndex
 90
       18
102
RTVSPost2010Prop41ColorRGB
 90
        0
102
RTVSPost2010PropOp41
 70
     1
102
RTVSPost2010Prop42
 90
       50
102
RTVSPost2010PropOp42
 70
     1
102
RTVSPost2010Prop43
 90
        3
102
RTVSPost2010PropOp43
 70
     1
102
RTVSPost2010Prop44ColorIndex
 90
        5
102
RTVSPost2010Prop44ColorRGB
 90
      255
102
RTVSPost2010PropOp44
 70
     1
102
RTVSPost2010Prop45
280
     0
102
RTVSPost2010PropOp45
 70
     1
102
RTVSPost2010Prop46
 90
       50
102
RTVSPost2010PropOp46
 70
     1
102
RTVSPost2010Prop47
 90
       50
102
RTVSPost2010PropOp47
 70
     1
102
RTVSPost2010Prop48
 90
       50
102
RTVSPost2010PropOp48
 70
     1
102
RTVSPost2010Prop49
280
     0
102
RTVSPost2010PropOp49
 70
     1
102
RTVSPost2010Prop50
 90
       50
102
RTVSPost2010PropOp50
 70
     1
102
RTVSPost2010Prop51ColorIndex
 90
      256
102
RTVSPost2010Prop51ColorRGB
 90
-16777216
102
RTVSPost2010PropOp51
 70
     0
102
RTVSPost2010Prop52
140
1.0
102
RTVSPost2010PropOp52
 70
     0
102
RTVSPost2010Prop53
 90
        2
102
RTVSPost2010PropOp53
 70
     1
102
RTVSPost2010Prop54
  1
strokes_ogs.tif
102
RTVSPost2010PropOp54
 70
     1
102
RTVSPost2010Prop55
280
     0
102
RTVSPost2010PropOp55
 70
     1
102
RTVSPost2010Prop56
140
1.0
102
RTVSPost2010PropOp56
 70
     1
102
RTVSPost2010Prop57
140
1.0
102
RTVSPost2010PropOp57
 70
     1
  0
XRECORD
  5
680
102
{ACAD_REACTORS
330
67F
102
}
330
67F
100
AcDbXrecord
280
     1
102
RTVSPropertyOp0
 70
     1
102
RTVSPropertyOp1
 70
     1
102
RTVSPropertyOp2
 70
     1
102
RTVSPropertyOp3
 70
     1
102
RTVSPropertyOp4
 70
     1
102
RTVSPropertyOp5
 70
     1
102
RTVSPropertyOp6
 70
     1
102
RTVSPropertyOp7
 70
     1
102
RTVSPropertyOp8
 70
     1
102
RTVSPropertyOp9
 70
     1
102
RTVSPropertyOp10
 70
     1
102
RTVSPropertyOp11
 70
     1
102
RTVSPropertyOp12
 70
     1
102
RTVSPropertyOp13
 70
     1
102
RTVSPropertyOp14
 70
     1
102
RTVSPropertyOp15
 70
     1
102
RTVSPropertyOp16
 70
     1
102
RTVSPropertyOp17
 70
     1
102
RTVSPropertyOp18
 70
     1
102
RTVSPropertyOp19
 70
     1
102
RTVSPropertyOp20
 70
     1
102
RTVSPropertyOp21
 70
     1
102
RTVSPropertyOp22
 70
     1
102
RTVSPropertyOp23
 70
     1
102
RTVSPropertyOp24
 70
     1
102
RTVSPropertyOp25
 70
     1
102
RTVSPropertyOp26
 70
     1
102
RTVSPropertyOp27
 70
     1
102
RTVSPropertyOp28
 70
     1
102
RTVSPropertyOp29
 70
     1
102
RTVSPropertyOp30
 70
     1
102
RTVSPropertyOp31
 70
     1
102
RTVSPropertyOp32
 70
     1
102
RTVSPropertyOp33
 70
     1
102
RTVSPropertyOp34
 70
     1
102
RTVSPropertyOp35
 70
     1
102
RTVSPropertyOp36
 70
     1
102
RTVSPropertyOp37
 70
     1
102
RTVSPropertyOp38
 70
     1
102
RTVSPropertyOp39
 70
     1
102
RTVSPropertyOp40
 70
     1
102
RTVSPropertyOp41
 70
     1
102
RTVSPropertyOp42
 70
     1
102
RTVSPropertyOp43
 70
     1
102
RTVSPropertyOp44
 70
     1
102
RTVSPropertyOp45
 70
     1
102
RTVSPropertyOp46
 70
     1
102
RTVSPropertyOp47
 70
     1
102
RTVSPropertyOp48
 70
     1
102
RTVSPropertyOp49
 70
     1
102
RTVSPropertyOp50
 70
     1
102
RTVSPropertyOp51
 70
     0
102
RTVSPropertyOp52
 70
     0
102
RTVSPropertyOp53
 70
     1
102
RTVSPropertyOp54
 70
     1
102
RTVSPropertyOp55
 70
     1
102
RTVSPropertyOp56
 70
     1
102
RTVSPropertyOp57
 70
     1
102
RTVSPost2010Prop28
280
     0
102
RTVSPost2010PropOp28
 70
     1
102
RTVSPost2010Prop29
280
     1
102
RTVSPost2010PropOp29
 70
     1
102
RTVSPost2010Prop30
280
     1
102
RTVSPost2010PropOp30
 70
     1
102
RTVSPost2010Prop31
280
     0
102
RTVSPost2010PropOp31
 70
     1
102
RTVSPost2010Prop32
280
     0
102
RTVSPost2010PropOp32
 70
     1
102
RTVSPost2010Prop33
280
     0
102
RTVSPost2010PropOp33
 70
     1
102
RTVSPost2010Prop34
280
     0
102
RTVSPost2010PropOp34
 70
     1
102
RTVSPost2010Prop35
280
     0
102
RTVSPost2010PropOp35
 70
     1
102
RTVSPost2010Prop36
280
     0
102
RTVSPost2010PropOp36
 70
     1
102
RTVSPost2010Prop37
 90
       50
102
RTVSPost2010PropOp37
 70
     1
102
RTVSPost2010Prop38
140
0.0
102
RTVSPost2010PropOp38
 70
     1
102
RTVSPost2010Prop39
140
1.0
102
RTVSPost2010PropOp39
 70
     1
102
RTVSPost2010Prop40
 90
        0
102
RTVSPost2010PropOp40
 70
     1
102
RTVSPost2010Prop41ColorIndex
 90
       18
102
RTVSPost2010Prop41ColorRGB
 90
        0
102
RTVSPost2010PropOp41
 70
     1
102
RTVSPost2010Prop42
 90
       50
102
RTVSPost2010PropOp42
 70
     1
102
RTVSPost2010Prop43
 90
        3
102
RTVSPost2010PropOp43
 70
     1
102
RTVSPost2010Prop44ColorIndex
 90
        5
102
RTVSPost2010Prop44ColorRGB
 90
      255
102
RTVSPost2010PropOp44
 70
     1
102
RTVSPost2010Prop45
280
     0
102
RTVSPost2010PropOp45
 70
     1
102
RTVSPost2010Prop46
 90
       50
102
RTVSPost2010PropOp46
 70
     1
102
RTVSPost2010Prop47
 90
       50
102
RTVSPost2010PropOp47
 70
     1
102
RTVSPost2010Prop48
 90
       50
102
RTVSPost2010PropOp48
 70
     1
102
RTVSPost2010Prop49
280
     0
102
RTVSPost2010PropOp49
 70
     1
102
RTVSPost2010Prop50
 90
       50
102
RTVSPost2010PropOp50
 70
     1
102
RTVSPost2010Prop51ColorIndex
 90
      256
102
RTVSPost2010Prop51ColorRGB
 90
-16777216
102
RTVSPost2010PropOp51
 70
     0
102
RTVSPost2010Prop52
140
1.0
102
RTVSPost2010PropOp52
 70
     0
102
RTVSPost2010Prop53
 90
        2
102
RTVSPost2010PropOp53
 70
     1
102
RTVSPost2010Prop54
  1
strokes_ogs.tif
102
RTVSPost2010PropOp54
 70
     1
102
RTVSPost2010Prop55
280
     0
102
RTVSPost2010PropOp55
 70
     1
102
RTVSPost2010Prop56
140
1.0
102
RTVSPost2010PropOp56
 70
     1
102
RTVSPost2010Prop57
140
1.0
102
RTVSPost2010PropOp57
 70
     1
  0
XRECORD
  5
688
102
{ACAD_REACTORS
330
687
102
}
330
687
100
AcDbXrecord
280
     1
102
RTVSPropertyOp0
 70
     0
102
RTVSPropertyOp1
 70
     0
102
RTVSPropertyOp2
 70
     0
102
RTVSPropertyOp3
 70
     0
102
RTVSPropertyOp4
 70
     0
102
RTVSPropertyOp5
 70
     0
102
RTVSPropertyOp6
 70
     0
102
RTVSPropertyOp7
 70
     0
102
RTVSPropertyOp8
 70
     0
102
RTVSPropertyOp9
 70
     0
102
RTVSPropertyOp10
 70
     0
102
RTVSPropertyOp11
 70
     0
102
RTVSPropertyOp12
 70
     0
102
RTVSPropertyOp13
 70
     0
102
RTVSPropertyOp14
 70
     0
102
RTVSPropertyOp15
 70
     0
102
RTVSPropertyOp16
 70
     0
102
RTVSPropertyOp17
 70
     0
102
RTVSPropertyOp18
 70
     0
102
RTVSPropertyOp19
 70
     0
102
RTVSPropertyOp20
 70
     0
102
RTVSPropertyOp21
 70
     0
102
RTVSPropertyOp22
 70
     0
102
RTVSPropertyOp23
 70
     0
102
RTVSPropertyOp24
 70
     0
102
RTVSPropertyOp25
 70
     0
102
RTVSPropertyOp26
 70
     0
102
RTVSPropertyOp27
 70
     0
102
RTVSPropertyOp28
 70
     1
102
RTVSPropertyOp29
 70
     1
102
RTVSPropertyOp30
 70
     1
102
RTVSPropertyOp31
 70
     1
102
RTVSPropertyOp32
 70
     1
102
RTVSPropertyOp33
 70
     1
102
RTVSPropertyOp34
 70
     1
102
RTVSPropertyOp35
 70
     1
102
RTVSPropertyOp36
 70
     1
102
RTVSPropertyOp37
 70
     1
102
RTVSPropertyOp38
 70
     1
102
RTVSPropertyOp39
 70
     1
102
RTVSPropertyOp40
 70
     1
102
RTVSPropertyOp41
 70
     1
102
RTVSPropertyOp42
 70
     1
102
RTVSPropertyOp43
 70
     1
102
RTVSPropertyOp44
 70
     1
102
RTVSPropertyOp45
 70
     1
102
RTVSPropertyOp46
 70
     1
102
RTVSPropertyOp47
 70
     1
102
RTVSPropertyOp48
 70
     1
102
RTVSPropertyOp49
 70
     1
102
RTVSPropertyOp50
 70
     1
102
RTVSPropertyOp51
 70
     0
102
RTVSPropertyOp52
 70
     0
102
RTVSPropertyOp53
 70
     1
102
RTVSPropertyOp54
 70
     1
102
RTVSPropertyOp55
 70
     1
102
RTVSPropertyOp56
 70
     1
102
RTVSPropertyOp57
 70
     1
102
RTVSPost2010Prop28
280
     0
102
RTVSPost2010PropOp28
 70
     1
102
RTVSPost2010Prop29
280
     1
102
RTVSPost2010PropOp29
 70
     1
102
RTVSPost2010Prop30
280
     1
102
RTVSPost2010PropOp30
 70
     1
102
RTVSPost2010Prop31
280
     0
102
RTVSPost2010PropOp31
 70
     1
102
RTVSPost2010Prop32
280
     0
102
RTVSPost2010PropOp32
 70
     1
102
RTVSPost2010Prop33
280
     0
102
RTVSPost2010PropOp33
 70
     1
102
RTVSPost2010Prop34
280
     0
102
RTVSPost2010PropOp34
 70
     1
102
RTVSPost2010Prop35
280
     0
102
RTVSPost2010PropOp35
 70
     1
102
RTVSPost2010Prop36
280
     0
102
RTVSPost2010PropOp36
 70
     1
102
RTVSPost2010Prop37
 90
       50
102
RTVSPost2010PropOp37
 70
     1
102
RTVSPost2010Prop38
140
0.0
102
RTVSPost2010PropOp38
 70
     1
102
RTVSPost2010Prop39
140
1.0
102
RTVSPost2010PropOp39
 70
     1
102
RTVSPost2010Prop40
 90
        0
102
RTVSPost2010PropOp40
 70
     1
102
RTVSPost2010Prop41ColorIndex
 90
       18
102
RTVSPost2010Prop41ColorRGB
 90
        0
102
RTVSPost2010PropOp41
 70
     1
102
RTVSPost2010Prop42
 90
       50
102
RTVSPost2010PropOp42
 70
     1
102
RTVSPost2010Prop43
 90
        3
102
RTVSPost2010PropOp43
 70
     1
102
RTVSPost2010Prop44ColorIndex
 90
        5
102
RTVSPost2010Prop44ColorRGB
 90
      255
102
RTVSPost2010PropOp44
 70
     1
102
RTVSPost2010Prop45
280
     0
102
RTVSPost2010PropOp45
 70
     1
102
RTVSPost2010Prop46
 90
       50
102
RTVSPost2010PropOp46
 70
     1
102
RTVSPost2010Prop47
 90
       50
102
RTVSPost2010PropOp47
 70
     1
102
RTVSPost2010Prop48
 90
       50
102
RTVSPost2010PropOp48
 70
     1
102
RTVSPost2010Prop49
280
     0
102
RTVSPost2010PropOp49
 70
     1
102
RTVSPost2010Prop50
 90
       50
102
RTVSPost2010PropOp50
 70
     1
102
RTVSPost2010Prop51ColorIndex
 90
      256
102
RTVSPost2010Prop51ColorRGB
 90
-16777216
102
RTVSPost2010PropOp51
 70
     0
102
RTVSPost2010Prop52
140
1.0
102
RTVSPost2010PropOp52
 70
     0
102
RTVSPost2010Prop53
 90
        2
102
RTVSPost2010PropOp53
 70
     1
102
RTVSPost2010Prop54
  1
strokes_ogs.tif
102
RTVSPost2010PropOp54
 70
     1
102
RTVSPost2010Prop55
280
     0
102
RTVSPost2010PropOp55
 70
     1
102
RTVSPost2010Prop56
140
1.0
102
RTVSPost2010PropOp56
 70
     1
102
RTVSPost2010Prop57
140
1.0
102
RTVSPost2010PropOp57
 70
     1
  0
XRECORD
  5
676
102
{ACAD_REACTORS
330
675
102
}
330
675
100
AcDbXrecord
280
     1
102
RTVSPropertyOp0
 70
     1
102
RTVSPropertyOp1
 70
     1
102
RTVSPropertyOp2
 70
     1
102
RTVSPropertyOp3
 70
     1
102
RTVSPropertyOp4
 70
     1
102
RTVSPropertyOp5
 70
     1
102
RTVSPropertyOp6
 70
     1
102
RTVSPropertyOp7
 70
     1
102
RTVSPropertyOp8
 70
     1
102
RTVSPropertyOp9
 70
     1
102
RTVSPropertyOp10
 70
     1
102
RTVSPropertyOp11
 70
     1
102
RTVSPropertyOp12
 70
     1
102
RTVSPropertyOp13
 70
     1
102
RTVSPropertyOp14
 70
     1
102
RTVSPropertyOp15
 70
     1
102
RTVSPropertyOp16
 70
     1
102
RTVSPropertyOp17
 70
     1
102
RTVSPropertyOp18
 70
     1
102
RTVSPropertyOp19
 70
     1
102
RTVSPropertyOp20
 70
     1
102
RTVSPropertyOp21
 70
     1
102
RTVSPropertyOp22
 70
     1
102
RTVSPropertyOp23
 70
     1
102
RTVSPropertyOp24
 70
     1
102
RTVSPropertyOp25
 70
     1
102
RTVSPropertyOp26
 70
     1
102
RTVSPropertyOp27
 70
     1
102
RTVSPropertyOp28
 70
     1
102
RTVSPropertyOp29
 70
     1
102
RTVSPropertyOp30
 70
     1
102
RTVSPropertyOp31
 70
     1
102
RTVSPropertyOp32
 70
     1
102
RTVSPropertyOp33
 70
     1
102
RTVSPropertyOp34
 70
     1
102
RTVSPropertyOp35
 70
     1
102
RTVSPropertyOp36
 70
     1
102
RTVSPropertyOp37
 70
     1
102
RTVSPropertyOp38
 70
     1
102
RTVSPropertyOp39
 70
     1
102
RTVSPropertyOp40
 70
     1
102
RTVSPropertyOp41
 70
     1
102
RTVSPropertyOp42
 70
     1
102
RTVSPropertyOp43
 70
     1
102
RTVSPropertyOp44
 70
     1
102
RTVSPropertyOp45
 70
     1
102
RTVSPropertyOp46
 70
     1
102
RTVSPropertyOp47
 70
     1
102
RTVSPropertyOp48
 70
     1
102
RTVSPropertyOp49
 70
     1
102
RTVSPropertyOp50
 70
     1
102
RTVSPropertyOp51
 70
     0
102
RTVSPropertyOp52
 70
     0
102
RTVSPropertyOp53
 70
     1
102
RTVSPropertyOp54
 70
     1
102
RTVSPropertyOp55
 70
     1
102
RTVSPropertyOp56
 70
     1
102
RTVSPropertyOp57
 70
     1
102
RTVSPost2010Prop28
280
     0
102
RTVSPost2010PropOp28
 70
     1
102
RTVSPost2010Prop29
280
     1
102
RTVSPost2010PropOp29
 70
     1
102
RTVSPost2010Prop30
280
     1
102
RTVSPost2010PropOp30
 70
     1
102
RTVSPost2010Prop31
280
     0
102
RTVSPost2010PropOp31
 70
     1
102
RTVSPost2010Prop32
280
     0
102
RTVSPost2010PropOp32
 70
     1
102
RTVSPost2010Prop33
280
     0
102
RTVSPost2010PropOp33
 70
     1
102
RTVSPost2010Prop34
280
     0
102
RTVSPost2010PropOp34
 70
     1
102
RTVSPost2010Prop35
280
     0
102
RTVSPost2010PropOp35
 70
     1
102
RTVSPost2010Prop36
280
     0
102
RTVSPost2010PropOp36
 70
     1
102
RTVSPost2010Prop37
 90
       50
102
RTVSPost2010PropOp37
 70
     1
102
RTVSPost2010Prop38
140
0.0
102
RTVSPost2010PropOp38
 70
     1
102
RTVSPost2010Prop39
140
1.0
102
RTVSPost2010PropOp39
 70
     1
102
RTVSPost2010Prop40
 90
        0
102
RTVSPost2010PropOp40
 70
     1
102
RTVSPost2010Prop41ColorIndex
 90
       18
102
RTVSPost2010Prop41ColorRGB
 90
        0
102
RTVSPost2010PropOp41
 70
     1
102
RTVSPost2010Prop42
 90
       50
102
RTVSPost2010PropOp42
 70
     1
102
RTVSPost2010Prop43
 90
        3
102
RTVSPost2010PropOp43
 70
     1
102
RTVSPost2010Prop44ColorIndex
 90
        5
102
RTVSPost2010Prop44ColorRGB
 90
      255
102
RTVSPost2010PropOp44
 70
     1
102
RTVSPost2010Prop45
280
     0
102
RTVSPost2010PropOp45
 70
     1
102
RTVSPost2010Prop46
 90
       50
102
RTVSPost2010PropOp46
 70
     1
102
RTVSPost2010Prop47
 90
       50
102
RTVSPost2010PropOp47
 70
     1
102
RTVSPost2010Prop48
 90
       50
102
RTVSPost2010PropOp48
 70
     1
102
RTVSPost2010Prop49
280
     0
102
RTVSPost2010PropOp49
 70
     1
102
RTVSPost2010Prop50
 90
       50
102
RTVSPost2010PropOp50
 70
     1
102
RTVSPost2010Prop51ColorIndex
 90
      256
102
RTVSPost2010Prop51ColorRGB
 90
-16777216
102
RTVSPost2010PropOp51
 70
     0
102
RTVSPost2010Prop52
140
1.0
102
RTVSPost2010PropOp52
 70
     0
102
RTVSPost2010Prop53
 90
        2
102
RTVSPost2010PropOp53
 70
     1
102
RTVSPost2010Prop54
  1
strokes_ogs.tif
102
RTVSPost2010PropOp54
 70
     1
102
RTVSPost2010Prop55
280
     0
102
RTVSPost2010PropOp55
 70
     1
102
RTVSPost2010Prop56
140
1.0
102
RTVSPost2010PropOp56
 70
     1
102
RTVSPost2010Prop57
140
1.0
102
RTVSPost2010PropOp57
 70
     1
  0
XRECORD
  5
694
102
{ACAD_REACTORS
330
693
102
}
330
693
100
AcDbXrecord
280
     1
102
RTVSPropertyOp0
 70
     1
102
RTVSPropertyOp1
 70
     1
102
RTVSPropertyOp2
 70
     1
102
RTVSPropertyOp3
 70
     1
102
RTVSPropertyOp4
 70
     1
102
RTVSPropertyOp5
 70
     1
102
RTVSPropertyOp6
 70
     1
102
RTVSPropertyOp7
 70
     1
102
RTVSPropertyOp8
 70
     1
102
RTVSPropertyOp9
 70
     1
102
RTVSPropertyOp10
 70
     1
102
RTVSPropertyOp11
 70
     1
102
RTVSPropertyOp12
 70
     1
102
RTVSPropertyOp13
 70
     1
102
RTVSPropertyOp14
 70
     1
102
RTVSPropertyOp15
 70
     1
102
RTVSPropertyOp16
 70
     1
102
RTVSPropertyOp17
 70
     1
102
RTVSPropertyOp18
 70
     1
102
RTVSPropertyOp19
 70
     1
102
RTVSPropertyOp20
 70
     1
102
RTVSPropertyOp21
 70
     1
102
RTVSPropertyOp22
 70
     1
102
RTVSPropertyOp23
 70
     1
102
RTVSPropertyOp24
 70
     1
102
RTVSPropertyOp25
 70
     1
102
RTVSPropertyOp26
 70
     1
102
RTVSPropertyOp27
 70
     1
102
RTVSPropertyOp28
 70
     1
102
RTVSPropertyOp29
 70
     1
102
RTVSPropertyOp30
 70
     1
102
RTVSPropertyOp31
 70
     1
102
RTVSPropertyOp32
 70
     1
102
RTVSPropertyOp33
 70
     1
102
RTVSPropertyOp34
 70
     1
102
RTVSPropertyOp35
 70
     1
102
RTVSPropertyOp36
 70
     1
102
RTVSPropertyOp37
 70
     1
102
RTVSPropertyOp38
 70
     1
102
RTVSPropertyOp39
 70
     1
102
RTVSPropertyOp40
 70
     1
102
RTVSPropertyOp41
 70
     1
102
RTVSPropertyOp42
 70
     1
102
RTVSPropertyOp43
 70
     1
102
RTVSPropertyOp44
 70
     1
102
RTVSPropertyOp45
 70
     1
102
RTVSPropertyOp46
 70
     1
102
RTVSPropertyOp47
 70
     1
102
RTVSPropertyOp48
 70
     1
102
RTVSPropertyOp49
 70
     1
102
RTVSPropertyOp50
 70
     1
102
RTVSPropertyOp51
 70
     0
102
RTVSPropertyOp52
 70
     0
102
RTVSPropertyOp53
 70
     1
102
RTVSPropertyOp54
 70
     1
102
RTVSPropertyOp55
 70
     1
102
RTVSPropertyOp56
 70
     1
102
RTVSPropertyOp57
 70
     1
102
RTVSPost2010Prop28
280
     0
102
RTVSPost2010PropOp28
 70
     1
102
RTVSPost2010Prop29
280
     1
102
RTVSPost2010PropOp29
 70
     1
102
RTVSPost2010Prop30
280
     1
102
RTVSPost2010PropOp30
 70
     1
102
RTVSPost2010Prop31
280
     0
102
RTVSPost2010PropOp31
 70
     1
102
RTVSPost2010Prop32
280
     0
102
RTVSPost2010PropOp32
 70
     1
102
RTVSPost2010Prop33
280
     0
102
RTVSPost2010PropOp33
 70
     1
102
RTVSPost2010Prop34
280
     0
102
RTVSPost2010PropOp34
 70
     1
102
RTVSPost2010Prop35
280
     0
102
RTVSPost2010PropOp35
 70
     1
102
RTVSPost2010Prop36
280
     0
102
RTVSPost2010PropOp36
 70
     1
102
RTVSPost2010Prop37
 90
       50
102
RTVSPost2010PropOp37
 70
     1
102
RTVSPost2010Prop38
140
0.0
102
RTVSPost2010PropOp38
 70
     1
102
RTVSPost2010Prop39
140
1.0
102
RTVSPost2010PropOp39
 70
     1
102
RTVSPost2010Prop40
 90
        0
102
RTVSPost2010PropOp40
 70
     1
102
RTVSPost2010Prop41ColorIndex
 90
       18
102
RTVSPost2010Prop41ColorRGB
 90
        0
102
RTVSPost2010PropOp41
 70
     1
102
RTVSPost2010Prop42
 90
       50
102
RTVSPost2010PropOp42
 70
     1
102
RTVSPost2010Prop43
 90
        3
102
RTVSPost2010PropOp43
 70
     1
102
RTVSPost2010Prop44ColorIndex
 90
        5
102
RTVSPost2010Prop44ColorRGB
 90
      255
102
RTVSPost2010PropOp44
 70
     1
102
RTVSPost2010Prop45
280
     0
102
RTVSPost2010PropOp45
 70
     1
102
RTVSPost2010Prop46
 90
       50
102
RTVSPost2010PropOp46
 70
     1
102
RTVSPost2010Prop47
 90
       50
102
RTVSPost2010PropOp47
 70
     1
102
RTVSPost2010Prop48
 90
       50
102
RTVSPost2010PropOp48
 70
     1
102
RTVSPost2010Prop49
280
     0
102
RTVSPost2010PropOp49
 70
     1
102
RTVSPost2010Prop50
 90
       50
102
RTVSPost2010PropOp50
 70
     1
102
RTVSPost2010Prop51ColorIndex
 90
      256
102
RTVSPost2010Prop51ColorRGB
 90
-16777216
102
RTVSPost2010PropOp51
 70
     0
102
RTVSPost2010Prop52
140
1.0
102
RTVSPost2010PropOp52
 70
     0
102
RTVSPost2010Prop53
 90
        2
102
RTVSPost2010PropOp53
 70
     1
102
RTVSPost2010Prop54
  1
strokes_ogs.tif
102
RTVSPost2010PropOp54
 70
     1
102
RTVSPost2010Prop55
280
     0
102
RTVSPost2010PropOp55
 70
     1
102
RTVSPost2010Prop56
140
1.0
102
RTVSPost2010PropOp56
 70
     1
102
RTVSPost2010Prop57
140
1.0
102
RTVSPost2010PropOp57
 70
     1
  0
XRECORD
  5
692
102
{ACAD_REACTORS
330
691
102
}
330
691
100
AcDbXrecord
280
     1
102
RTVSPropertyOp0
 70
     1
102
RTVSPropertyOp1
 70
     1
102
RTVSPropertyOp2
 70
     1
102
RTVSPropertyOp3
 70
     1
102
RTVSPropertyOp4
 70
     1
102
RTVSPropertyOp5
 70
     1
102
RTVSPropertyOp6
 70
     1
102
RTVSPropertyOp7
 70
     1
102
RTVSPropertyOp8
 70
     1
102
RTVSPropertyOp9
 70
     1
102
RTVSPropertyOp10
 70
     1
102
RTVSPropertyOp11
 70
     1
102
RTVSPropertyOp12
 70
     1
102
RTVSPropertyOp13
 70
     1
102
RTVSPropertyOp14
 70
     1
102
RTVSPropertyOp15
 70
     1
102
RTVSPropertyOp16
 70
     1
102
RTVSPropertyOp17
 70
     1
102
RTVSPropertyOp18
 70
     1
102
RTVSPropertyOp19
 70
     1
102
RTVSPropertyOp20
 70
     1
102
RTVSPropertyOp21
 70
     1
102
RTVSPropertyOp22
 70
     1
102
RTVSPropertyOp23
 70
     1
102
RTVSPropertyOp24
 70
     1
102
RTVSPropertyOp25
 70
     1
102
RTVSPropertyOp26
 70
     1
102
RTVSPropertyOp27
 70
     1
102
RTVSPropertyOp28
 70
     1
102
RTVSPropertyOp29
 70
     1
102
RTVSPropertyOp30
 70
     1
102
RTVSPropertyOp31
 70
     1
102
RTVSPropertyOp32
 70
     1
102
RTVSPropertyOp33
 70
     1
102
RTVSPropertyOp34
 70
     1
102
RTVSPropertyOp35
 70
     1
102
RTVSPropertyOp36
 70
     1
102
RTVSPropertyOp37
 70
     1
102
RTVSPropertyOp38
 70
     1
102
RTVSPropertyOp39
 70
     1
102
RTVSPropertyOp40
 70
     1
102
RTVSPropertyOp41
 70
     1
102
RTVSPropertyOp42
 70
     1
102
RTVSPropertyOp43
 70
     1
102
RTVSPropertyOp44
 70
     1
102
RTVSPropertyOp45
 70
     1
102
RTVSPropertyOp46
 70
     1
102
RTVSPropertyOp47
 70
     1
102
RTVSPropertyOp48
 70
     1
102
RTVSPropertyOp49
 70
     1
102
RTVSPropertyOp50
 70
     1
102
RTVSPropertyOp51
 70
     0
102
RTVSPropertyOp52
 70
     0
102
RTVSPropertyOp53
 70
     1
102
RTVSPropertyOp54
 70
     1
102
RTVSPropertyOp55
 70
     1
102
RTVSPropertyOp56
 70
     1
102
RTVSPropertyOp57
 70
     1
102
RTVSPost2010Prop28
280
     0
102
RTVSPost2010PropOp28
 70
     1
102
RTVSPost2010Prop29
280
     1
102
RTVSPost2010PropOp29
 70
     1
102
RTVSPost2010Prop30
280
     1
102
RTVSPost2010PropOp30
 70
     1
102
RTVSPost2010Prop31
280
     0
102
RTVSPost2010PropOp31
 70
     1
102
RTVSPost2010Prop32
280
     0
102
RTVSPost2010PropOp32
 70
     1
102
RTVSPost2010Prop33
280
     0
102
RTVSPost2010PropOp33
 70
     1
102
RTVSPost2010Prop34
280
     0
102
RTVSPost2010PropOp34
 70
     1
102
RTVSPost2010Prop35
280
     0
102
RTVSPost2010PropOp35
 70
     1
102
RTVSPost2010Prop36
280
     0
102
RTVSPost2010PropOp36
 70
     1
102
RTVSPost2010Prop37
 90
       50
102
RTVSPost2010PropOp37
 70
     1
102
RTVSPost2010Prop38
140
0.0
102
RTVSPost2010PropOp38
 70
     1
102
RTVSPost2010Prop39
140
1.0
102
RTVSPost2010PropOp39
 70
     1
102
RTVSPost2010Prop40
 90
        0
102
RTVSPost2010PropOp40
 70
     1
102
RTVSPost2010Prop41ColorIndex
 90
       18
102
RTVSPost2010Prop41ColorRGB
 90
        0
102
RTVSPost2010PropOp41
 70
     1
102
RTVSPost2010Prop42
 90
       50
102
RTVSPost2010PropOp42
 70
     1
102
RTVSPost2010Prop43
 90
        3
102
RTVSPost2010PropOp43
 70
     1
102
RTVSPost2010Prop44ColorIndex
 90
        5
102
RTVSPost2010Prop44ColorRGB
 90
      255
102
RTVSPost2010PropOp44
 70
     1
102
RTVSPost2010Prop45
280
     0
102
RTVSPost2010PropOp45
 70
     1
102
RTVSPost2010Prop46
 90
       50
102
RTVSPost2010PropOp46
 70
     1
102
RTVSPost2010Prop47
 90
       50
102
RTVSPost2010PropOp47
 70
     1
102
RTVSPost2010Prop48
 90
       50
102
RTVSPost2010PropOp48
 70
     1
102
RTVSPost2010Prop49
280
     0
102
RTVSPost2010PropOp49
 70
     1
102
RTVSPost2010Prop50
 90
       50
102
RTVSPost2010PropOp50
 70
     1
102
RTVSPost2010Prop51ColorIndex
 90
      256
102
RTVSPost2010Prop51ColorRGB
 90
-16777216
102
RTVSPost2010PropOp51
 70
     0
102
RTVSPost2010Prop52
140
1.0
102
RTVSPost2010PropOp52
 70
     0
102
RTVSPost2010Prop53
 90
        2
102
RTVSPost2010PropOp53
 70
     1
102
RTVSPost2010Prop54
  1
strokes_ogs.tif
102
RTVSPost2010PropOp54
 70
     1
102
RTVSPost2010Prop55
280
     0
102
RTVSPost2010PropOp55
 70
     1
102
RTVSPost2010Prop56
140
1.0
102
RTVSPost2010PropOp56
 70
     1
102
RTVSPost2010Prop57
140
1.0
102
RTVSPost2010PropOp57
 70
     1
  0
XRECORD
  5
68C
102
{ACAD_REACTORS
330
68B
102
}
330
68B
100
AcDbXrecord
280
     1
102
RTVSPropertyOp0
 70
     1
102
RTVSPropertyOp1
 70
     1
102
RTVSPropertyOp2
 70
     1
102
RTVSPropertyOp3
 70
     1
102
RTVSPropertyOp4
 70
     1
102
RTVSPropertyOp5
 70
     1
102
RTVSPropertyOp6
 70
     1
102
RTVSPropertyOp7
 70
     1
102
RTVSPropertyOp8
 70
     1
102
RTVSPropertyOp9
 70
     1
102
RTVSPropertyOp10
 70
     1
102
RTVSPropertyOp11
 70
     1
102
RTVSPropertyOp12
 70
     1
102
RTVSPropertyOp13
 70
     1
102
RTVSPropertyOp14
 70
     1
102
RTVSPropertyOp15
 70
     1
102
RTVSPropertyOp16
 70
     1
102
RTVSPropertyOp17
 70
     1
102
RTVSPropertyOp18
 70
     1
102
RTVSPropertyOp19
 70
     1
102
RTVSPropertyOp20
 70
     1
102
RTVSPropertyOp21
 70
     1
102
RTVSPropertyOp22
 70
     1
102
RTVSPropertyOp23
 70
     1
102
RTVSPropertyOp24
 70
     1
102
RTVSPropertyOp25
 70
     1
102
RTVSPropertyOp26
 70
     1
102
RTVSPropertyOp27
 70
     1
102
RTVSPropertyOp28
 70
     1
102
RTVSPropertyOp29
 70
     1
102
RTVSPropertyOp30
 70
     1
102
RTVSPropertyOp31
 70
     1
102
RTVSPropertyOp32
 70
     1
102
RTVSPropertyOp33
 70
     1
102
RTVSPropertyOp34
 70
     1
102
RTVSPropertyOp35
 70
     1
102
RTVSPropertyOp36
 70
     1
102
RTVSPropertyOp37
 70
     1
102
RTVSPropertyOp38
 70
     1
102
RTVSPropertyOp39
 70
     1
102
RTVSPropertyOp40
 70
     1
102
RTVSPropertyOp41
 70
     1
102
RTVSPropertyOp42
 70
     1
102
RTVSPropertyOp43
 70
     1
102
RTVSPropertyOp44
 70
     1
102
RTVSPropertyOp45
 70
     1
102
RTVSPropertyOp46
 70
     1
102
RTVSPropertyOp47
 70
     1
102
RTVSPropertyOp48
 70
     1
102
RTVSPropertyOp49
 70
     1
102
RTVSPropertyOp50
 70
     1
102
RTVSPropertyOp51
 70
     0
102
RTVSPropertyOp52
 70
     0
102
RTVSPropertyOp53
 70
     1
102
RTVSPropertyOp54
 70
     1
102
RTVSPropertyOp55
 70
     1
102
RTVSPropertyOp56
 70
     1
102
RTVSPropertyOp57
 70
     1
102
RTVSPost2010Prop28
280
     0
102
RTVSPost2010PropOp28
 70
     1
102
RTVSPost2010Prop29
280
     1
102
RTVSPost2010PropOp29
 70
     1
102
RTVSPost2010Prop30
280
     1
102
RTVSPost2010PropOp30
 70
     1
102
RTVSPost2010Prop31
280
     0
102
RTVSPost2010PropOp31
 70
     1
102
RTVSPost2010Prop32
280
     0
102
RTVSPost2010PropOp32
 70
     1
102
RTVSPost2010Prop33
280
     0
102
RTVSPost2010PropOp33
 70
     1
102
RTVSPost2010Prop34
280
     0
102
RTVSPost2010PropOp34
 70
     1
102
RTVSPost2010Prop35
280
     0
102
RTVSPost2010PropOp35
 70
     1
102
RTVSPost2010Prop36
280
     0
102
RTVSPost2010PropOp36
 70
     1
102
RTVSPost2010Prop37
 90
       50
102
RTVSPost2010PropOp37
 70
     1
102
RTVSPost2010Prop38
140
0.0
102
RTVSPost2010PropOp38
 70
     1
102
RTVSPost2010Prop39
140
1.0
102
RTVSPost2010PropOp39
 70
     1
102
RTVSPost2010Prop40
 90
        0
102
RTVSPost2010PropOp40
 70
     1
102
RTVSPost2010Prop41ColorIndex
 90
       18
102
RTVSPost2010Prop41ColorRGB
 90
        0
102
RTVSPost2010PropOp41
 70
     1
102
RTVSPost2010Prop42
 90
       50
102
RTVSPost2010PropOp42
 70
     1
102
RTVSPost2010Prop43
 90
        3
102
RTVSPost2010PropOp43
 70
     1
102
RTVSPost2010Prop44ColorIndex
 90
        5
102
RTVSPost2010Prop44ColorRGB
 90
      255
102
RTVSPost2010PropOp44
 70
     1
102
RTVSPost2010Prop45
280
     0
102
RTVSPost2010PropOp45
 70
     1
102
RTVSPost2010Prop46
 90
       50
102
RTVSPost2010PropOp46
 70
     1
102
RTVSPost2010Prop47
 90
       50
102
RTVSPost2010PropOp47
 70
     1
102
RTVSPost2010Prop48
 90
       50
102
RTVSPost2010PropOp48
 70
     1
102
RTVSPost2010Prop49
280
     0
102
RTVSPost2010PropOp49
 70
     1
102
RTVSPost2010Prop50
 90
       50
102
RTVSPost2010PropOp50
 70
     1
102
RTVSPost2010Prop51ColorIndex
 90
      256
102
RTVSPost2010Prop51ColorRGB
 90
-16777216
102
RTVSPost2010PropOp51
 70
     0
102
RTVSPost2010Prop52
140
1.0
102
RTVSPost2010PropOp52
 70
     0
102
RTVSPost2010Prop53
 90
        2
102
RTVSPost2010PropOp53
 70
     1
102
RTVSPost2010Prop54
  1
strokes_ogs.tif
102
RTVSPost2010PropOp54
 70
     1
102
RTVSPost2010Prop55
280
     0
102
RTVSPost2010PropOp55
 70
     1
102
RTVSPost2010Prop56
140
1.0
102
RTVSPost2010PropOp56
 70
     1
102
RTVSPost2010Prop57
140
1.0
102
RTVSPost2010PropOp57
 70
     1
  0
XRECORD
  5
68E
102
{ACAD_REACTORS
330
68D
102
}
330
68D
100
AcDbXrecord
280
     1
102
RTVSPropertyOp0
 70
     1
102
RTVSPropertyOp1
 70
     1
102
RTVSPropertyOp2
 70
     1
102
RTVSPropertyOp3
 70
     1
102
RTVSPropertyOp4
 70
     1
102
RTVSPropertyOp5
 70
     1
102
RTVSPropertyOp6
 70
     1
102
RTVSPropertyOp7
 70
     1
102
RTVSPropertyOp8
 70
     1
102
RTVSPropertyOp9
 70
     1
102
RTVSPropertyOp10
 70
     1
102
RTVSPropertyOp11
 70
     1
102
RTVSPropertyOp12
 70
     1
102
RTVSPropertyOp13
 70
     1
102
RTVSPropertyOp14
 70
     1
102
RTVSPropertyOp15
 70
     1
102
RTVSPropertyOp16
 70
     1
102
RTVSPropertyOp17
 70
     1
102
RTVSPropertyOp18
 70
     1
102
RTVSPropertyOp19
 70
     1
102
RTVSPropertyOp20
 70
     1
102
RTVSPropertyOp21
 70
     1
102
RTVSPropertyOp22
 70
     1
102
RTVSPropertyOp23
 70
     1
102
RTVSPropertyOp24
 70
     1
102
RTVSPropertyOp25
 70
     1
102
RTVSPropertyOp26
 70
     1
102
RTVSPropertyOp27
 70
     1
102
RTVSPropertyOp28
 70
     1
102
RTVSPropertyOp29
 70
     1
102
RTVSPropertyOp30
 70
     1
102
RTVSPropertyOp31
 70
     1
102
RTVSPropertyOp32
 70
     1
102
RTVSPropertyOp33
 70
     1
102
RTVSPropertyOp34
 70
     1
102
RTVSPropertyOp35
 70
     1
102
RTVSPropertyOp36
 70
     1
102
RTVSPropertyOp37
 70
     1
102
RTVSPropertyOp38
 70
     1
102
RTVSPropertyOp39
 70
     1
102
RTVSPropertyOp40
 70
     1
102
RTVSPropertyOp41
 70
     1
102
RTVSPropertyOp42
 70
     1
102
RTVSPropertyOp43
 70
     1
102
RTVSPropertyOp44
 70
     1
102
RTVSPropertyOp45
 70
     1
102
RTVSPropertyOp46
 70
     1
102
RTVSPropertyOp47
 70
     1
102
RTVSPropertyOp48
 70
     1
102
RTVSPropertyOp49
 70
     1
102
RTVSPropertyOp50
 70
     1
102
RTVSPropertyOp51
 70
     0
102
RTVSPropertyOp52
 70
     0
102
RTVSPropertyOp53
 70
     1
102
RTVSPropertyOp54
 70
     1
102
RTVSPropertyOp55
 70
     1
102
RTVSPropertyOp56
 70
     1
102
RTVSPropertyOp57
 70
     1
102
RTVSPost2010Prop28
280
     0
102
RTVSPost2010PropOp28
 70
     1
102
RTVSPost2010Prop29
280
     1
102
RTVSPost2010PropOp29
 70
     1
102
RTVSPost2010Prop30
280
     1
102
RTVSPost2010PropOp30
 70
     1
102
RTVSPost2010Prop31
280
     0
102
RTVSPost2010PropOp31
 70
     1
102
RTVSPost2010Prop32
280
     0
102
RTVSPost2010PropOp32
 70
     1
102
RTVSPost2010Prop33
280
     0
102
RTVSPost2010PropOp33
 70
     1
102
RTVSPost2010Prop34
280
     0
102
RTVSPost2010PropOp34
 70
     1
102
RTVSPost2010Prop35
280
     0
102
RTVSPost2010PropOp35
 70
     1
102
RTVSPost2010Prop36
280
     0
102
RTVSPost2010PropOp36
 70
     1
102
RTVSPost2010Prop37
 90
       50
102
RTVSPost2010PropOp37
 70
     1
102
RTVSPost2010Prop38
140
0.0
102
RTVSPost2010PropOp38
 70
     1
102
RTVSPost2010Prop39
140
1.0
102
RTVSPost2010PropOp39
 70
     1
102
RTVSPost2010Prop40
 90
        0
102
RTVSPost2010PropOp40
 70
     1
102
RTVSPost2010Prop41ColorIndex
 90
       18
102
RTVSPost2010Prop41ColorRGB
 90
        0
102
RTVSPost2010PropOp41
 70
     1
102
RTVSPost2010Prop42
 90
       50
102
RTVSPost2010PropOp42
 70
     1
102
RTVSPost2010Prop43
 90
        3
102
RTVSPost2010PropOp43
 70
     1
102
RTVSPost2010Prop44ColorIndex
 90
        5
102
RTVSPost2010Prop44ColorRGB
 90
      255
102
RTVSPost2010PropOp44
 70
     1
102
RTVSPost2010Prop45
280
     0
102
RTVSPost2010PropOp45
 70
     1
102
RTVSPost2010Prop46
 90
       50
102
RTVSPost2010PropOp46
 70
     1
102
RTVSPost2010Prop47
 90
       50
102
RTVSPost2010PropOp47
 70
     1
102
RTVSPost2010Prop48
 90
       50
102
RTVSPost2010PropOp48
 70
     1
102
RTVSPost2010Prop49
280
     0
102
RTVSPost2010PropOp49
 70
     1
102
RTVSPost2010Prop50
 90
       50
102
RTVSPost2010PropOp50
 70
     1
102
RTVSPost2010Prop51ColorIndex
 90
      256
102
RTVSPost2010Prop51ColorRGB
 90
-16777216
102
RTVSPost2010PropOp51
 70
     0
102
RTVSPost2010Prop52
140
1.0
102
RTVSPost2010PropOp52
 70
     0
102
RTVSPost2010Prop53
 90
        2
102
RTVSPost2010PropOp53
 70
     1
102
RTVSPost2010Prop54
  1
strokes_ogs.tif
102
RTVSPost2010PropOp54
 70
     1
102
RTVSPost2010Prop55
280
     0
102
RTVSPost2010PropOp55
 70
     1
102
RTVSPost2010Prop56
140
1.0
102
RTVSPost2010PropOp56
 70
     1
102
RTVSPost2010Prop57
140
1.0
102
RTVSPost2010PropOp57
 70
     1
  0
XRECORD
  5
67E
102
{ACAD_REACTORS
330
67D
102
}
330
67D
100
AcDbXrecord
280
     1
102
RTVSPropertyOp0
 70
     1
102
RTVSPropertyOp1
 70
     1
102
RTVSPropertyOp2
 70
     1
102
RTVSPropertyOp3
 70
     1
102
RTVSPropertyOp4
 70
     1
102
RTVSPropertyOp5
 70
     1
102
RTVSPropertyOp6
 70
     1
102
RTVSPropertyOp7
 70
     1
102
RTVSPropertyOp8
 70
     1
102
RTVSPropertyOp9
 70
     1
102
RTVSPropertyOp10
 70
     1
102
RTVSPropertyOp11
 70
     1
102
RTVSPropertyOp12
 70
     1
102
RTVSPropertyOp13
 70
     1
102
RTVSPropertyOp14
 70
     1
102
RTVSPropertyOp15
 70
     1
102
RTVSPropertyOp16
 70
     1
102
RTVSPropertyOp17
 70
     1
102
RTVSPropertyOp18
 70
     1
102
RTVSPropertyOp19
 70
     1
102
RTVSPropertyOp20
 70
     1
102
RTVSPropertyOp21
 70
     1
102
RTVSPropertyOp22
 70
     1
102
RTVSPropertyOp23
 70
     1
102
RTVSPropertyOp24
 70
     1
102
RTVSPropertyOp25
 70
     1
102
RTVSPropertyOp26
 70
     1
102
RTVSPropertyOp27
 70
     1
102
RTVSPropertyOp28
 70
     1
102
RTVSPropertyOp29
 70
     1
102
RTVSPropertyOp30
 70
     1
102
RTVSPropertyOp31
 70
     1
102
RTVSPropertyOp32
 70
     1
102
RTVSPropertyOp33
 70
     1
102
RTVSPropertyOp34
 70
     1
102
RTVSPropertyOp35
 70
     1
102
RTVSPropertyOp36
 70
     1
102
RTVSPropertyOp37
 70
     1
102
RTVSPropertyOp38
 70
     1
102
RTVSPropertyOp39
 70
     1
102
RTVSPropertyOp40
 70
     1
102
RTVSPropertyOp41
 70
     1
102
RTVSPropertyOp42
 70
     1
102
RTVSPropertyOp43
 70
     1
102
RTVSPropertyOp44
 70
     1
102
RTVSPropertyOp45
 70
     1
102
RTVSPropertyOp46
 70
     1
102
RTVSPropertyOp47
 70
     1
102
RTVSPropertyOp48
 70
     1
102
RTVSPropertyOp49
 70
     1
102
RTVSPropertyOp50
 70
     1
102
RTVSPropertyOp51
 70
     0
102
RTVSPropertyOp52
 70
     0
102
RTVSPropertyOp53
 70
     1
102
RTVSPropertyOp54
 70
     1
102
RTVSPropertyOp55
 70
     1
102
RTVSPropertyOp56
 70
     1
102
RTVSPropertyOp57
 70
     1
102
RTVSPost2010Prop28
280
     0
102
RTVSPost2010PropOp28
 70
     1
102
RTVSPost2010Prop29
280
     1
102
RTVSPost2010PropOp29
 70
     1
102
RTVSPost2010Prop30
280
     1
102
RTVSPost2010PropOp30
 70
     1
102
RTVSPost2010Prop31
280
     0
102
RTVSPost2010PropOp31
 70
     1
102
RTVSPost2010Prop32
280
     0
102
RTVSPost2010PropOp32
 70
     1
102
RTVSPost2010Prop33
280
     0
102
RTVSPost2010PropOp33
 70
     1
102
RTVSPost2010Prop34
280
     0
102
RTVSPost2010PropOp34
 70
     1
102
RTVSPost2010Prop35
280
     0
102
RTVSPost2010PropOp35
 70
     1
102
RTVSPost2010Prop36
280
     0
102
RTVSPost2010PropOp36
 70
     1
102
RTVSPost2010Prop37
 90
       50
102
RTVSPost2010PropOp37
 70
     1
102
RTVSPost2010Prop38
140
0.0
102
RTVSPost2010PropOp38
 70
     1
102
RTVSPost2010Prop39
140
1.0
102
RTVSPost2010PropOp39
 70
     1
102
RTVSPost2010Prop40
 90
        0
102
RTVSPost2010PropOp40
 70
     1
102
RTVSPost2010Prop41ColorIndex
 90
       18
102
RTVSPost2010Prop41ColorRGB
 90
        0
102
RTVSPost2010PropOp41
 70
     1
102
RTVSPost2010Prop42
 90
       50
102
RTVSPost2010PropOp42
 70
     1
102
RTVSPost2010Prop43
 90
        3
102
RTVSPost2010PropOp43
 70
     1
102
RTVSPost2010Prop44ColorIndex
 90
        5
102
RTVSPost2010Prop44ColorRGB
 90
      255
102
RTVSPost2010PropOp44
 70
     1
102
RTVSPost2010Prop45
280
     0
102
RTVSPost2010PropOp45
 70
     1
102
RTVSPost2010Prop46
 90
       50
102
RTVSPost2010PropOp46
 70
     1
102
RTVSPost2010Prop47
 90
       50
102
RTVSPost2010PropOp47
 70
     1
102
RTVSPost2010Prop48
 90
       50
102
RTVSPost2010PropOp48
 70
     1
102
RTVSPost2010Prop49
280
     0
102
RTVSPost2010PropOp49
 70
     1
102
RTVSPost2010Prop50
 90
       50
102
RTVSPost2010PropOp50
 70
     1
102
RTVSPost2010Prop51ColorIndex
 90
      256
102
RTVSPost2010Prop51ColorRGB
 90
-16777216
102
RTVSPost2010PropOp51
 70
     0
102
RTVSPost2010Prop52
140
1.0
102
RTVSPost2010PropOp52
 70
     0
102
RTVSPost2010Prop53
 90
        2
102
RTVSPost2010PropOp53
 70
     1
102
RTVSPost2010Prop54
  1
strokes_ogs.tif
102
RTVSPost2010PropOp54
 70
     1
102
RTVSPost2010Prop55
280
     0
102
RTVSPost2010PropOp55
 70
     1
102
RTVSPost2010Prop56
140
1.0
102
RTVSPost2010PropOp56
 70
     1
102
RTVSPost2010Prop57
140
1.0
102
RTVSPost2010PropOp57
 70
     1
  0
XRECORD
  5
670
102
{ACAD_REACTORS
330
66F
102
}
330
66F
100
AcDbXrecord
280
     1
102
RTVSPropertyOp0
 70
     1
102
RTVSPropertyOp1
 70
     1
102
RTVSPropertyOp2
 70
     1
102
RTVSPropertyOp3
 70
     1
102
RTVSPropertyOp4
 70
     1
102
RTVSPropertyOp5
 70
     1
102
RTVSPropertyOp6
 70
     1
102
RTVSPropertyOp7
 70
     1
102
RTVSPropertyOp8
 70
     1
102
RTVSPropertyOp9
 70
     1
102
RTVSPropertyOp10
 70
     1
102
RTVSPropertyOp11
 70
     1
102
RTVSPropertyOp12
 70
     1
102
RTVSPropertyOp13
 70
     1
102
RTVSPropertyOp14
 70
     1
102
RTVSPropertyOp15
 70
     1
102
RTVSPropertyOp16
 70
     1
102
RTVSPropertyOp17
 70
     1
102
RTVSPropertyOp18
 70
     1
102
RTVSPropertyOp19
 70
     1
102
RTVSPropertyOp20
 70
     1
102
RTVSPropertyOp21
 70
     1
102
RTVSPropertyOp22
 70
     1
102
RTVSPropertyOp23
 70
     1
102
RTVSPropertyOp24
 70
     1
102
RTVSPropertyOp25
 70
     1
102
RTVSPropertyOp26
 70
     1
102
RTVSPropertyOp27
 70
     1
102
RTVSPropertyOp28
 70
     1
102
RTVSPropertyOp29
 70
     1
102
RTVSPropertyOp30
 70
     1
102
RTVSPropertyOp31
 70
     1
102
RTVSPropertyOp32
 70
     1
102
RTVSPropertyOp33
 70
     1
102
RTVSPropertyOp34
 70
     1
102
RTVSPropertyOp35
 70
     1
102
RTVSPropertyOp36
 70
     1
102
RTVSPropertyOp37
 70
     1
102
RTVSPropertyOp38
 70
     1
102
RTVSPropertyOp39
 70
     1
102
RTVSPropertyOp40
 70
     1
102
RTVSPropertyOp41
 70
     1
102
RTVSPropertyOp42
 70
     1
102
RTVSPropertyOp43
 70
     1
102
RTVSPropertyOp44
 70
     1
102
RTVSPropertyOp45
 70
     1
102
RTVSPropertyOp46
 70
     1
102
RTVSPropertyOp47
 70
     1
102
RTVSPropertyOp48
 70
     1
102
RTVSPropertyOp49
 70
     1
102
RTVSPropertyOp50
 70
     1
102
RTVSPropertyOp51
 70
     0
102
RTVSPropertyOp52
 70
     0
102
RTVSPropertyOp53
 70
     1
102
RTVSPropertyOp54
 70
     1
102
RTVSPropertyOp55
 70
     1
102
RTVSPropertyOp56
 70
     1
102
RTVSPropertyOp57
 70
     1
102
RTVSPost2010Prop28
280
     0
102
RTVSPost2010PropOp28
 70
     1
102
RTVSPost2010Prop29
280
     1
102
RTVSPost2010PropOp29
 70
     1
102
RTVSPost2010Prop30
280
     1
102
RTVSPost2010PropOp30
 70
     1
102
RTVSPost2010Prop31
280
     0
102
RTVSPost2010PropOp31
 70
     1
102
RTVSPost2010Prop32
280
     0
102
RTVSPost2010PropOp32
 70
     1
102
RTVSPost2010Prop33
280
     0
102
RTVSPost2010PropOp33
 70
     1
102
RTVSPost2010Prop34
280
     0
102
RTVSPost2010PropOp34
 70
     1
102
RTVSPost2010Prop35
280
     0
102
RTVSPost2010PropOp35
 70
     1
102
RTVSPost2010Prop36
280
     0
102
RTVSPost2010PropOp36
 70
     1
102
RTVSPost2010Prop37
 90
       50
102
RTVSPost2010PropOp37
 70
     1
102
RTVSPost2010Prop38
140
0.0
102
RTVSPost2010PropOp38
 70
     1
102
RTVSPost2010Prop39
140
1.0
102
RTVSPost2010PropOp39
 70
     1
102
RTVSPost2010Prop40
 90
        0
102
RTVSPost2010PropOp40
 70
     1
102
RTVSPost2010Prop41ColorIndex
 90
       18
102
RTVSPost2010Prop41ColorRGB
 90
        0
102
RTVSPost2010PropOp41
 70
     1
102
RTVSPost2010Prop42
 90
       50
102
RTVSPost2010PropOp42
 70
     1
102
RTVSPost2010Prop43
 90
        3
102
RTVSPost2010PropOp43
 70
     1
102
RTVSPost2010Prop44ColorIndex
 90
        5
102
RTVSPost2010Prop44ColorRGB
 90
      255
102
RTVSPost2010PropOp44
 70
     1
102
RTVSPost2010Prop45
280
     0
102
RTVSPost2010PropOp45
 70
     1
102
RTVSPost2010Prop46
 90
       50
102
RTVSPost2010PropOp46
 70
     1
102
RTVSPost2010Prop47
 90
       50
102
RTVSPost2010PropOp47
 70
     1
102
RTVSPost2010Prop48
 90
       50
102
RTVSPost2010PropOp48
 70
     1
102
RTVSPost2010Prop49
280
     0
102
RTVSPost2010PropOp49
 70
     1
102
RTVSPost2010Prop50
 90
       50
102
RTVSPost2010PropOp50
 70
     1
102
RTVSPost2010Prop51ColorIndex
 90
      256
102
RTVSPost2010Prop51ColorRGB
 90
-16777216
102
RTVSPost2010PropOp51
 70
     0
102
RTVSPost2010Prop52
140
1.0
102
RTVSPost2010PropOp52
 70
     0
102
RTVSPost2010Prop53
 90
        2
102
RTVSPost2010PropOp53
 70
     1
102
RTVSPost2010Prop54
  1
strokes_ogs.tif
102
RTVSPost2010PropOp54
 70
     1
102
RTVSPost2010Prop55
280
     0
102
RTVSPost2010PropOp55
 70
     1
102
RTVSPost2010Prop56
140
1.0
102
RTVSPost2010PropOp56
 70
     1
102
RTVSPost2010Prop57
140
1.0
102
RTVSPost2010PropOp57
 70
     1
  0
XRECORD
  5
690
102
{ACAD_REACTORS
330
68F
102
}
330
68F
100
AcDbXrecord
280
     1
102
RTVSPropertyOp0
 70
     1
102
RTVSPropertyOp1
 70
     1
102
RTVSPropertyOp2
 70
     1
102
RTVSPropertyOp3
 70
     1
102
RTVSPropertyOp4
 70
     1
102
RTVSPropertyOp5
 70
     1
102
RTVSPropertyOp6
 70
     1
102
RTVSPropertyOp7
 70
     1
102
RTVSPropertyOp8
 70
     1
102
RTVSPropertyOp9
 70
     1
102
RTVSPropertyOp10
 70
     1
102
RTVSPropertyOp11
 70
     1
102
RTVSPropertyOp12
 70
     1
102
RTVSPropertyOp13
 70
     1
102
RTVSPropertyOp14
 70
     1
102
RTVSPropertyOp15
 70
     1
102
RTVSPropertyOp16
 70
     1
102
RTVSPropertyOp17
 70
     1
102
RTVSPropertyOp18
 70
     1
102
RTVSPropertyOp19
 70
     1
102
RTVSPropertyOp20
 70
     1
102
RTVSPropertyOp21
 70
     1
102
RTVSPropertyOp22
 70
     1
102
RTVSPropertyOp23
 70
     1
102
RTVSPropertyOp24
 70
     1
102
RTVSPropertyOp25
 70
     1
102
RTVSPropertyOp26
 70
     1
102
RTVSPropertyOp27
 70
     1
102
RTVSPropertyOp28
 70
     1
102
RTVSPropertyOp29
 70
     1
102
RTVSPropertyOp30
 70
     1
102
RTVSPropertyOp31
 70
     1
102
RTVSPropertyOp32
 70
     1
102
RTVSPropertyOp33
 70
     1
102
RTVSPropertyOp34
 70
     1
102
RTVSPropertyOp35
 70
     1
102
RTVSPropertyOp36
 70
     1
102
RTVSPropertyOp37
 70
     1
102
RTVSPropertyOp38
 70
     1
102
RTVSPropertyOp39
 70
     1
102
RTVSPropertyOp40
 70
     1
102
RTVSPropertyOp41
 70
     1
102
RTVSPropertyOp42
 70
     1
102
RTVSPropertyOp43
 70
     1
102
RTVSPropertyOp44
 70
     1
102
RTVSPropertyOp45
 70
     1
102
RTVSPropertyOp46
 70
     1
102
RTVSPropertyOp47
 70
     1
102
RTVSPropertyOp48
 70
     1
102
RTVSPropertyOp49
 70
     1
102
RTVSPropertyOp50
 70
     1
102
RTVSPropertyOp51
 70
     0
102
RTVSPropertyOp52
 70
     0
102
RTVSPropertyOp53
 70
     1
102
RTVSPropertyOp54
 70
     1
102
RTVSPropertyOp55
 70
     1
102
RTVSPropertyOp56
 70
     1
102
RTVSPropertyOp57
 70
     1
102
RTVSPost2010Prop28
280
     0
102
RTVSPost2010PropOp28
 70
     1
102
RTVSPost2010Prop29
280
     1
102
RTVSPost2010PropOp29
 70
     1
102
RTVSPost2010Prop30
280
     1
102
RTVSPost2010PropOp30
 70
     1
102
RTVSPost2010Prop31
280
     0
102
RTVSPost2010PropOp31
 70
     1
102
RTVSPost2010Prop32
280
     0
102
RTVSPost2010PropOp32
 70
     1
102
RTVSPost2010Prop33
280
     0
102
RTVSPost2010PropOp33
 70
     1
102
RTVSPost2010Prop34
280
     0
102
RTVSPost2010PropOp34
 70
     1
102
RTVSPost2010Prop35
280
     0
102
RTVSPost2010PropOp35
 70
     1
102
RTVSPost2010Prop36
280
     0
102
RTVSPost2010PropOp36
 70
     1
102
RTVSPost2010Prop37
 90
       50
102
RTVSPost2010PropOp37
 70
     1
102
RTVSPost2010Prop38
140
0.0
102
RTVSPost2010PropOp38
 70
     1
102
RTVSPost2010Prop39
140
1.0
102
RTVSPost2010PropOp39
 70
     1
102
RTVSPost2010Prop40
 90
        0
102
RTVSPost2010PropOp40
 70
     1
102
RTVSPost2010Prop41ColorIndex
 90
       18
102
RTVSPost2010Prop41ColorRGB
 90
        0
102
RTVSPost2010PropOp41
 70
     1
102
RTVSPost2010Prop42
 90
       50
102
RTVSPost2010PropOp42
 70
     1
102
RTVSPost2010Prop43
 90
        3
102
RTVSPost2010PropOp43
 70
     1
102
RTVSPost2010Prop44ColorIndex
 90
        5
102
RTVSPost2010Prop44ColorRGB
 90
      255
102
RTVSPost2010PropOp44
 70
     1
102
RTVSPost2010Prop45
280
     0
102
RTVSPost2010PropOp45
 70
     1
102
RTVSPost2010Prop46
 90
       50
102
RTVSPost2010PropOp46
 70
     1
102
RTVSPost2010Prop47
 90
       50
102
RTVSPost2010PropOp47
 70
     1
102
RTVSPost2010Prop48
 90
       50
102
RTVSPost2010PropOp48
 70
     1
102
RTVSPost2010Prop49
280
     0
102
RTVSPost2010PropOp49
 70
     1
102
RTVSPost2010Prop50
 90
       50
102
RTVSPost2010PropOp50
 70
     1
102
RTVSPost2010Prop51ColorIndex
 90
      256
102
RTVSPost2010Prop51ColorRGB
 90
-16777216
102
RTVSPost2010PropOp51
 70
     0
102
RTVSPost2010Prop52
140
1.0
102
RTVSPost2010PropOp52
 70
     0
102
RTVSPost2010Prop53
 90
        2
102
RTVSPost2010PropOp53
 70
     1
102
RTVSPost2010Prop54
  1
strokes_ogs.tif
102
RTVSPost2010PropOp54
 70
     1
102
RTVSPost2010Prop55
280
     0
102
RTVSPost2010PropOp55
 70
     1
102
RTVSPost2010Prop56
140
1.0
102
RTVSPost2010PropOp56
 70
     1
102
RTVSPost2010Prop57
140
1.0
102
RTVSPost2010PropOp57
 70
     1
  0
ENDSEC
  0
EOF
