  0
SECTION
  2
HEADER
  9
$ACADVER
  1
AC1015
  9
$ACADMAINTVER
 70
     6
  9
$DWGCODEPAGE
  3
ANSI_932
  9
$INSBASE
 10
2925.44401025168
 20
774.5461826135838
 30
0.0
  9
$EXTMIN
 10
188.4443159446696
 20
4.216382116059549
 30
0.0
  9
$EXTMAX
 10
2143.488443784979
 20
1899.218138083494
 30
0.0
  9
$LIMMIN
 10
0.0
 20
0.0
  9
$LIMMAX
 10
816.5000000000001
 20
565.0
  9
$ORTHOMODE
 70
     0
  9
$REGENMODE
 70
     1
  9
$FILLMODE
 70
     1
  9
$QTEXTMODE
 70
     0
  9
$MIRRTEXT
 70
     1
  9
$LTSCALE
 40
20.0
  9
$ATTMODE
 70
     1
  9
$TEXTSIZE
 40
21.0
  9
$TRACEWID
 40
0.05
  9
$TEXTSTYLE
  7
KANJI
  9
$CLAYER
  8
2
  9
$CELTYPE
  6
BYLAYER
  9
$CECOLOR
 62
   256
  9
$CELTSCALE
 40
1.0
  9
$DISPSILH
 70
     0
  9
$DIMSCALE
 40
7.0
  9
$DIMASZ
 40
2.0
  9
$DIMEXO
 40
0.5
  9
$DIMDLI
 40
0.0
  9
$DIMRND
 40
0.0
  9
$DIMDLE
 40
0.0
  9
$DIMEXE
 40
1.0
  9
$DIMTP
 40
0.0
  9
$DIMTM
 40
0.0
  9
$DIMTXT
 40
3.0
  9
$DIMCEN
 40
0.09
  9
$DIMTSZ
 40
0.0
  9
$DIMTOL
 70
     0
  9
$DIMLIM
 70
     0
  9
$DIMTIH
 70
     0
  9
$DIMTOH
 70
     0
  9
$DIMSE1
 70
     0
  9
$DIMSE2
 70
     0
  9
$DIMTAD
 70
     0
  9
$DIMZIN
 70
     8
  9
$DIMBLK
  1

  9
$DIMASO
 70
     0
  9
$DIMSHO
 70
     0
  9
$DIMPOST
  1

  9
$DIMAPOST
  1

  9
$DIMALT
 70
     0
  9
$DIMALTD
 70
     2
  9
$DIMALTF
 40
25.4
  9
$DIMLFAC
 40
1.0
  9
$DIMTOFL
 70
     1
  9
$DIMTVP
 40
1.0
  9
$DIMTIX
 70
     1
  9
$DIMSOXD
 70
     1
  9
$DIMSAH
 70
     0
  9
$DIMBLK1
  1

  9
$DIMBLK2
  1

  9
$DIMSTYLE
  2
STANDARD
  9
$DIMCLRD
 70
   256
  9
$DIMCLRE
 70
   256
  9
$DIMCLRT
 70
   256
  9
$DIMTFAC
 40
1.0
  9
$DIMGAP
 40
0.09
  9
$DIMJUST
 70
     0
  9
$DIMSD1
 70
     0
  9
$DIMSD2
 70
     0
  9
$DIMTOLJ
 70
     1
  9
$DIMTZIN
 70
     0
  9
$DIMALTZ
 70
     0
  9
$DIMALTTZ
 70
     0
  9
$DIMUPT
 70
     0
  9
$DIMDEC
 70
     1
  9
$DIMTDEC
 70
     4
  9
$DIMALTU
 70
     2
  9
$DIMALTTD
 70
     2
  9
$DIMTXSTY
  7
STANDARD
  9
$DIMAUNIT
 70
     0
  9
$DIMADEC
 70
     0
  9
$DIMALTRND
 40
0.0
  9
$DIMAZIN
 70
     0
  9
$DIMDSEP
 70
    46
  9
$DIMATFIT
 70
     3
  9
$DIMFRAC
 70
     0
  9
$DIMLDRBLK
  1

  9
$DIMLUNIT
 70
     2
  9
$DIMLWD
 70
    -2
  9
$DIMLWE
 70
    -2
  9
$DIMTMOVE
 70
     0
  9
$LUNITS
 70
     2
  9
$LUPREC
 70
     3
  9
$SKETCHINC
 40
0.1
  9
$FILLETRAD
 40
1.0
  9
$AUNITS
 70
     0
  9
$AUPREC
 70
     3
  9
$MENU
  1
C:\R13\WIN\SUPPORT\ACADFULL
  9
$ELEVATION
 40
0.0
  9
$PELEVATION
 40
0.0
  9
$THICKNESS
 40
0.0
  9
$LIMCHECK
 70
     0
  9
$CHAMFERA
 40
0.0
  9
$CHAMFERB
 40
0.0
  9
$CHAMFERC
 40
0.0
  9
$CHAMFERD
 40
0.0
  9
$SKPOLY
 70
     0
  9
$TDCREATE
 40
2457431.842175023
  9
$TDUCREATE
 40
2457431.467175023
  9
$TDUPDATE
 40
2457871.844788658
  9
$TDUUPDATE
 40
2457871.469788658
  9
$TDINDWG
 40
0.0444647338
  9
$TDUSRTIMER
 40
0.0444637731
  9
$USRTIMER
 70
     1
  9
$ANGBASE
 50
0.0
  9
$ANGDIR
 70
     0
  9
$PDMODE
 70
     0
  9
$PDSIZE
 40
0.0
  9
$PLINEWID
 40
0.0
  9
$SPLFRAME
 70
     0
  9
$SPLINETYPE
 70
     6
  9
$SPLINESEGS
 70
     8
  9
$HANDSEED
  5
6C2
  9
$SURFTAB1
 70
     6
  9
$SURFTAB2
 70
     6
  9
$SURFTYPE
 70
     6
  9
$SURFU
 70
     6
  9
$SURFV
 70
     6
  9
$UCSBASE
  2

  9
$UCSNAME
  2

  9
$UCSORG
 10
0.0
 20
0.0
 30
0.0
  9
$UCSXDIR
 10
1.0
 20
0.0
 30
0.0
  9
$UCSYDIR
 10
0.0
 20
1.0
 30
0.0
  9
$UCSORTHOREF
  2

  9
$UCSORTHOVIEW
 70
     0
  9
$UCSORGTOP
 10
0.0
 20
0.0
 30
0.0
  9
$UCSORGBOTTOM
 10
0.0
 20
0.0
 30
0.0
  9
$UCSORGLEFT
 10
0.0
 20
0.0
 30
0.0
  9
$UCSORGRIGHT
 10
0.0
 20
0.0
 30
0.0
  9
$UCSORGFRONT
 10
0.0
 20
0.0
 30
0.0
  9
$UCSORGBACK
 10
0.0
 20
0.0
 30
0.0
  9
$PUCSBASE
  2

  9
$PUCSNAME
  2

  9
$PUCSORG
 10
0.0
 20
0.0
 30
0.0
  9
$PUCSXDIR
 10
1.0
 20
0.0
 30
0.0
  9
$PUCSYDIR
 10
0.0
 20
1.0
 30
0.0
  9
$PUCSORTHOREF
  2

  9
$PUCSORTHOVIEW
 70
     0
  9
$PUCSORGTOP
 10
0.0
 20
0.0
 30
0.0
  9
$PUCSORGBOTTOM
 10
0.0
 20
0.0
 30
0.0
  9
$PUCSORGLEFT
 10
0.0
 20
0.0
 30
0.0
  9
$PUCSORGRIGHT
 10
0.0
 20
0.0
 30
0.0
  9
$PUCSORGFRONT
 10
0.0
 20
0.0
 30
0.0
  9
$PUCSORGBACK
 10
0.0
 20
0.0
 30
0.0
  9
$USERI1
 70
     0
  9
$USERI2
 70
     0
  9
$USERI3
 70
     0
  9
$USERI4
 70
     0
  9
$USERI5
 70
     0
  9
$USERR1
 40
0.0
  9
$USERR2
 40
0.0
  9
$USERR3
 40
0.0
  9
$USERR4
 40
2448925.372986111
  9
$USERR5
 40
0.04166667
  9
$WORLDVIEW
 70
     1
  9
$SHADEDGE
 70
     3
  9
$SHADEDIF
 70
    70
  9
$TILEMODE
 70
     1
  9
$MAXACTVP
 70
    16
  9
$PINSBASE
 10
0.0
 20
0.0
 30
0.0
  9
$PLIMCHECK
 70
     0
  9
$PEXTMIN
 10
1.000000000000000E+20
 20
1.000000000000000E+20
 30
1.000000000000000E+20
  9
$PEXTMAX
 10
-1.000000000000000E+20
 20
-1.000000000000000E+20
 30
-1.000000000000000E+20
  9
$PLIMMIN
 10
0.0
 20
0.0
  9
$PLIMMAX
 10
12.0
 20
9.0
  9
$UNITMODE
 70
     0
  9
$VISRETAIN
 70
     0
  9
$PLINEGEN
 70
     0
  9
$PSLTSCALE
 70
     0
  9
$TREEDEPTH
 70
  3020
  9
$CMLSTYLE
  2
STANDARD
  9
$CMLJUST
 70
     0
  9
$CMLSCALE
 40
1.0
  9
$PROXYGRAPHICS
 70
     1
  9
$MEASUREMENT
 70
     0
  9
$CELWEIGHT
370
    -1
  9
$ENDCAPS
280
     0
  9
$JOINSTYLE
280
     0
  9
$LWDISPLAY
290
     0
  9
$INSUNITS
 70
     0
  9
$HYPERLINKBASE
  1

  9
$STYLESHEET
  1

  9
$XEDIT
290
     1
  9
$CEPSNTYPE
380
     0
  9
$PSTYLEMODE
290
     1
  9
$FINGERPRINTGUID
  2
{176DD0A4-1973-4263-9A71-0B74F89336CA}
  9
$VERSIONGUID
  2
{08DD4DBB-34D9-4A5D-AB8F-A097F5F9DDB8}
  9
$EXTNAMES
290
     1
  9
$PSVPSCALE
 40
0.0
  9
$OLESTARTUP
290
     0
  0
ENDSEC
  0
SECTION
  2
CLASSES
  0
CLASS
  1
ACDBDICTIONARYWDFLT
  2
AcDbDictionaryWithDefault
  3
ObjectDBX Classes
 90
        0
280
     0
281
     0
  0
CLASS
  1
MATERIAL
  2
AcDbMaterial
  3
ObjectDBX Classes
 90
     1153
280
     0
281
     0
  0
CLASS
  1
SORTENTSTABLE
  2
AcDbSortentsTable
  3
ObjectDBX Classes
 90
        0
280
     0
281
     0
  0
CLASS
  1
SCALE
  2
AcDbScale
  3
ObjectDBX Classes
 90
     1153
280
     0
281
     0
  0
CLASS
  1
DICTIONARYVAR
  2
AcDbDictionaryVar
  3
ObjectDBX Classes
 90
        0
280
     0
281
     0
  0
CLASS
  1
VISUALSTYLE
  2
AcDbVisualStyle
  3
ObjectDBX Classes
 90
     4095
280
     0
281
     0
  0
CLASS
  1
MLEADERSTYLE
  2
AcDbMLeaderStyle
  3
ACDB_MLEADERSTYLE_CLASS
 90
     4095
280
     0
281
     0
  0
CLASS
  1
TABLESTYLE
  2
AcDbTableStyle
  3
ObjectDBX Classes
 90
     4095
280
     0
281
     0
  0
CLASS
  1
ACDBPLACEHOLDER
  2
AcDbPlaceHolder
  3
ObjectDBX Classes
 90
        0
280
     0
281
     0
  0
CLASS
  1
LAYOUT
  2
AcDbLayout
  3
ObjectDBX Classes
 90
        0
280
     0
281
     0
  0
ENDSEC
  0
SECTION
  2
TABLES
  0
TABLE
  2
VPORT
  5
26
102
{ACAD_XDICTIONARY
360
687
102
}
330
0
100
AcDbSymbolTable
 70
     2
  0
VPORT
  5
2B
330
26
100
AcDbSymbolTableRecord
100
AcDbViewportTableRecord
  2
*ACTIVE
 70
     0
 10
0.0
 20
0.0
 11
1.0
 21
1.0
 12
1522.232604802396
 22
891.0121294247724
 13
0.0
 23
0.0
 14
1.0
 24
1.0
 15
50.0
 25
50.0
 16
0.0
 26
0.0
 36
1.0
 17
0.0
 27
0.0
 37
0.0
 40
2558.800454360997
 41
2.174107142857143
 42
50.0
 43
0.0
 44
0.0
 50
0.0
 51
0.0
 71
     0
 72
  5000
 73
     1
 74
     0
 75
     0
 76
     0
 77
     0
 78
     1
281
     0
 65
     1
110
0.0
120
0.0
130
0.0
111
1.0
121
0.0
131
0.0
112
0.0
122
1.0
132
0.0
 79
     0
146
0.0
  0
ENDTAB
  0
TABLE
  2
LTYPE
  5
B
330
0
100
AcDbSymbolTable
 70
     2
  0
LTYPE
  5
C
330
B
100
AcDbSymbolTableRecord
100
AcDbLinetypeTableRecord
  2
BYBLOCK
 70
     0
  3

 72
    65
 73
     0
 40
0.0
  0
LTYPE
  5
D
330
B
100
AcDbSymbolTableRecord
100
AcDbLinetypeTableRecord
  2
BYLAYER
 70
     0
  3

 72
    65
 73
     0
 40
0.0
  0
LTYPE
  5
A
330
B
100
AcDbSymbolTableRecord
100
AcDbLinetypeTableRecord
  2
CONTINUOUS
 70
     0
  3
Solid line
 72
    65
 73
     0
 40
0.0
  0
LTYPE
  5
78
330
B
100
AcDbSymbolTableRecord
100
AcDbLinetypeTableRecord
  2
CENTER
 70
     0
  3
____ _ ____ _ ____ _ ____ _ ____ _ ____ _ ____
 72
    65
 73
     4
 40
2.0
 49
1.25
 74
     0
 49
-0.25
 74
     0
 49
0.25
 74
     0
 49
-0.25
 74
     0
  0
ENDTAB
  0
TABLE
  2
LAYER
  5
2
330
0
100
AcDbSymbolTable
 70
     9
  0
LAYER
  5
1B
330
2
100
AcDbSymbolTableRecord
100
AcDbLayerTableRecord
  2
0
 70
     0
 62
     7
  6
CONTINUOUS
370
    -3
390
3
  0
LAYER
  5
46F
330
2
100
AcDbSymbolTableRecord
100
AcDbLayerTableRecord
  2
1
 70
     0
 62
     9
  6
CONTINUOUS
370
    -3
390
3
  0
LAYER
  5
1
330
2
100
AcDbSymbolTableRecord
100
AcDbLayerTableRecord
  2
2
 70
     0
 62
     4
  6
CONTINUOUS
370
    -3
390
3
  0
LAYER
  5
7F
330
2
100
AcDbSymbolTableRecord
100
AcDbLayerTableRecord
  2
4
 70
     0
 62
     3
  6
CONTINUOUS
370
    -3
390
3
  0
LAYER
  5
77
330
2
100
AcDbSymbolTableRecord
100
AcDbLayerTableRecord
  2
L-CENTER
 70
     0
 62
     1
  6
CENTER
370
    -3
390
3
  0
LAYER
  5
72
330
2
100
AcDbSymbolTableRecord
100
AcDbLayerTableRecord
  2
3
 70
     0
 62
     2
  6
CONTINUOUS
370
    -3
390
3
  0
LAYER
  5
468
330
2
100
AcDbSymbolTableRecord
100
AcDbLayerTableRecord
  2
5
 70
     0
 62
     6
  6
CONTINUOUS
370
    -3
390
3
  0
LAYER
  5
5D1
330
2
100
AcDbSymbolTableRecord
100
AcDbLayerTableRecord
  2
Defpoints
 70
     0
 62
     7
  6
CONTINUOUS
290
     0
370
    -3
390
3
  0
ENDTAB
  0
TABLE
  2
STYLE
  5
F
330
0
100
AcDbSymbolTable
 70
     2
  0
STYLE
  5
13
330
F
100
AcDbSymbolTableRecord
100
AcDbTextStyleTableRecord
  2
STANDARD
 70
     0
 40
0.0
 41
1.0
 50
0.0
 71
     0
 42
12.6
  3
TXT
  4

  0
STYLE
  5
E
330
F
100
AcDbSymbolTableRecord
100
AcDbTextStyleTableRecord
  2
KANJI
 70
     0
 40
0.0
 41
1.0
 50
0.0
 71
     0
 42
21.0
  3
TXT
  4
BIGFONT
  0
ENDTAB
  0
TABLE
  2
VIEW
  5
24
330
0
100
AcDbSymbolTable
 70
     0
  0
ENDTAB
  0
TABLE
  2
UCS
  5
25
330
0
100
AcDbSymbolTable
 70
     0
  0
ENDTAB
  0
TABLE
  2
APPID
  5
9
330
0
100
AcDbSymbolTable
 70
     5
  0
APPID
  5
8
330
9
100
AcDbSymbolTableRecord
100
AcDbRegAppTableRecord
  2
ACAD
 70
     0
  0
APPID
  5
1F
330
9
100
AcDbSymbolTableRecord
100
AcDbRegAppTableRecord
  2
ACAD_PSEXT
 70
     0
  0
APPID
  5
5AA
330
9
100
AcDbSymbolTableRecord
100
AcDbRegAppTableRecord
  2
ACAD_MLEADERVER
 70
     0
  0
ENDTAB
  0
TABLE
  2
DIMSTYLE
  5
12
330
0
100
AcDbSymbolTable
 70
     1
100
AcDbDimStyleTable
  0
DIMSTYLE
105
11
330
12
100
AcDbSymbolTableRecord
100
AcDbDimStyleTableRecord
  2
STANDARD
 70
     0
178
     0
340
13
  0
ENDTAB
  0
TABLE
  2
BLOCK_RECORD
  5
16
330
0
100
AcDbSymbolTable
 70
     0
  0
BLOCK_RECORD
  5
17
102
{ACAD_XDICTIONARY
360
18
102
}
330
16
100
AcDbSymbolTableRecord
100
AcDbBlockTableRecord
  2
*MODEL_SPACE
340
1D
  0
BLOCK_RECORD
  5
20
330
16
100
AcDbSymbolTableRecord
100
AcDbBlockTableRecord
  2
*PAPER_SPACE
340
23
  0
ENDTAB
  0
ENDSEC
  0
SECTION
  2
BLOCKS
  0
BLOCK
  5
1A
330
17
100
AcDbEntity
  8
0
100
AcDbBlockBegin
  2
*MODEL_SPACE
 70
     0
 10
0.0
 20
0.0
 30
0.0
  3
*MODEL_SPACE
  1

  0
ENDBLK
  5
1C
330
17
100
AcDbEntity
  8
0
100
AcDbBlockEnd
  0
BLOCK
  5
21
330
20
100
AcDbEntity
 67
     1
  8
0
100
AcDbBlockBegin
  2
*PAPER_SPACE
 70
     0
 10
0.0
 20
0.0
 30
0.0
  3
*PAPER_SPACE
  1

  0
ENDBLK
  5
22
330
20
100
AcDbEntity
 67
     1
  8
0
100
AcDbBlockEnd
  0
ENDSEC
  0
SECTION
  2
ENTITIES
  0
TEXT
  5
71
330
17
100
AcDbEntity
  8
3
100
AcDbText
 10
1038.874068485834
 20
238.9550010329983
 30
0.0
 40
19.67512676884769
  1
LC10-08
  7
KANJI
100
AcDbText
  0
CIRCLE
  5
76
330
17
100
AcDbEntity
  8
L-CENTER
 48
2.0
100
AcDbCircle
 10
1534.785906702122
 20
540.6430349884567
 30
0.0
 40
97.5
  0
LINE
  5
79
330
17
100
AcDbEntity
  8
L-CENTER
 48
2.0
100
AcDbLine
 10
1432.721247266731
 20
481.7162932502786
 30
0.0
 11
1467.97537107202
 21
502.0701947193681
 31
0.0
  0
LINE
  5
7A
330
17
100
AcDbEntity
  8
L-CENTER
 48
2.0
100
AcDbLine
 10
1467.975600702122
 20
579.2162729884576
 30
0.0
 11
1432.721507463548
 21
599.5702274007608
 31
0.0
  0
LINE
  5
7B
330
17
100
AcDbEntity
  8
L-CENTER
 48
2.0
100
AcDbLine
 10
1601.596487150902
 20
502.0702723480658
 30
0.0
 11
1636.850597109983
 21
481.7163468965689
 31
0.0
  0
LINE
  5
7C
330
17
100
AcDbEntity
  8
L-CENTER
 48
2.0
100
AcDbLine
 10
1636.850295149238
 20
599.5702460917344
 30
0.0
 11
1601.596168009863
 21
579.2163503974728
 31
0.0
  0
LINE
  5
7D
330
17
100
AcDbEntity
  8
L-CENTER
 48
2.0
100
AcDbLine
 10
1829.785906613032
 20
744.9583397446695
 30
0.0
 11
1829.785906613032
 21
171.748299925197
 31
0.0
  0
LINE
  5
8E
330
17
100
AcDbEntity
  8
L-CENTER
 48
2.0
100
AcDbLine
 10
188.4443159446696
 20
540.6430349884567
 30
0.0
 11
1116.45017481934
 21
540.6430349884567
 31
0.0
  0
LINE
  5
8F
330
17
100
AcDbEntity
  8
L-CENTER
 48
2.0
100
AcDbLine
 10
1398.99220251778
 20
540.6430349884567
 30
0.0
 11
2132.489011049126
 21
540.6430349884567
 31
0.0
  0
LINE
  5
90
330
17
100
AcDbEntity
  8
4
100
AcDbLine
 10
1525.78590670484
 20
578.1430349771317
 30
0.0
 11
1543.785906699404
 21
578.1430349771317
 31
0.0
  0
LINE
  5
91
330
17
100
AcDbEntity
  8
4
100
AcDbLine
 10
1525.78590670484
 20
578.1430349771317
 30
0.0
 11
1525.78590670484
 21
566.1430349807556
 31
0.0
  0
LINE
  5
92
330
17
100
AcDbEntity
  8
4
100
AcDbLine
 10
1543.785906699404
 20
578.1430349771317
 30
0.0
 11
1543.785906699404
 21
566.1430349807556
 31
0.0
  0
LINE
  5
93
330
17
100
AcDbEntity
  8
4
100
AcDbLine
 10
1543.785906699404
 20
566.1430349807556
 30
0.0
 11
1525.78590670484
 21
566.1430349807556
 31
0.0
  0
ARC
  5
94
330
17
100
AcDbEntity
  8
4
100
AcDbCircle
 10
1534.785906702122
 20
540.6430349884567
 30
0.0
 40
31.50009153978275
100
AcDbArc
 50
106.6015010000008
 51
73.39849900000095
  0
LINE
  5
95
330
17
100
AcDbEntity
  8
4
100
AcDbLine
 10
792.4472453397248
 20
352.6430350458363
 30
0.0
 11
792.4472453397248
 21
310.6430350579167
 31
0.0
  0
LINE
  5
96
330
17
100
AcDbEntity
  8
4
100
AcDbLine
 10
792.4472453397248
 20
310.6430350579167
 30
0.0
 11
992.4472452793248
 21
310.6430350579167
 31
0.0
  0
ARC
  5
97
330
17
100
AcDbEntity
  8
4
100
AcDbCircle
 10
989.4472452802306
 20
349.6430350467426
 30
0.0
 40
2.999999999094
100
AcDbArc
 50
0.0
 51
90.0
  0
LINE
  5
98
330
17
100
AcDbEntity
  8
4
100
AcDbLine
 10
989.4472452802306
 20
352.6430350458368
 30
0.0
 11
792.4472453397248
 21
352.6430350458368
 31
0.0
  0
LINE
  5
99
330
17
100
AcDbEntity
  8
4
100
AcDbLine
 10
992.4472452793248
 20
349.6430350467426
 30
0.0
 11
992.4472452793248
 21
310.6430350579167
 31
0.0
  0
LINE
  5
9A
330
17
100
AcDbEntity
  8
4
100
AcDbLine
 10
652.4472453820049
 20
350.6430350458368
 30
0.0
 11
760.4472453493886
 21
350.6430350458368
 31
0.0
  0
LINE
  5
9B
330
17
100
AcDbEntity
  8
4
100
AcDbLine
 10
766.4472453475769
 20
356.6430350440246
 30
0.0
 11
760.4472453493886
 21
350.6430350458368
 31
0.0
  0
LINE
  5
9C
330
17
100
AcDbEntity
  8
4
100
AcDbLine
 10
751.4472453521066
 20
376.6430350379846
 30
0.0
 11
792.4472453397248
 21
335.6430350503665
 31
0.0
  0
LINE
  5
9D
330
17
100
AcDbEntity
  8
4
100
AcDbLine
 10
724.4472453602607
 20
356.6430350440246
 30
0.0
 11
744.4472453542207
 21
376.6430350379846
 31
0.0
  0
LINE
  5
9E
330
17
100
AcDbEntity
  8
4
100
AcDbLine
 10
771.4472453460667
 20
356.6430350440246
 30
0.0
 11
724.4472453602607
 21
356.6430350440246
 31
0.0
  0
LINE
  5
9F
330
17
100
AcDbEntity
  8
4
100
AcDbLine
 10
751.4472453521066
 20
376.6430350379846
 30
0.0
 11
652.4472453820049
 21
376.6430350379846
 31
0.0
  0
LINE
  5
A0
330
17
100
AcDbEntity
  8
L-CENTER
 48
2.0
100
AcDbLine
 10
942.4472452944251
 20
290.6430350579167
 30
0.0
 11
942.4472452944251
 21
372.6430350458368
 31
0.0
  0
LINE
  5
A1
330
17
100
AcDbEntity
  8
4
100
AcDbLine
 10
944.4472452938212
 20
655.1430349538778
 30
0.0
 11
944.4472452938212
 21
426.1430350230357
 31
0.0
  0
LINE
  5
A2
330
17
100
AcDbEntity
  8
4
100
AcDbLine
 10
944.7472452938205
 20
655.1430349538778
 30
0.0
 11
944.7472452938205
 21
426.1430350230357
 31
0.0
  0
LINE
  5
A3
330
17
100
AcDbEntity
  8
4
100
AcDbLine
 10
939.447245295331
 20
655.1430349538778
 30
0.0
 11
939.447245295331
 21
426.1430350230357
 31
0.0
  0
LINE
  5
A4
330
17
100
AcDbEntity
  8
4
100
AcDbLine
 10
945.9472452933683
 20
656.6430349534244
 30
0.0
 11
945.9472452933683
 21
659.6430349525185
 31
0.0
  0
LINE
  5
A5
330
17
100
AcDbEntity
  8
4
100
AcDbLine
 10
948.9472452924615
 20
655.1430349538778
 30
0.0
 11
948.9472452924615
 21
656.6430349534244
 31
0.0
  0
LINE
  5
A6
330
17
100
AcDbEntity
  8
4
100
AcDbLine
 10
652.4472453820049
 20
426.1430350230357
 30
0.0
 11
963.7472452877805
 21
426.1430350230357
 31
0.0
  0
LINE
  5
A7
330
17
100
AcDbEntity
  8
4
100
AcDbLine
 10
964.7472452877805
 20
654.1430349538778
 30
0.0
 11
964.7472452877805
 21
427.1430350230357
 31
0.0
  0
LINE
  5
A8
330
17
100
AcDbEntity
  8
4
100
AcDbLine
 10
965.7472452874786
 20
578.4430349884574
 30
0.0
 11
965.7472452874786
 21
502.8430349884561
 31
0.0
  0
LINE
  5
A9
330
17
100
AcDbEntity
  8
4
100
AcDbLine
 10
948.9472452924615
 20
393.3457402713998
 30
0.0
 11
948.9472452924615
 21
426.1430350230357
 31
0.0
  0
LINE
  5
AA
330
17
100
AcDbEntity
  8
4
100
AcDbLine
 10
930.0116839019806
 20
426.1430350230362
 30
0.0
 11
972.4470058487445
 21
352.6430350458368
 31
0.0
  0
LINE
  5
AB
330
17
100
AcDbEntity
  8
4
100
AcDbLine
 10
374.8828139042826
 20
426.1430350230357
 30
0.0
 11
332.4474919575177
 21
352.6430350458368
 31
0.0
  0
LINE
  5
AC
330
17
100
AcDbEntity
  8
4
100
AcDbLine
 10
355.9472454715478
 20
393.3457280738808
 30
0.0
 11
355.9472454715478
 21
426.1430350230357
 31
0.0
  0
LINE
  5
AD
330
17
100
AcDbEntity
  8
4
100
AcDbLine
 10
340.1472454762288
 20
654.1430349538778
 30
0.0
 11
340.1472454762288
 21
427.1430350230357
 31
0.0
  0
LINE
  5
AE
330
17
100
AcDbEntity
  8
4
100
AcDbLine
 10
652.4472453820049
 20
426.1430350230357
 30
0.0
 11
341.1472454762288
 21
426.1430350230357
 31
0.0
  0
LINE
  5
AF
330
17
100
AcDbEntity
  8
4
100
AcDbLine
 10
963.7472452877805
 20
655.1430349538778
 30
0.0
 11
341.1472454762288
 21
655.1430349538778
 31
0.0
  0
LINE
  5
B0
330
17
100
AcDbEntity
  8
4
100
AcDbLine
 10
355.9472454715478
 20
655.1430349538778
 30
0.0
 11
355.9472454715478
 21
656.6430349534244
 31
0.0
  0
LINE
  5
B1
330
17
100
AcDbEntity
  8
4
100
AcDbLine
 10
358.947245470642
 20
656.6430349534244
 30
0.0
 11
358.947245470642
 21
659.6430349525185
 31
0.0
  0
LINE
  5
B2
330
17
100
AcDbEntity
  8
4
100
AcDbLine
 10
355.9472454715478
 20
656.6430349534244
 30
0.0
 11
948.9472452924624
 21
656.6430349534244
 31
0.0
  0
LINE
  5
B3
330
17
100
AcDbEntity
  8
4
100
AcDbLine
 10
652.4472453820049
 20
659.6430349525185
 30
0.0
 11
358.947245470642
 21
659.6430349525185
 31
0.0
  0
LINE
  5
B4
330
17
100
AcDbEntity
  8
4
100
AcDbLine
 10
365.4472454686788
 20
655.1430349538778
 30
0.0
 11
365.4472454686788
 21
426.1430350230357
 31
0.0
  0
LINE
  5
B5
330
17
100
AcDbEntity
  8
4
100
AcDbLine
 10
360.4472454701886
 20
655.1430349538778
 30
0.0
 11
360.4472454701886
 21
426.1430350230357
 31
0.0
  0
LINE
  5
B6
330
17
100
AcDbEntity
  8
4
100
AcDbLine
 10
360.1472454701889
 20
655.1430349538778
 30
0.0
 11
360.1472454701889
 21
426.1430350230357
 31
0.0
  0
LINE
  5
B7
330
17
100
AcDbEntity
  8
L-CENTER
 48
2.0
100
AcDbLine
 10
362.4472454695847
 20
290.6430350579167
 30
0.0
 11
362.4472454695847
 21
372.6430350458368
 31
0.0
  0
LINE
  5
B8
330
17
100
AcDbEntity
  8
4
100
AcDbLine
 10
553.4472454119027
 20
376.6430350379846
 30
0.0
 11
652.4472453820049
 21
376.6430350379846
 31
0.0
  0
LINE
  5
B9
330
17
100
AcDbEntity
  8
4
100
AcDbLine
 10
533.4472454179427
 20
356.6430350440246
 30
0.0
 11
580.4472454037491
 21
356.6430350440246
 31
0.0
  0
LINE
  5
BA
330
17
100
AcDbEntity
  8
4
100
AcDbLine
 10
580.4472454037491
 20
356.6430350440246
 30
0.0
 11
560.4472454097886
 21
376.6430350379846
 31
0.0
  0
LINE
  5
BB
330
17
100
AcDbEntity
  8
4
100
AcDbLine
 10
553.4472454119027
 20
376.6430350379846
 30
0.0
 11
512.4472454242846
 21
335.6430350503665
 31
0.0
  0
LINE
  5
BC
330
17
100
AcDbEntity
  8
4
100
AcDbLine
 10
538.4472454164329
 20
356.6430350440246
 30
0.0
 11
544.4472454146207
 21
350.6430350458368
 31
0.0
  0
LINE
  5
BD
330
17
100
AcDbEntity
  8
4
100
AcDbLine
 10
652.4472453820049
 20
350.6430350458368
 30
0.0
 11
544.4472454146207
 21
350.6430350458368
 31
0.0
  0
LINE
  5
BE
330
17
100
AcDbEntity
  8
4
100
AcDbLine
 10
312.447245484685
 20
349.6430350467426
 30
0.0
 11
312.447245484685
 21
310.6430350579167
 31
0.0
  0
LINE
  5
BF
330
17
100
AcDbEntity
  8
4
100
AcDbLine
 10
315.4472454837787
 20
352.6430350458368
 30
0.0
 11
512.4472454242846
 21
352.6430350458368
 31
0.0
  0
ARC
  5
C0
330
17
100
AcDbEntity
  8
4
100
AcDbCircle
 10
315.4472454837787
 20
349.6430350467426
 30
0.0
 40
2.999999999094
100
AcDbArc
 50
90.0
 51
180.0
  0
LINE
  5
C1
330
17
100
AcDbEntity
  8
4
100
AcDbLine
 10
512.4472454242846
 20
310.6430350579167
 30
0.0
 11
312.447245484685
 21
310.6430350579167
 31
0.0
  0
LINE
  5
C2
330
17
100
AcDbEntity
  8
4
100
AcDbLine
 10
512.4472454242846
 20
352.6430350458368
 30
0.0
 11
512.4472454242846
 21
310.6430350579167
 31
0.0
  0
LINE
  5
C3
330
17
100
AcDbEntity
  8
4
100
AcDbLine
 10
644.4472453820044
 20
730.9430349310767
 30
0.0
 11
544.4472454146207
 21
730.9430349310767
 31
0.0
  0
LINE
  5
C4
330
17
100
AcDbEntity
  8
4
100
AcDbLine
 10
644.4472453820044
 20
731.9430349307745
 30
0.0
 11
592.4472454001248
 21
731.9430349307747
 31
0.0
  0
LINE
  5
C5
330
17
100
AcDbEntity
  8
4
100
AcDbLine
 10
660.4472453820044
 20
730.9430349310767
 30
0.0
 11
760.4472453493886
 21
730.9430349310767
 31
0.0
  0
LINE
  5
C6
330
17
100
AcDbEntity
  8
4
100
AcDbLine
 10
660.4472453820044
 20
731.9430349307745
 30
0.0
 11
712.447245363885
 21
731.9430349307747
 31
0.0
  0
LINE
  5
C7
330
17
100
AcDbEntity
  8
L-CENTER
 48
2.0
100
AcDbLine
 10
447.4472454439147
 20
717.7609290157941
 30
0.0
 11
447.4472454439147
 21
669.7670138227911
 31
0.0
  0
LINE
  5
C8
330
17
100
AcDbEntity
  8
4
100
AcDbLine
 10
425.447245450559
 20
700.9430349401362
 30
0.0
 11
425.447245450559
 21
698.9430349407405
 31
0.0
  0
LINE
  5
C9
330
17
100
AcDbEntity
  8
4
100
AcDbLine
 10
424.4472454508609
 20
700.9430349401362
 30
0.0
 11
424.4472454508609
 21
709.9430349374186
 31
0.0
  0
LINE
  5
CA
330
17
100
AcDbEntity
  8
4
100
AcDbLine
 10
425.447245450559
 20
698.9430349407405
 30
0.0
 11
469.4472454372703
 21
698.9430349407405
 31
0.0
  0
LINE
  5
CB
330
17
100
AcDbEntity
  8
4
100
AcDbLine
 10
424.4472454508609
 20
700.9430349401362
 30
0.0
 11
470.4472454369688
 21
700.9430349401362
 31
0.0
  0
LINE
  5
CC
330
17
100
AcDbEntity
  8
4
100
AcDbLine
 10
424.4472454508609
 20
704.9430349389283
 30
0.0
 11
470.4472454369688
 21
704.9430349389283
 31
0.0
  0
LINE
  5
CD
330
17
100
AcDbEntity
  8
4
100
AcDbLine
 10
424.4472454508609
 20
709.9430349374186
 30
0.0
 11
470.4472454369688
 21
709.9430349374186
 31
0.0
  0
LINE
  5
CE
330
17
100
AcDbEntity
  8
4
100
AcDbLine
 10
469.4472454372703
 20
700.9430349401362
 30
0.0
 11
469.4472454372703
 21
698.9430349407405
 31
0.0
  0
LINE
  5
CF
330
17
100
AcDbEntity
  8
4
100
AcDbLine
 10
470.4472454369688
 20
700.9430349401362
 30
0.0
 11
470.4472454369688
 21
709.9430349374186
 31
0.0
  0
LINE
  5
D0
330
17
100
AcDbEntity
  8
4
100
AcDbLine
 10
435.9472454473876
 20
704.9430349389283
 30
0.0
 11
435.9472454473876
 21
709.9430349374186
 31
0.0
  0
LINE
  5
D1
330
17
100
AcDbEntity
  8
4
100
AcDbLine
 10
458.9472454404417
 20
704.9430349389283
 30
0.0
 11
458.9472454404417
 21
709.9430349374186
 31
0.0
  0
LINE
  5
D2
330
17
100
AcDbEntity
  8
4
100
AcDbLine
 10
677.4472453744547
 20
688.7899574790179
 30
0.0
 11
677.4472453744547
 21
696.9430349386264
 31
0.0
  0
LINE
  5
D3
330
17
100
AcDbEntity
  8
4
100
AcDbLine
 10
627.4472453895546
 20
689.2191617042406
 30
0.0
 11
627.4472453895546
 21
696.9430349386264
 31
0.0
  0
ARC
  5
D4
330
17
100
AcDbEntity
  8
4
100
AcDbCircle
 10
652.4472453820049
 20
757.3265842188832
 30
0.0
 40
70.0000704013952
100
AcDbArc
 50
249.075817
 51
290.9260769999999
  0
LINE
  5
D5
330
17
100
AcDbEntity
  8
4
100
AcDbLine
 10
635.8703223051161
 20
704.9430349389286
 30
0.0
 11
537.4472454167349
 21
704.9430349389283
 31
0.0
  0
LINE
  5
D6
330
17
100
AcDbEntity
  8
4
100
AcDbLine
 10
669.0241684588927
 20
704.9430349389283
 30
0.0
 11
767.4472453472749
 21
704.9430349389283
 31
0.0
  0
LINE
  5
D7
330
17
100
AcDbEntity
  8
4
100
AcDbLine
 10
627.4472453895546
 20
696.9430349386264
 30
0.0
 11
677.4472453744547
 21
696.9430349386264
 31
0.0
  0
LINE
  5
D8
330
17
100
AcDbEntity
  8
4
100
AcDbLine
 10
422.4472454514648
 20
698.9430349407405
 30
0.0
 11
472.4472454363645
 21
698.9430349407405
 31
0.0
  0
LINE
  5
D9
330
17
100
AcDbEntity
  8
4
100
AcDbLine
 10
422.4472454514648
 20
698.9430349407405
 30
0.0
 11
422.4472454514648
 21
688.6803448029948
 31
0.0
  0
LINE
  5
DA
330
17
100
AcDbEntity
  8
4
100
AcDbLine
 10
472.4472454363645
 20
698.9430349407405
 30
0.0
 11
472.4472454363645
 21
695.7511405755074
 31
0.0
  0
LINE
  5
DB
330
17
100
AcDbEntity
  8
4
100
AcDbLine
 10
594.9472453993699
 20
686.9430349443644
 30
0.0
 11
579.447245404051
 21
704.9430349389283
 31
0.0
  0
LINE
  5
DC
330
17
100
AcDbEntity
  8
4
100
AcDbLine
 10
709.9472453646399
 20
686.9430349443644
 30
0.0
 11
725.4472453599587
 21
704.9430349389283
 31
0.0
  0
LINE
  5
DD
330
17
100
AcDbEntity
  8
4
100
AcDbLine
 10
537.4472454167349
 20
704.9430349389283
 30
0.0
 11
544.4472454146207
 21
730.9430349310767
 31
0.0
  0
LINE
  5
DE
330
17
100
AcDbEntity
  8
4
100
AcDbLine
 10
410.1616046101049
 20
686.9430349443644
 30
0.0
 11
537.4472454167349
 21
704.9430349389283
 31
0.0
  0
LINE
  5
DF
330
17
100
AcDbEntity
  8
4
100
AcDbLine
 10
945.9472452933683
 20
659.6430349525185
 30
0.0
 11
358.947245470642
 21
659.6430349525185
 31
0.0
  0
LINE
  5
E0
330
17
100
AcDbEntity
  8
4
100
AcDbLine
 10
945.9472452933683
 20
659.9430349525185
 30
0.0
 11
358.947245470642
 21
659.9430349525185
 31
0.0
  0
ARC
  5
E1
330
17
100
AcDbEntity
  8
4
100
AcDbCircle
 10
359.9472454703396
 20
685.9430349446664
 30
0.0
 40
0.999999999698
100
AcDbArc
 50
90.0
 51
180.0
  0
LINE
  5
E2
330
17
100
AcDbEntity
  8
4
100
AcDbLine
 10
359.9472454703396
 20
686.9430349443644
 30
0.0
 11
652.4472453820049
 21
686.9430349443644
 31
0.0
  0
LINE
  5
E3
330
17
100
AcDbEntity
  8
4
100
AcDbLine
 10
358.947245470642
 20
685.9430349446664
 30
0.0
 11
358.947245470642
 21
659.6430349525185
 31
0.0
  0
LINE
  5
E4
330
17
100
AcDbEntity
  8
4
100
AcDbLine
 10
592.4472454001248
 20
730.9430349310767
 30
0.0
 11
592.4472454001248
 21
731.9430349307747
 31
0.0
  0
LINE
  5
E5
330
17
100
AcDbEntity
  8
4
100
AcDbLine
 10
712.447245363885
 20
730.9430349310767
 30
0.0
 11
712.447245363885
 21
731.9430349307747
 31
0.0
  0
LINE
  5
E6
330
17
100
AcDbEntity
  8
4
100
AcDbLine
 10
945.9472452933683
 20
685.9430349446664
 30
0.0
 11
945.9472452933683
 21
659.6430349525185
 31
0.0
  0
LINE
  5
E7
330
17
100
AcDbEntity
  8
4
100
AcDbLine
 10
944.9472452936702
 20
686.9430349443644
 30
0.0
 11
652.4472453820049
 21
686.9430349443644
 31
0.0
  0
ARC
  5
E8
330
17
100
AcDbEntity
  8
4
100
AcDbCircle
 10
944.9472452936702
 20
685.9430349446664
 30
0.0
 40
0.999999999698
100
AcDbArc
 50
0.0
 51
90.0
  0
LINE
  5
E9
330
17
100
AcDbEntity
  8
4
100
AcDbLine
 10
894.7328931961583
 20
686.9430349443644
 30
0.0
 11
767.4472453472749
 21
704.9430349389283
 31
0.0
  0
LINE
  5
EA
330
17
100
AcDbEntity
  8
4
100
AcDbLine
 10
767.4472453472749
 20
704.9430349389283
 30
0.0
 11
760.4472453493886
 21
730.9430349310767
 31
0.0
  0
LINE
  5
EB
330
17
100
AcDbEntity
  8
4
100
AcDbLine
 10
930.4472452980485
 20
352.6430350458363
 30
0.0
 11
930.4472452980485
 21
310.6430350579167
 31
0.0
  0
LINE
  5
EC
330
17
100
AcDbEntity
  8
4
100
AcDbLine
 10
954.4472452908008
 20
352.6430350458363
 30
0.0
 11
954.4472452908008
 21
310.6430350579167
 31
0.0
  0
LINE
  5
ED
330
17
100
AcDbEntity
  8
4
100
AcDbLine
 10
965.7472452874786
 20
508.1430349982716
 30
0.0
 11
982.4472452823452
 21
508.1430349982716
 31
0.0
  0
LINE
  5
EE
330
17
100
AcDbEntity
  8
4
100
AcDbLine
 10
965.7472452874786
 20
573.1430349786415
 30
0.0
 11
982.4472452823452
 21
573.1430349786415
 31
0.0
  0
LINE
  5
EF
330
17
100
AcDbEntity
  8
4
100
AcDbLine
 10
982.4472452823452
 20
573.1430349786415
 30
0.0
 11
982.4472452823452
 21
508.1430349982716
 31
0.0
  0
LINE
  5
F0
330
17
100
AcDbEntity
  8
4
100
AcDbLine
 10
1102.447245246105
 20
570.1430349795473
 30
0.0
 11
1100.447245246709
 21
572.1430349789434
 31
0.0
  0
LINE
  5
F1
330
17
100
AcDbEntity
  8
4
100
AcDbLine
 10
1100.447245246709
 20
572.1430349789434
 30
0.0
 11
982.4472452823452
 21
572.1430349789434
 31
0.0
  0
LINE
  5
F2
330
17
100
AcDbEntity
  8
4
100
AcDbLine
 10
1102.447245246105
 20
511.1430349973652
 30
0.0
 11
1100.447245246709
 21
509.1430349979696
 31
0.0
  0
LINE
  5
F3
330
17
100
AcDbEntity
  8
4
100
AcDbLine
 10
1100.447245246709
 20
509.1430349979696
 30
0.0
 11
982.4472452823452
 21
509.1430349979696
 31
0.0
  0
LINE
  5
F4
330
17
100
AcDbEntity
  8
4
100
AcDbLine
 10
1102.447245246105
 20
511.1430349973652
 30
0.0
 11
1102.447245246105
 21
578.1430349771317
 31
0.0
  0
LINE
  5
F5
330
17
100
AcDbEntity
  8
4
100
AcDbLine
 10
1100.447245246709
 20
509.1430349979696
 30
0.0
 11
1100.447245246709
 21
572.1430349789434
 31
0.0
  0
LINE
  5
F6
330
17
100
AcDbEntity
  8
4
100
AcDbLine
 10
992.4472452793248
 20
578.1430349771317
 30
0.0
 11
1102.447245246105
 21
578.1430349771317
 31
0.0
  0
LINE
  5
F7
330
17
100
AcDbEntity
  8
4
100
AcDbLine
 10
992.4472452793248
 20
572.1430349789434
 30
0.0
 11
992.4472452793248
 21
578.1430349771317
 31
0.0
  0
LINE
  5
F8
330
17
100
AcDbEntity
  8
4
100
AcDbLine
 10
1772.285906630398
 20
686.9430349443644
 30
0.0
 11
1756.785906635078
 21
704.9430349389283
 31
0.0
  0
LINE
  5
F9
330
17
100
AcDbEntity
  8
4
100
AcDbLine
 10
1887.285906595668
 20
686.9430349443644
 30
0.0
 11
1902.785906590986
 21
704.9430349389283
 31
0.0
  0
LINE
  5
FA
330
17
100
AcDbEntity
  8
4
100
AcDbLine
 10
1714.785906647762
 20
704.9430349389283
 30
0.0
 11
1721.785906645648
 21
730.9430349310767
 31
0.0
  0
LINE
  5
FB
330
17
100
AcDbEntity
  8
4
100
AcDbLine
 10
1599.547906613032
 20
688.6467436047999
 30
0.0
 11
1714.785906647762
 21
704.9430349389283
 31
0.0
  0
LINE
  5
FC
330
17
100
AcDbEntity
  8
4
100
AcDbLine
 10
1829.785906613032
 20
730.9430349310767
 30
0.0
 11
1721.785906645648
 21
730.9430349310767
 31
0.0
  0
LINE
  5
FD
330
17
100
AcDbEntity
  8
4
100
AcDbLine
 10
1829.785906613032
 20
659.6430349525185
 30
0.0
 11
1536.285906701669
 21
659.6430349525185
 31
0.0
  0
ARC
  5
FE
330
17
100
AcDbEntity
  8
4
100
AcDbCircle
 10
1537.285906701367
 20
685.9430349446664
 30
0.0
 40
0.999999999698
100
AcDbArc
 50
90.0
 51
180.0
  0
LINE
  5
FF
330
17
100
AcDbEntity
  8
4
100
AcDbLine
 10
1537.285906701367
 20
686.9430349443644
 30
0.0
 11
1829.785906613032
 21
686.9430349443644
 31
0.0
  0
LINE
  5
100
330
17
100
AcDbEntity
  8
4
100
AcDbLine
 10
1536.285906701669
 20
685.6430349446664
 30
0.0
 11
1536.285906701669
 21
659.6430349525185
 31
0.0
  0
LINE
  5
101
330
17
100
AcDbEntity
  8
4
100
AcDbLine
 10
1769.785906631153
 20
730.9430349310767
 30
0.0
 11
1769.785906631153
 21
731.9430349307747
 31
0.0
  0
LINE
  5
102
330
17
100
AcDbEntity
  8
4
100
AcDbLine
 10
1829.785906613032
 20
731.9430349307747
 30
0.0
 11
1769.785906631153
 21
731.9430349307747
 31
0.0
  0
LINE
  5
103
330
17
100
AcDbEntity
  8
4
100
AcDbLine
 10
1829.785906613032
 20
731.9430349307747
 30
0.0
 11
1889.785906594911
 21
731.9430349307747
 31
0.0
  0
LINE
  5
104
330
17
100
AcDbEntity
  8
4
100
AcDbLine
 10
1889.785906594911
 20
730.9430349310767
 30
0.0
 11
1889.785906594911
 21
731.9430349307747
 31
0.0
  0
LINE
  5
105
330
17
100
AcDbEntity
  8
4
100
AcDbLine
 10
2123.285906524394
 20
685.9430349446664
 30
0.0
 11
2123.285906524394
 21
659.6430349525185
 31
0.0
  0
LINE
  5
106
330
17
100
AcDbEntity
  8
4
100
AcDbLine
 10
2122.285906524696
 20
686.9430349443644
 30
0.0
 11
1829.785906613032
 21
686.9430349443644
 31
0.0
  0
ARC
  5
107
330
17
100
AcDbEntity
  8
4
100
AcDbCircle
 10
2122.285906524696
 20
685.9430349446664
 30
0.0
 40
0.999999999698
100
AcDbArc
 50
0.0
 51
90.0
  0
LINE
  5
108
330
17
100
AcDbEntity
  8
4
100
AcDbLine
 10
1829.785906613032
 20
659.6430349525185
 30
0.0
 11
2123.285906524394
 21
659.6430349525185
 31
0.0
  0
LINE
  5
109
330
17
100
AcDbEntity
  8
4
100
AcDbLine
 10
1829.785906613032
 20
730.9430349310767
 30
0.0
 11
1937.785906580415
 21
730.9430349310767
 31
0.0
  0
LINE
  5
10A
330
17
100
AcDbEntity
  8
4
100
AcDbLine
 10
2060.023906613033
 20
688.646742703185
 30
0.0
 11
1944.785906578302
 21
704.9430349389283
 31
0.0
  0
LINE
  5
10B
330
17
100
AcDbEntity
  8
4
100
AcDbLine
 10
1944.785906578302
 20
704.9430349389283
 30
0.0
 11
1937.785906580415
 21
730.9430349310767
 31
0.0
  0
LINE
  5
10C
330
17
100
AcDbEntity
  8
4
100
AcDbLine
 10
1829.785906613032
 20
704.9430349389283
 30
0.0
 11
1944.785906578302
 21
704.9430349389283
 31
0.0
  0
LINE
  5
10D
330
17
100
AcDbEntity
  8
4
100
AcDbLine
 10
1829.785906613032
 20
704.9430349389283
 30
0.0
 11
1714.785906647762
 21
704.9430349389283
 31
0.0
  0
LINE
  5
10E
330
17
100
AcDbEntity
  8
4
100
AcDbLine
 10
2019.785906555652
 20
694.3370771956527
 30
0.0
 11
2019.785906555652
 21
696.9430349386264
 31
0.0
  0
LINE
  5
10F
330
17
100
AcDbEntity
  8
4
100
AcDbLine
 10
2022.285906554897
 20
696.9430349386264
 30
0.0
 11
2060.148443234306
 21
696.9430349386264
 31
0.0
  0
LINE
  5
110
330
17
100
AcDbEntity
  8
L-CENTER
 48
2.0
100
AcDbLine
 10
1614.785906677962
 20
782.5936475300357
 30
0.0
 11
1614.785906677962
 21
669.6661828341882
 31
0.0
  0
LINE
  5
111
330
17
100
AcDbEntity
  8
4
100
AcDbLine
 10
1639.785906670412
 20
694.3370771956527
 30
0.0
 11
1639.785906670412
 21
696.9430349386264
 31
0.0
  0
LINE
  5
112
330
17
100
AcDbEntity
  8
L-CENTER
 48
2.0
100
AcDbLine
 10
2113.242202302076
 20
406.6430350289247
 30
0.0
 11
2133.967892186156
 21
406.6430350289247
 31
0.0
  0
LINE
  5
113
330
17
100
AcDbEntity
  8
4
100
AcDbLine
 10
2131.785807929479
 20
398.1139857357257
 30
0.0
 11
2131.785807929479
 21
406.6430350289247
 31
0.0
  0
LINE
  5
114
330
17
100
AcDbEntity
  8
4
100
AcDbLine
 10
2131.785807929479
 20
398.1139857357257
 30
0.0
 11
2128.785906522734
 21
398.3112462990466
 31
0.0
  0
LINE
  5
115
330
17
100
AcDbEntity
  8
4
100
AcDbLine
 10
2131.785807929479
 20
415.1718448855036
 30
0.0
 11
2128.785906522734
 21
414.9745772799297
 31
0.0
  0
LINE
  5
116
330
17
100
AcDbEntity
  8
4
100
AcDbLine
 10
2131.785807929479
 20
415.1718448855036
 30
0.0
 11
2131.785807929479
 21
406.6427955923045
 31
0.0
  0
LINE
  5
117
330
17
100
AcDbEntity
  8
L-CENTER
 48
2.0
100
AcDbLine
 10
2143.488443784979
 20
500.6430350005367
 30
0.0
 11
2109.494160049686
 21
500.6430350005367
 31
0.0
  0
CIRCLE
  5
118
330
17
100
AcDbEntity
  8
4
100
AcDbCircle
 10
1534.785906702122
 20
540.6430349884567
 30
0.0
 40
43.99999998671201
  0
LINE
  5
119
330
17
100
AcDbEntity
  8
4
100
AcDbLine
 10
1757.785906634776
 20
356.6430350440246
 30
0.0
 11
1695.7859066535
 21
356.6430350440246
 31
0.0
  0
LINE
  5
11A
330
17
100
AcDbEntity
  8
4
100
AcDbLine
 10
1757.785906634776
 20
356.6430350440246
 30
0.0
 11
1737.785906640816
 21
376.6430350379846
 31
0.0
  0
LINE
  5
11B
330
17
100
AcDbEntity
  8
4
100
AcDbLine
 10
1901.785906591288
 20
356.6430350440246
 30
0.0
 11
1963.785906572563
 21
356.6430350440246
 31
0.0
  0
LINE
  5
11C
330
17
100
AcDbEntity
  8
4
100
AcDbLine
 10
1901.785906591288
 20
356.6430350440246
 30
0.0
 11
1921.785906585249
 21
376.6430350379846
 31
0.0
  0
ARC
  5
11D
330
17
100
AcDbEntity
  8
4
100
AcDbCircle
 10
1949.990005168279
 20
389.7133308576272
 30
0.0
 40
150.0000422082211
100
AcDbArc
 50
2.988961999999957
 51
37.36478799999997
  0
ARC
  5
11E
330
17
100
AcDbEntity
  8
4
100
AcDbCircle
 10
2164.58277975136
 20
389.7133308576272
 30
0.0
 40
149.9999013631507
100
AcDbArc
 50
142.635622
 51
177.0115969999999
  0
ARC
  5
11F
330
17
100
AcDbEntity
  8
4
100
AcDbCircle
 10
2057.286392459819
 20
471.6430139314762
 30
0.0
 40
15.00002112223056
100
AcDbArc
 50
37.36452799999835
 51
142.6354719999985
  0
LINE
  5
120
330
17
100
AcDbEntity
  8
4
100
AcDbLine
 10
1644.785906668902
 20
415.6430350262067
 30
0.0
 11
1644.785906668902
 21
352.6430350458372
 31
0.0
  0
LINE
  5
121
330
17
100
AcDbEntity
  8
4
100
AcDbLine
 10
1644.055195401517
 20
421.6430350243945
 30
0.0
 11
1659.785906664372
 21
421.6430350243945
 31
0.0
  0
LINE
  5
122
330
17
100
AcDbEntity
  8
4
100
AcDbLine
 10
2014.785906557162
 20
421.6430350243945
 30
0.0
 11
2014.785906557162
 21
352.6430350458368
 31
0.0
  0
LINE
  5
123
330
17
100
AcDbEntity
  8
4
100
AcDbLine
 10
2014.785906557162
 20
421.6430350243945
 30
0.0
 11
1999.785906561693
 21
421.6430350243945
 31
0.0
  0
LINE
  5
124
330
17
100
AcDbEntity
  8
4
100
AcDbLine
 10
1999.785906561693
 20
421.6430350243945
 30
0.0
 11
1999.785906561693
 21
310.6430350579167
 31
0.0
  0
LINE
  5
125
330
17
100
AcDbEntity
  8
4
100
AcDbLine
 10
1619.785906676452
 20
440.6430350186565
 30
0.0
 11
1590.555434854294
 21
440.6430350186565
 31
0.0
  0
ARC
  5
126
330
17
100
AcDbEntity
  8
4
100
AcDbCircle
 10
1619.785906676452
 20
415.6430350262067
 30
0.0
 40
24.99999999245
100
AcDbArc
 50
0.0
 51
90.0
  0
LINE
  5
127
330
17
100
AcDbEntity
  8
4
100
AcDbLine
 10
1659.785906664372
 20
421.6430350243945
 30
0.0
 11
1659.785906664372
 21
310.6430350579167
 31
0.0
  0
LINE
  5
128
330
17
100
AcDbEntity
  8
4
100
AcDbLine
 10
2119.785906525452
 20
376.6430350379846
 30
0.0
 11
2126.285906523489
 21
376.6430350379846
 31
0.0
  0
LINE
  5
129
330
17
100
AcDbEntity
  8
4
100
AcDbLine
 10
1539.785906700612
 20
426.2521688258194
 30
0.0
 11
1539.785906700612
 21
310.6430350579167
 31
0.0
  0
LINE
  5
12A
330
17
100
AcDbEntity
  8
L-CENTER
 48
2.0
100
AcDbLine
 10
1534.785906702122
 20
676.4367391727992
 30
0.0
 11
1534.785906702122
 21
404.8493308041143
 31
0.0
  0
LINE
  5
12B
330
17
100
AcDbEntity
  8
4
100
AcDbLine
 10
1533.285906702575
 20
655.1332673482466
 30
0.0
 11
1533.285906702575
 21
656.6430349534244
 31
0.0
  0
LINE
  5
12C
330
17
100
AcDbEntity
  8
4
100
AcDbLine
 10
1533.285906702575
 20
656.6430349534244
 30
0.0
 11
2126.285906523489
 21
656.6430349534244
 31
0.0
  0
LINE
  5
12D
330
17
100
AcDbEntity
  8
4
100
AcDbLine
 10
2119.785906525452
 20
376.6430350379846
 30
0.0
 11
2119.785906525452
 21
310.6430350579167
 31
0.0
  0
LINE
  5
12E
330
17
100
AcDbEntity
  8
4
100
AcDbLine
 10
2126.285906523489
 20
376.6430350379846
 30
0.0
 11
2126.285906523489
 21
656.6430349534244
 31
0.0
  0
LINE
  5
12F
330
17
100
AcDbEntity
  8
4
100
AcDbLine
 10
2126.285906523489
 20
391.6430350334545
 30
0.0
 11
2128.785906522734
 21
391.6430350334545
 31
0.0
  0
LINE
  5
130
330
17
100
AcDbEntity
  8
4
100
AcDbLine
 10
2128.785906522734
 20
391.6430350334545
 30
0.0
 11
2128.785906522734
 21
480.6430350065766
 31
0.0
  0
LINE
  5
131
330
17
100
AcDbEntity
  8
4
100
AcDbLine
 10
2126.285906523489
 20
520.6430349944967
 30
0.0
 11
2131.785906521828
 21
520.6430349944967
 31
0.0
  0
LINE
  5
132
330
17
100
AcDbEntity
  8
4
100
AcDbLine
 10
2126.285906523489
 20
480.6430350065766
 30
0.0
 11
2131.785906521828
 21
480.6430350065766
 31
0.0
  0
LINE
  5
133
330
17
100
AcDbEntity
  8
4
100
AcDbLine
 10
2131.785906521828
 20
480.6430350065766
 30
0.0
 11
2131.785906521828
 21
520.6430349944967
 31
0.0
  0
LINE
  5
134
330
17
100
AcDbEntity
  8
4
100
AcDbLine
 10
2123.285906524394
 20
656.6430349534244
 30
0.0
 11
2123.285906524394
 21
659.6430349525185
 31
0.0
  0
LINE
  5
135
330
17
100
AcDbEntity
  8
4
100
AcDbLine
 10
2123.285906524394
 20
659.6430349525185
 30
0.0
 11
1536.285906701669
 21
659.6430349525185
 31
0.0
  0
LINE
  5
136
330
17
100
AcDbEntity
  8
4
100
AcDbLine
 10
2123.285906524394
 20
659.9430349525185
 30
0.0
 11
1536.285906701669
 21
659.9430349525185
 31
0.0
  0
LINE
  5
137
330
17
100
AcDbEntity
  8
4
100
AcDbLine
 10
1536.285906701669
 20
656.6430349534244
 30
0.0
 11
1536.285906701669
 21
659.6430349525185
 31
0.0
  0
ARC
  5
138
330
17
100
AcDbEntity
  8
4
100
AcDbCircle
 10
1534.785906702122
 20
55.1430351350773
 30
0.0
 40
600.0000068610535
100
AcDbArc
 50
89.99997700000003
 51
100.013902
  0
ARC
  5
139
330
17
100
AcDbEntity
  8
4
100
AcDbCircle
 10
1534.785906702122
 20
1026.143034841836
 30
0.0
 40
599.9999927765465
100
AcDbArc
 50
259.986784
 51
270.000886
  0
ARC
  5
13A
330
17
100
AcDbEntity
  8
4
100
AcDbCircle
 10
2017.785906556256
 20
540.6430349884567
 30
0.0
 40
600.0000561568281
100
AcDbArc
 50
170.282462
 51
189.7180099999999
  0
ARC
  5
13B
330
17
100
AcDbEntity
  8
4
100
AcDbCircle
 10
1431.32399124041
 20
641.078830732773
 30
0.0
 40
4.999999998490001
100
AcDbArc
 50
100.016073000009
 51
170.2819550000015
  0
ARC
  5
13C
330
17
100
AcDbEntity
  8
4
100
AcDbCircle
 10
1431.32399124041
 20
440.2072462863939
 30
0.0
 40
4.999999998490001
100
AcDbArc
 50
189.7180449999985
 51
259.983926999991
  0
LINE
  5
13D
330
17
100
AcDbEntity
  8
L-CENTER
 48
2.0
100
AcDbLine
 10
1599.785906682492
 20
290.6430350579167
 30
0.0
 11
1599.785906682492
 21
372.6430350458368
 31
0.0
  0
LINE
  5
13E
330
17
100
AcDbEntity
  8
L-CENTER
 48
2.0
100
AcDbLine
 10
2059.785906543572
 20
290.6430350579167
 30
0.0
 11
2059.785906543572
 21
372.6430350458368
 31
0.0
  0
CIRCLE
  5
13F
330
17
100
AcDbEntity
  8
4
100
AcDbCircle
 10
1534.785906702122
 20
540.6430349884567
 30
0.0
 40
114.499999965421
  0
LINE
  5
140
330
17
100
AcDbEntity
  8
4
100
AcDbLine
 10
1674.785906659842
 20
352.6430350458368
 30
0.0
 11
1674.785906659842
 21
310.6430350579167
 31
0.0
  0
LINE
  5
141
330
17
100
AcDbEntity
  8
4
100
AcDbLine
 10
1674.785906659842
 20
310.6430350579167
 30
0.0
 11
1539.785906700612
 21
310.6430350579167
 31
0.0
  0
LINE
  5
142
330
17
100
AcDbEntity
  8
4
100
AcDbLine
 10
1715.78590664746
 20
356.6430350440246
 30
0.0
 11
1721.785906645648
 21
350.6430350458368
 31
0.0
  0
LINE
  5
143
330
17
100
AcDbEntity
  8
4
100
AcDbLine
 10
1715.78590664746
 20
376.6430350379846
 30
0.0
 11
1674.785906659842
 21
335.6430350503665
 31
0.0
  0
LINE
  5
144
330
17
100
AcDbEntity
  8
4
100
AcDbLine
 10
1829.785906613032
 20
350.6430350458368
 30
0.0
 11
1721.785906645648
 21
350.6430350458368
 31
0.0
  0
LINE
  5
145
330
17
100
AcDbEntity
  8
4
100
AcDbLine
 10
1829.785906613032
 20
376.6430350379846
 30
0.0
 11
1715.78590664746
 21
376.6430350379846
 31
0.0
  0
ARC
  5
146
330
17
100
AcDbEntity
  8
4
100
AcDbCircle
 10
1542.785906699707
 20
349.6430350467426
 30
0.0
 40
2.999999999094
100
AcDbArc
 50
90.0
 51
180.0
  0
LINE
  5
147
330
17
100
AcDbEntity
  8
4
100
AcDbLine
 10
1542.785906699707
 20
352.6430350458368
 30
0.0
 11
1674.785906659842
 21
352.6430350458368
 31
0.0
  0
LINE
  5
148
330
17
100
AcDbEntity
  8
4
100
AcDbLine
 10
2116.785906526359
 20
352.6430350458368
 30
0.0
 11
1984.785906566222
 21
352.6430350458368
 31
0.0
  0
ARC
  5
149
330
17
100
AcDbEntity
  8
4
100
AcDbCircle
 10
2116.785906526359
 20
349.6430350467426
 30
0.0
 40
2.999999999094
100
AcDbArc
 50
0.0
 51
90.0
  0
LINE
  5
14A
330
17
100
AcDbEntity
  8
4
100
AcDbLine
 10
1829.785906613032
 20
376.6430350379846
 30
0.0
 11
1943.785906578604
 21
376.6430350379846
 31
0.0
  0
LINE
  5
14B
330
17
100
AcDbEntity
  8
4
100
AcDbLine
 10
1829.785906613032
 20
350.6430350458368
 30
0.0
 11
1937.785906580415
 21
350.6430350458368
 31
0.0
  0
LINE
  5
14C
330
17
100
AcDbEntity
  8
4
100
AcDbLine
 10
1943.785906578604
 20
376.6430350379846
 30
0.0
 11
1984.785906566222
 21
335.6430350503665
 31
0.0
  0
LINE
  5
14D
330
17
100
AcDbEntity
  8
4
100
AcDbLine
 10
1943.785906578604
 20
356.6430350440246
 30
0.0
 11
1937.785906580415
 21
350.6430350458368
 31
0.0
  0
LINE
  5
14E
330
17
100
AcDbEntity
  8
4
100
AcDbLine
 10
1984.785906566222
 20
310.6430350579167
 30
0.0
 11
2119.785906525452
 21
310.6430350579167
 31
0.0
  0
LINE
  5
14F
330
17
100
AcDbEntity
  8
4
100
AcDbLine
 10
1999.785906561693
 20
350.6430350458368
 30
0.0
 11
1999.785906561693
 21
310.6430350579167
 31
0.0
  0
LINE
  5
150
330
17
100
AcDbEntity
  8
4
100
AcDbLine
 10
1984.785906566222
 20
352.6430350458368
 30
0.0
 11
1984.785906566222
 21
310.6430350579167
 31
0.0
  0
LINE
  5
152
330
17
100
AcDbEntity
  8
L-CENTER
 48
2.0
100
AcDbLine
 10
652.4472453820049
 20
782.5936475300357
 30
0.0
 11
652.4472453820049
 21
171.748299925197
 31
0.0
  0
LINE
  5
15C
330
17
100
AcDbEntity
  8
4
100
AcDbLine
 10
2099.785987126458
 20
397.5348685359354
 30
0.0
 11
2099.785987126458
 21
352.6430350458368
 31
0.0
  0
LINE
  5
15D
330
17
100
AcDbEntity
  8
4
100
AcDbLine
 10
964.7472452877805
 20
636.030034988456
 30
0.0
 11
974.7472452877805
 21
636.030034988456
 31
0.0
  0
LINE
  5
15E
330
17
100
AcDbEntity
  8
4
100
AcDbLine
 10
967.7472452877805
 20
636.030034988456
 30
0.0
 11
967.7472452877805
 21
614.1300349884573
 31
0.0
  0
LINE
  5
15F
330
17
100
AcDbEntity
  8
4
 62
     3
100
AcDbLine
 10
975.7472452877805
 20
633.280034988456
 30
0.0
 11
975.7472452877805
 21
616.8800349884573
 31
0.0
  0
LINE
  5
160
330
17
100
AcDbEntity
  8
4
100
AcDbLine
 10
964.7472452877805
 20
614.1300349884573
 30
0.0
 11
974.7472452877805
 21
614.1300349884573
 31
0.0
  0
LINE
  5
161
330
17
100
AcDbEntity
  8
L-CENTER
 48
2.0
100
AcDbLine
 10
935.9002157084637
 20
625.0800349884566
 30
0.0
 11
979.1911250823509
 21
625.0800349884566
 31
0.0
  0
LINE
  5
162
330
17
100
AcDbEntity
  8
4
100
AcDbLine
 10
967.7472452877805
 20
619.6300349884573
 30
0.0
 11
974.7472452877814
 21
619.6300349884573
 31
0.0
  0
ARC
  5
163
330
17
100
AcDbEntity
  8
4
100
AcDbCircle
 10
971.4659952877805
 20
616.8800349884573
 30
0.0
 40
4.281249999999739
100
AcDbArc
 50
320.0337869562023
 51
39.96621304379763
  0
ARC
  5
164
330
17
100
AcDbEntity
  8
4
100
AcDbCircle
 10
971.4659952877805
 20
633.280034988456
 30
0.0
 40
4.281249999999739
100
AcDbArc
 50
320.0337869562023
 51
39.96621304379763
  0
ARC
  5
165
330
17
100
AcDbEntity
  8
4
100
AcDbCircle
 10
960.395995287779
 20
625.0800349884557
 30
0.0
 40
15.35125000000168
100
AcDbArc
 50
339.2053329551341
 51
20.79466704487132
  0
LINE
  5
166
330
17
100
AcDbEntity
  8
4
100
AcDbLine
 10
967.7472452877805
 20
630.530034988456
 30
0.0
 11
974.7472452877814
 21
630.530034988456
 31
0.0
  0
LINE
  5
167
330
17
100
AcDbEntity
  8
L-CENTER
 48
2.0
100
AcDbLine
 10
935.9002157084637
 20
589.3930349884567
 30
0.0
 11
979.1911250823509
 21
589.3930349884567
 31
0.0
  0
ARC
  5
168
330
17
100
AcDbEntity
  8
4
100
AcDbCircle
 10
971.4659952877805
 20
597.5930349884561
 30
0.0
 40
4.281249999999739
100
AcDbArc
 50
320.0337869562023
 51
39.96621304379763
  0
LINE
  5
169
330
17
100
AcDbEntity
  8
4
100
AcDbLine
 10
967.7472452877805
 20
600.3430349884561
 30
0.0
 11
967.7472452877805
 21
578.4430349884574
 31
0.0
  0
ARC
  5
16A
330
17
100
AcDbEntity
  8
4
100
AcDbCircle
 10
971.4659952877805
 20
581.1930349884574
 30
0.0
 40
4.281249999999739
100
AcDbArc
 50
320.0337869562023
 51
39.96621304379763
  0
ARC
  5
16B
330
17
100
AcDbEntity
  8
4
100
AcDbCircle
 10
960.395995287779
 20
589.3930349884558
 30
0.0
 40
15.35125000000168
100
AcDbArc
 50
339.2053329551341
 51
20.79466704487132
  0
LINE
  5
16C
330
17
100
AcDbEntity
  8
4
 62
     3
100
AcDbLine
 10
975.7472452877805
 20
597.5930349884561
 30
0.0
 11
975.7472452877805
 21
581.1930349884574
 31
0.0
  0
LINE
  5
16D
330
17
100
AcDbEntity
  8
4
100
AcDbLine
 10
967.7472452877805
 20
594.8430349884561
 30
0.0
 11
974.7472452877814
 21
594.8430349884561
 31
0.0
  0
LINE
  5
16E
330
17
100
AcDbEntity
  8
4
100
AcDbLine
 10
967.7472452877805
 20
583.9430349884574
 30
0.0
 11
974.7472452877814
 21
583.9430349884574
 31
0.0
  0
LINE
  5
16F
330
17
100
AcDbEntity
  8
4
100
AcDbLine
 10
964.7472452877805
 20
578.4430349884574
 30
0.0
 11
974.7472452877805
 21
578.4430349884574
 31
0.0
  0
LINE
  5
170
330
17
100
AcDbEntity
  8
4
100
AcDbLine
 10
964.7472452877805
 20
600.3430349884561
 30
0.0
 11
974.7472452877805
 21
600.3430349884561
 31
0.0
  0
LINE
  5
171
330
17
100
AcDbEntity
  8
L-CENTER
 48
2.0
100
AcDbLine
 10
935.9002157084637
 20
491.8930349884567
 30
0.0
 11
979.1911250823509
 21
491.8930349884567
 31
0.0
  0
LINE
  5
172
330
17
100
AcDbEntity
  8
L-CENTER
 48
2.0
100
AcDbLine
 10
935.9002157084637
 20
456.2060349884568
 30
0.0
 11
979.1911250823509
 21
456.2060349884568
 31
0.0
  0
LINE
  5
173
330
17
100
AcDbEntity
  8
4
 62
     3
100
AcDbLine
 10
975.7472452877805
 20
483.6930349884574
 30
0.0
 11
975.7472452877805
 21
500.0930349884561
 31
0.0
  0
ARC
  5
174
330
17
100
AcDbEntity
  8
4
100
AcDbCircle
 10
960.395995287779
 20
491.8930349884577
 30
0.0
 40
15.35125000000168
100
AcDbArc
 50
339.2053329551276
 51
20.79466704486517
  0
LINE
  5
175
330
17
100
AcDbEntity
  8
4
100
AcDbLine
 10
967.7472452877805
 20
480.9430349884574
 30
0.0
 11
967.7472452877805
 21
502.8430349884561
 31
0.0
  0
LINE
  5
176
330
17
100
AcDbEntity
  8
4
100
AcDbLine
 10
964.7472452877805
 20
502.8430349884561
 30
0.0
 11
974.7472452877805
 21
502.8430349884561
 31
0.0
  0
LINE
  5
177
330
17
100
AcDbEntity
  8
4
100
AcDbLine
 10
967.7472452877805
 20
497.3430349884561
 30
0.0
 11
974.7472452877814
 21
497.3430349884561
 31
0.0
  0
ARC
  5
178
330
17
100
AcDbEntity
  8
4
100
AcDbCircle
 10
971.4659952877805
 20
500.0930349884561
 30
0.0
 40
4.281249999999739
100
AcDbArc
 50
320.0337869562023
 51
39.96621304379763
  0
ARC
  5
179
330
17
100
AcDbEntity
  8
4
100
AcDbCircle
 10
971.4659952877805
 20
448.0060349884575
 30
0.0
 40
4.281249999999739
100
AcDbArc
 50
320.0337869562005
 51
39.96621304379958
  0
LINE
  5
17A
330
17
100
AcDbEntity
  8
4
100
AcDbLine
 10
967.7472452877805
 20
445.2560349884575
 30
0.0
 11
967.7472452877805
 21
467.1560349884562
 31
0.0
  0
LINE
  5
17B
330
17
100
AcDbEntity
  8
4
100
AcDbLine
 10
964.7472452877805
 20
480.9430349884574
 30
0.0
 11
974.7472452877805
 21
480.9430349884574
 31
0.0
  0
LINE
  5
17C
330
17
100
AcDbEntity
  8
4
100
AcDbLine
 10
967.7472452877805
 20
486.4430349884574
 30
0.0
 11
974.7472452877814
 21
486.4430349884574
 31
0.0
  0
ARC
  5
17D
330
17
100
AcDbEntity
  8
4
100
AcDbCircle
 10
971.4659952877805
 20
483.6930349884574
 30
0.0
 40
4.281249999999739
100
AcDbArc
 50
320.0337869562023
 51
39.96621304379763
  0
ARC
  5
17E
330
17
100
AcDbEntity
  8
4
100
AcDbCircle
 10
971.4659952877805
 20
464.4060349884562
 30
0.0
 40
4.281249999999739
100
AcDbArc
 50
320.0337869562023
 51
39.96621304379763
  0
ARC
  5
17F
330
17
100
AcDbEntity
  8
4
100
AcDbCircle
 10
960.395995287779
 20
456.2060349884578
 30
0.0
 40
15.35125000000168
100
AcDbArc
 50
339.2053329551287
 51
20.79466704486517
  0
LINE
  5
180
330
17
100
AcDbEntity
  8
4
 62
     3
100
AcDbLine
 10
975.7472452877805
 20
448.0060349884575
 30
0.0
 11
975.7472452877805
 21
464.4060349884562
 31
0.0
  0
LINE
  5
181
330
17
100
AcDbEntity
  8
4
100
AcDbLine
 10
967.7472452877805
 20
450.7560349884575
 30
0.0
 11
974.7472452877814
 21
450.7560349884575
 31
0.0
  0
LINE
  5
182
330
17
100
AcDbEntity
  8
4
100
AcDbLine
 10
967.7472452877805
 20
461.6560349884562
 30
0.0
 11
974.7472452877814
 21
461.6560349884562
 31
0.0
  0
LINE
  5
183
330
17
100
AcDbEntity
  8
4
100
AcDbLine
 10
964.7472452877805
 20
467.1560349884562
 30
0.0
 11
974.7472452877805
 21
467.1560349884562
 31
0.0
  0
LINE
  5
184
330
17
100
AcDbEntity
  8
4
100
AcDbLine
 10
964.7472452877805
 20
445.2560349884575
 30
0.0
 11
974.7472452877805
 21
445.2560349884575
 31
0.0
  0
LINE
  5
185
330
17
100
AcDbEntity
  8
4
100
AcDbLine
 10
340.1472454762288
 20
445.2560349884575
 30
0.0
 11
330.1472454762288
 21
445.2560349884575
 31
0.0
  0
LINE
  5
186
330
17
100
AcDbEntity
  8
4
100
AcDbLine
 10
340.1472454762288
 20
467.1560349884562
 30
0.0
 11
330.1472454762288
 21
467.1560349884562
 31
0.0
  0
LINE
  5
187
330
17
100
AcDbEntity
  8
4
100
AcDbLine
 10
337.1472454762288
 20
461.6560349884562
 30
0.0
 11
330.1472454762284
 21
461.6560349884562
 31
0.0
  0
LINE
  5
188
330
17
100
AcDbEntity
  8
4
100
AcDbLine
 10
337.1472454762288
 20
450.7560349884575
 30
0.0
 11
330.1472454762284
 21
450.7560349884575
 31
0.0
  0
LINE
  5
189
330
17
100
AcDbEntity
  8
4
 62
     3
100
AcDbLine
 10
329.1472454762288
 20
448.0060349884575
 30
0.0
 11
329.1472454762288
 21
464.4060349884562
 31
0.0
  0
ARC
  5
18A
330
17
100
AcDbEntity
  8
4
100
AcDbCircle
 10
344.4984954762303
 20
456.2060349884578
 30
0.0
 40
15.35125000000168
100
AcDbArc
 50
159.2053329551331
 51
200.7946670448714
  0
ARC
  5
18B
330
17
100
AcDbEntity
  8
4
100
AcDbCircle
 10
333.4284954762284
 20
464.4060349884562
 30
0.0
 40
4.281249999999739
100
AcDbArc
 50
140.0337869561971
 51
219.9662130438029
  0
LINE
  5
18C
330
17
100
AcDbEntity
  8
4
100
AcDbLine
 10
337.1472454762288
 20
445.2560349884575
 30
0.0
 11
337.1472454762288
 21
467.1560349884562
 31
0.0
  0
ARC
  5
18D
330
17
100
AcDbEntity
  8
4
100
AcDbCircle
 10
333.4284954762284
 20
448.0060349884575
 30
0.0
 40
4.281249999999739
100
AcDbArc
 50
140.0337869561971
 51
219.9662130438029
  0
ARC
  5
18E
330
17
100
AcDbEntity
  8
4
100
AcDbCircle
 10
333.4284954762284
 20
483.6930349884574
 30
0.0
 40
4.281249999999739
100
AcDbArc
 50
140.0337869561971
 51
219.9662130438029
  0
LINE
  5
18F
330
17
100
AcDbEntity
  8
4
100
AcDbLine
 10
337.1472454762288
 20
486.4430349884574
 30
0.0
 11
330.1472454762284
 21
486.4430349884574
 31
0.0
  0
LINE
  5
190
330
17
100
AcDbEntity
  8
4
100
AcDbLine
 10
340.1472454762288
 20
480.9430349884574
 30
0.0
 11
330.1472454762288
 21
480.9430349884574
 31
0.0
  0
ARC
  5
191
330
17
100
AcDbEntity
  8
4
100
AcDbCircle
 10
333.4284954762284
 20
500.0930349884561
 30
0.0
 40
4.281249999999739
100
AcDbArc
 50
140.0337869561971
 51
219.9662130438029
  0
LINE
  5
192
330
17
100
AcDbEntity
  8
4
100
AcDbLine
 10
337.1472454762288
 20
497.3430349884561
 30
0.0
 11
330.1472454762284
 21
497.3430349884561
 31
0.0
  0
LINE
  5
193
330
17
100
AcDbEntity
  8
4
100
AcDbLine
 10
340.1472454762288
 20
502.8430349884561
 30
0.0
 11
330.1472454762288
 21
502.8430349884561
 31
0.0
  0
LINE
  5
194
330
17
100
AcDbEntity
  8
4
100
AcDbLine
 10
337.1472454762288
 20
480.9430349884574
 30
0.0
 11
337.1472454762288
 21
502.8430349884561
 31
0.0
  0
ARC
  5
195
330
17
100
AcDbEntity
  8
4
100
AcDbCircle
 10
344.4984954762303
 20
491.8930349884577
 30
0.0
 40
15.35125000000168
100
AcDbArc
 50
159.2053329551331
 51
200.7946670448714
  0
LINE
  5
196
330
17
100
AcDbEntity
  8
4
 62
     3
100
AcDbLine
 10
329.1472454762288
 20
483.6930349884574
 30
0.0
 11
329.1472454762288
 21
500.0930349884561
 31
0.0
  0
LINE
  5
197
330
17
100
AcDbEntity
  8
4
 62
     3
100
AcDbLine
 10
329.1472454762288
 20
597.5930349884561
 30
0.0
 11
329.1472454762288
 21
581.1930349884574
 31
0.0
  0
ARC
  5
198
330
17
100
AcDbEntity
  8
4
100
AcDbCircle
 10
344.4984954762303
 20
589.3930349884558
 30
0.0
 40
15.35125000000168
100
AcDbArc
 50
159.2053329551286
 51
200.7946670448659
  0
LINE
  5
199
330
17
100
AcDbEntity
  8
4
100
AcDbLine
 10
337.1472454762288
 20
600.3430349884561
 30
0.0
 11
337.1472454762288
 21
578.4430349884574
 31
0.0
  0
LINE
  5
19A
330
17
100
AcDbEntity
  8
4
100
AcDbLine
 10
340.1472454762288
 20
578.4430349884574
 30
0.0
 11
330.1472454762288
 21
578.4430349884574
 31
0.0
  0
LINE
  5
19B
330
17
100
AcDbEntity
  8
4
100
AcDbLine
 10
337.1472454762288
 20
583.9430349884574
 30
0.0
 11
330.1472454762284
 21
583.9430349884574
 31
0.0
  0
ARC
  5
19C
330
17
100
AcDbEntity
  8
4
100
AcDbCircle
 10
333.4284954762284
 20
581.1930349884574
 30
0.0
 40
4.281249999999739
100
AcDbArc
 50
140.0337869561971
 51
219.9662130438029
  0
ARC
  5
19D
330
17
100
AcDbEntity
  8
4
100
AcDbCircle
 10
333.4284954762284
 20
633.280034988456
 30
0.0
 40
4.281249999999739
100
AcDbArc
 50
140.0337869561971
 51
219.9662130438029
  0
LINE
  5
19E
330
17
100
AcDbEntity
  8
4
100
AcDbLine
 10
337.1472454762288
 20
636.030034988456
 30
0.0
 11
337.1472454762288
 21
614.1300349884573
 31
0.0
  0
LINE
  5
19F
330
17
100
AcDbEntity
  8
4
100
AcDbLine
 10
340.1472454762288
 20
600.3430349884561
 30
0.0
 11
330.1472454762288
 21
600.3430349884561
 31
0.0
  0
LINE
  5
1A0
330
17
100
AcDbEntity
  8
4
100
AcDbLine
 10
337.1472454762288
 20
594.8430349884561
 30
0.0
 11
330.1472454762284
 21
594.8430349884561
 31
0.0
  0
ARC
  5
1A1
330
17
100
AcDbEntity
  8
4
100
AcDbCircle
 10
333.4284954762284
 20
597.5930349884561
 30
0.0
 40
4.281249999999739
100
AcDbArc
 50
140.0337869561971
 51
219.9662130438029
  0
ARC
  5
1A2
330
17
100
AcDbEntity
  8
4
100
AcDbCircle
 10
333.4284954762284
 20
616.8800349884573
 30
0.0
 40
4.281249999999739
100
AcDbArc
 50
140.0337869561971
 51
219.9662130438029
  0
ARC
  5
1A3
330
17
100
AcDbEntity
  8
4
100
AcDbCircle
 10
344.4984954762303
 20
625.0800349884557
 30
0.0
 40
15.35125000000168
100
AcDbArc
 50
159.2053329551286
 51
200.7946670448659
  0
LINE
  5
1A4
330
17
100
AcDbEntity
  8
4
 62
     3
100
AcDbLine
 10
329.1472454762288
 20
633.280034988456
 30
0.0
 11
329.1472454762288
 21
616.8800349884573
 31
0.0
  0
LINE
  5
1A5
330
17
100
AcDbEntity
  8
4
100
AcDbLine
 10
337.1472454762288
 20
630.530034988456
 30
0.0
 11
330.1472454762284
 21
630.530034988456
 31
0.0
  0
LINE
  5
1A6
330
17
100
AcDbEntity
  8
4
100
AcDbLine
 10
337.1472454762288
 20
619.6300349884573
 30
0.0
 11
330.1472454762284
 21
619.6300349884573
 31
0.0
  0
LINE
  5
1A7
330
17
100
AcDbEntity
  8
4
100
AcDbLine
 10
340.1472454762288
 20
614.1300349884573
 30
0.0
 11
330.1472454762288
 21
614.1300349884573
 31
0.0
  0
LINE
  5
1A8
330
17
100
AcDbEntity
  8
4
100
AcDbLine
 10
340.1472454762288
 20
636.030034988456
 30
0.0
 11
330.1472454762288
 21
636.030034988456
 31
0.0
  0
LINE
  5
1A9
330
17
100
AcDbEntity
  8
L-CENTER
 48
2.0
100
AcDbLine
 10
368.9942750555456
 20
625.0800349884566
 30
0.0
 11
325.7033656816584
 21
625.0800349884566
 31
0.0
  0
LINE
  5
1AA
330
17
100
AcDbEntity
  8
L-CENTER
 48
2.0
100
AcDbLine
 10
368.9942750555456
 20
589.3930349884567
 30
0.0
 11
325.7033656816584
 21
589.3930349884567
 31
0.0
  0
LINE
  5
1AB
330
17
100
AcDbEntity
  8
L-CENTER
 48
2.0
100
AcDbLine
 10
368.9942750555456
 20
491.8930349884567
 30
0.0
 11
325.7033656816584
 21
491.8930349884567
 31
0.0
  0
LINE
  5
1AC
330
17
100
AcDbEntity
  8
L-CENTER
 48
2.0
100
AcDbLine
 10
368.9942750555456
 20
456.2060349884568
 30
0.0
 11
325.7033656816584
 21
456.2060349884568
 31
0.0
  0
LINE
  5
1AD
330
17
100
AcDbEntity
  8
L-CENTER
 48
2.0
100
AcDbLine
 10
791.6972453820049
 20
658.0960053650476
 30
0.0
 11
791.6972453820049
 21
701.3869147389348
 31
0.0
  0
ARC
  5
1AE
330
17
100
AcDbEntity
  8
4
100
AcDbCircle
 10
783.4972453820055
 20
693.6617849443649
 30
0.0
 40
4.281249999999739
100
AcDbArc
 50
50.03378695619809
 51
129.9662130438019
  0
LINE
  5
1AF
330
17
100
AcDbEntity
  8
4
100
AcDbLine
 10
780.7472453820055
 20
689.9430349443644
 30
0.0
 11
802.6472453820043
 21
689.9430349443644
 31
0.0
  0
ARC
  5
1B0
330
17
100
AcDbEntity
  8
4
100
AcDbCircle
 10
799.8972453820043
 20
693.6617849443649
 30
0.0
 40
4.281249999999739
100
AcDbArc
 50
50.03378695619809
 51
129.9662130438019
  0
ARC
  5
1B1
330
17
100
AcDbEntity
  8
4
100
AcDbCircle
 10
791.6972453820058
 20
682.5917849443629
 30
0.0
 40
15.35125000000168
100
AcDbArc
 50
69.20533295513404
 51
110.7946670448713
  0
LINE
  5
1B2
330
17
100
AcDbEntity
  8
4
 62
     3
100
AcDbLine
 10
783.4972453820055
 20
697.9430349443644
 30
0.0
 11
799.8972453820043
 21
697.9430349443644
 31
0.0
  0
LINE
  5
1B3
330
17
100
AcDbEntity
  8
4
100
AcDbLine
 10
786.2472453820055
 20
689.9430349443644
 30
0.0
 11
786.2472453820055
 21
696.9430349443653
 31
0.0
  0
LINE
  5
1B4
330
17
100
AcDbEntity
  8
4
100
AcDbLine
 10
797.1472453820043
 20
689.9430349443644
 30
0.0
 11
797.1472453820043
 21
696.9430349443653
 31
0.0
  0
LINE
  5
1B5
330
17
100
AcDbEntity
  8
4
100
AcDbLine
 10
802.6472453820043
 20
686.9430349443644
 30
0.0
 11
802.6472453820043
 21
696.9430349443644
 31
0.0
  0
LINE
  5
1B6
330
17
100
AcDbEntity
  8
4
100
AcDbLine
 10
780.7472453820055
 20
686.9430349443644
 30
0.0
 11
780.7472453820055
 21
696.9430349443644
 31
0.0
  0
LINE
  5
1B7
330
17
100
AcDbEntity
  8
4
 62
     3
100
AcDbLine
 10
922.7472453820051
 20
697.9430349443644
 30
0.0
 11
939.1472453820047
 21
697.9430349443644
 31
0.0
  0
LINE
  5
1B8
330
17
100
AcDbEntity
  8
4
100
AcDbLine
 10
919.9972453820051
 20
689.9430349443644
 30
0.0
 11
941.8972453820047
 21
689.9430349443644
 31
0.0
  0
ARC
  5
1B9
330
17
100
AcDbEntity
  8
4
100
AcDbCircle
 10
930.9472453820058
 20
682.5917849443629
 30
0.0
 40
15.35125000000168
100
AcDbArc
 50
69.20533295513404
 51
110.7946670448732
  0
LINE
  5
1BA
330
17
100
AcDbEntity
  8
4
100
AcDbLine
 10
925.4972453820051
 20
689.9430349443644
 30
0.0
 11
925.4972453820051
 21
696.9430349443653
 31
0.0
  0
LINE
  5
1BB
330
17
100
AcDbEntity
  8
4
100
AcDbLine
 10
919.9972453820051
 20
686.9430349443644
 30
0.0
 11
919.9972453820051
 21
696.9430349443644
 31
0.0
  0
ARC
  5
1BC
330
17
100
AcDbEntity
  8
4
100
AcDbCircle
 10
922.7472453820051
 20
693.6617849443649
 30
0.0
 40
4.281249999999739
100
AcDbArc
 50
50.03378695619809
 51
129.9662130438019
  0
LINE
  5
1BD
330
17
100
AcDbEntity
  8
4
100
AcDbLine
 10
941.8972453820047
 20
686.9430349443644
 30
0.0
 11
941.8972453820047
 21
696.9430349443644
 31
0.0
  0
LINE
  5
1BE
330
17
100
AcDbEntity
  8
4
100
AcDbLine
 10
936.3972453820047
 20
689.9430349443644
 30
0.0
 11
936.3972453820047
 21
696.9430349443653
 31
0.0
  0
ARC
  5
1BF
330
17
100
AcDbEntity
  8
4
100
AcDbCircle
 10
939.1472453820047
 20
693.6617849443649
 30
0.0
 40
4.281249999999739
100
AcDbArc
 50
50.03378695619809
 51
129.9662130438019
  0
LINE
  5
1C0
330
17
100
AcDbEntity
  8
L-CENTER
 48
2.0
100
AcDbLine
 10
930.9472453820049
 20
658.0960053650476
 30
0.0
 11
930.9472453820049
 21
701.3869147389348
 31
0.0
  0
LINE
  5
1C1
330
17
100
AcDbEntity
  8
4
 62
     3
100
AcDbLine
 10
521.3972453820043
 20
697.9430349443644
 30
0.0
 11
504.9972453820055
 21
697.9430349443644
 31
0.0
  0
LINE
  5
1C2
330
17
100
AcDbEntity
  8
4
100
AcDbLine
 10
524.1472453820043
 20
689.9430349443644
 30
0.0
 11
502.2472453820055
 21
689.9430349443644
 31
0.0
  0
ARC
  5
1C3
330
17
100
AcDbEntity
  8
4
100
AcDbCircle
 10
513.1972453820035
 20
682.5917849443629
 30
0.0
 40
15.35125000000168
100
AcDbArc
 50
69.20533295512868
 51
110.794667044866
  0
LINE
  5
1C4
330
17
100
AcDbEntity
  8
4
100
AcDbLine
 10
518.6472453820043
 20
689.9430349443644
 30
0.0
 11
518.6472453820043
 21
696.9430349443653
 31
0.0
  0
LINE
  5
1C5
330
17
100
AcDbEntity
  8
4
100
AcDbLine
 10
524.1472453820043
 20
686.9430349443644
 30
0.0
 11
524.1472453820043
 21
696.9430349443644
 31
0.0
  0
ARC
  5
1C6
330
17
100
AcDbEntity
  8
4
100
AcDbCircle
 10
521.3972453820038
 20
693.6617849443649
 30
0.0
 40
4.281249999999739
100
AcDbArc
 50
50.03378695619809
 51
129.9662130438019
  0
LINE
  5
1C7
330
17
100
AcDbEntity
  8
4
100
AcDbLine
 10
502.2472453820055
 20
686.9430349443644
 30
0.0
 11
502.2472453820055
 21
696.9430349443644
 31
0.0
  0
LINE
  5
1C8
330
17
100
AcDbEntity
  8
4
100
AcDbLine
 10
507.7472453820055
 20
689.9430349443644
 30
0.0
 11
507.7472453820055
 21
696.9430349443653
 31
0.0
  0
ARC
  5
1C9
330
17
100
AcDbEntity
  8
4
100
AcDbCircle
 10
504.9972453820051
 20
693.6617849443649
 30
0.0
 40
4.281249999999739
100
AcDbArc
 50
50.03378695619809
 51
129.9662130438019
  0
LINE
  5
1CA
330
17
100
AcDbEntity
  8
L-CENTER
 48
2.0
100
AcDbLine
 10
513.1972453820049
 20
658.0960053650476
 30
0.0
 11
513.1972453820049
 21
701.3869147389348
 31
0.0
  0
ARC
  5
1CB
330
17
100
AcDbEntity
  8
4
100
AcDbCircle
 10
365.7472453820051
 20
693.6617849443649
 30
0.0
 40
4.281249999999739
100
AcDbArc
 50
50.03378695619809
 51
129.9662130438019
  0
LINE
  5
1CC
330
17
100
AcDbEntity
  8
4
100
AcDbLine
 10
368.4972453820055
 20
689.9430349443644
 30
0.0
 11
368.4972453820055
 21
696.9430349443653
 31
0.0
  0
LINE
  5
1CD
330
17
100
AcDbEntity
  8
4
100
AcDbLine
 10
362.9972453820055
 20
686.9430349443644
 30
0.0
 11
362.9972453820055
 21
696.9430349443644
 31
0.0
  0
ARC
  5
1CE
330
17
100
AcDbEntity
  8
4
100
AcDbCircle
 10
382.1472453820038
 20
693.6617849443649
 30
0.0
 40
4.281249999999739
100
AcDbArc
 50
50.03378695619809
 51
129.9662130438019
  0
LINE
  5
1CF
330
17
100
AcDbEntity
  8
4
100
AcDbLine
 10
384.8972453820043
 20
686.9430349443644
 30
0.0
 11
384.8972453820043
 21
696.9430349443644
 31
0.0
  0
LINE
  5
1D0
330
17
100
AcDbEntity
  8
4
100
AcDbLine
 10
379.3972453820043
 20
689.9430349443644
 30
0.0
 11
379.3972453820043
 21
696.9430349443653
 31
0.0
  0
ARC
  5
1D1
330
17
100
AcDbEntity
  8
4
100
AcDbCircle
 10
373.9472453820035
 20
682.5917849443629
 30
0.0
 40
15.35125000000168
100
AcDbArc
 50
69.20533295512868
 51
110.794667044866
  0
LINE
  5
1D2
330
17
100
AcDbEntity
  8
4
100
AcDbLine
 10
384.8972453820043
 20
689.9430349443644
 30
0.0
 11
362.9972453820055
 21
689.9430349443644
 31
0.0
  0
LINE
  5
1D3
330
17
100
AcDbEntity
  8
4
 62
     3
100
AcDbLine
 10
382.1472453820043
 20
697.9430349443644
 30
0.0
 11
365.7472453820055
 21
697.9430349443644
 31
0.0
  0
LINE
  5
1D4
330
17
100
AcDbEntity
  8
L-CENTER
 48
2.0
100
AcDbLine
 10
373.9472453820049
 20
658.0960053650476
 30
0.0
 11
373.9472453820049
 21
701.3869147389348
 31
0.0
  0
LINE
  5
1D5
330
17
100
AcDbEntity
  8
L-CENTER
 48
2.0
100
AcDbLine
 10
2070.973906613032
 20
658.0960053650476
 30
0.0
 11
2070.973906613032
 21
701.3869147389348
 31
0.0
  0
LINE
  5
1D6
330
17
100
AcDbEntity
  8
L-CENTER
 48
2.0
100
AcDbLine
 10
1588.597906613032
 20
658.0960053650476
 30
0.0
 11
1588.597906613032
 21
701.3869147389348
 31
0.0
  0
ARC
  5
1E3
330
17
100
AcDbEntity
  8
4
100
AcDbCircle
 10
-51.05275461799511
 20
1580.970897841575
 30
0.0
 40
1000.0
100
AcDbArc
 50
344.9966502307968
 51
15.00334976920323
  0
ARC
  5
1E4
330
17
100
AcDbEntity
  8
4
100
AcDbCircle
 10
1355.947245382004
 20
1580.970897841575
 30
0.0
 40
1000.0
100
AcDbArc
 50
164.9966502307968
 51
195.0033497692032
  0
LINE
  5
1E5
330
17
100
AcDbEntity
  8
L-CENTER
 48
2.0
100
AcDbLine
 10
652.4472453820049
 20
1153.970897841575
 30
0.0
 11
652.4472453820049
 21
1899.218138083493
 31
0.0
  0
LINE
  5
1E6
330
17
100
AcDbEntity
  8
L-CENTER
 48
2.0
100
AcDbLine
 10
963.947245382004
 20
1580.970897841575
 30
0.0
 11
340.9472453820049
 21
1580.970897841575
 31
0.0
  0
LINE
  5
1E7
330
17
100
AcDbEntity
  8
4
100
AcDbLine
 10
365.4472453820049
 20
1168.970897841575
 30
0.0
 11
939.447245382004
 21
1168.970897841575
 31
0.0
  0
LINE
  5
1E8
330
17
100
AcDbEntity
  8
L-CENTER
 48
2.0
100
AcDbLine
 10
188.4443159446696
 20
1285.970897841575
 30
0.0
 11
1116.45017481934
 21
1285.970897841575
 31
0.0
  0
LINE
  5
1E9
330
17
100
AcDbEntity
  8
4
100
AcDbLine
 10
312.4472453820049
 20
1317.470897832062
 30
0.0
 11
312.4472453820049
 21
1407.141315255106
 31
0.0
  0
LINE
  5
1EA
330
17
100
AcDbEntity
  8
4
100
AcDbLine
 10
365.4472453820049
 20
1305.970897841575
 30
0.0
 11
365.4472453820049
 21
1443.458171157823
 31
0.0
  0
ARC
  5
1EB
330
17
100
AcDbEntity
  8
4
100
AcDbCircle
 10
652.4472453820049
 20
2284.470897841575
 30
0.0
 40
1000.0
100
AcDbArc
 50
254.9966502307968
 51
285.0033497692032
  0
LINE
  5
1EC
330
17
100
AcDbEntity
  8
4
100
AcDbLine
 10
360.4472453820049
 20
1171.470897841575
 30
0.0
 11
360.4472453820049
 21
1400.470897841575
 31
0.0
  0
LINE
  5
1ED
330
17
100
AcDbEntity
  8
4
100
AcDbLine
 10
360.1472453820047
 20
1171.470897841575
 30
0.0
 11
360.1472453820047
 21
1400.470897841575
 31
0.0
  0
LINE
  5
1EE
330
17
100
AcDbEntity
  8
4
100
AcDbLine
 10
365.4472453820049
 20
1171.470897841575
 30
0.0
 11
341.1472453820047
 21
1171.470897841575
 31
0.0
  0
LINE
  5
1F1
330
17
100
AcDbEntity
  8
4
100
AcDbLine
 10
365.4472453820049
 20
1168.970897841575
 30
0.0
 11
365.4472453820049
 21
1265.970897841575
 31
0.0
  0
LINE
  5
1F2
330
17
100
AcDbEntity
  8
4
100
AcDbLine
 10
602.4472453820049
 20
1249.970897841575
 30
0.0
 11
602.4472453820049
 21
1223.970897841575
 31
0.0
  0
LINE
  5
1F3
330
17
100
AcDbEntity
  8
4
100
AcDbLine
 10
610.4472453820049
 20
1249.970897841575
 30
0.0
 11
610.4472453820049
 21
1223.970897841575
 31
0.0
  0
LINE
  5
1F4
330
17
100
AcDbEntity
  8
4
100
AcDbLine
 10
576.4472453820049
 20
1223.970897841575
 30
0.0
 11
576.4472453820049
 21
1249.970897841575
 31
0.0
  0
LINE
  5
1F5
330
17
100
AcDbEntity
  8
4
100
AcDbLine
 10
568.4472453820049
 20
1223.970897841575
 30
0.0
 11
568.4472453820049
 21
1249.970897841575
 31
0.0
  0
ARC
  5
1F6
330
17
100
AcDbEntity
  8
4
100
AcDbCircle
 10
589.4472453820049
 20
1223.970897841575
 30
0.0
 40
21.0
100
AcDbArc
 50
180.0
 51
0.0
  0
ARC
  5
1F7
330
17
100
AcDbEntity
  8
4
100
AcDbCircle
 10
589.4472453820049
 20
1223.970897841575
 30
0.0
 40
13.0
100
AcDbArc
 50
180.0
 51
0.0
  0
ARC
  5
1F8
330
17
100
AcDbEntity
  8
4
100
AcDbCircle
 10
589.4472453820049
 20
1249.970897841575
 30
0.0
 40
21.0
100
AcDbArc
 50
0.0
 51
180.0
  0
ARC
  5
1F9
330
17
100
AcDbEntity
  8
4
100
AcDbCircle
 10
589.4472453820049
 20
1249.970897841575
 30
0.0
 40
13.0
100
AcDbArc
 50
0.0
 51
180.0
  0
LINE
  5
1FA
330
17
100
AcDbEntity
  8
4
100
AcDbLine
 10
632.4472453820049
 20
1232.970897841575
 30
0.0
 11
632.4472453820049
 21
1240.970897841575
 31
0.0
  0
LINE
  5
1FB
330
17
100
AcDbEntity
  8
4
100
AcDbLine
 10
646.4472453820049
 20
1232.970897841575
 30
0.0
 11
646.4472453820049
 21
1240.970897841575
 31
0.0
  0
LINE
  5
1FC
330
17
100
AcDbEntity
  8
4
100
AcDbLine
 10
618.4472453820049
 20
1202.970897841575
 30
0.0
 11
618.4472453820049
 21
1270.970897841575
 31
0.0
  0
LINE
  5
1FD
330
17
100
AcDbEntity
  8
4
100
AcDbLine
 10
626.4472453820049
 20
1202.970897841575
 30
0.0
 11
626.4472453820049
 21
1270.970897841575
 31
0.0
  0
LINE
  5
1FE
330
17
100
AcDbEntity
  8
4
100
AcDbLine
 10
646.4472453820049
 20
1232.970897841575
 30
0.0
 11
632.4472453820049
 21
1232.970897841575
 31
0.0
  0
LINE
  5
1FF
330
17
100
AcDbEntity
  8
4
100
AcDbLine
 10
626.4472453820049
 20
1202.970897841575
 30
0.0
 11
618.4472453820049
 21
1202.970897841575
 31
0.0
  0
LINE
  5
200
330
17
100
AcDbEntity
  8
4
100
AcDbLine
 10
646.4472453820049
 20
1240.970897841575
 30
0.0
 11
632.4472453820049
 21
1240.970897841575
 31
0.0
  0
LINE
  5
201
330
17
100
AcDbEntity
  8
4
100
AcDbLine
 10
626.4472453820049
 20
1270.970897841575
 30
0.0
 11
618.4472453820049
 21
1270.970897841575
 31
0.0
  0
LINE
  5
202
330
17
100
AcDbEntity
  8
4
100
AcDbLine
 10
341.1472453820047
 20
1400.470897841575
 30
0.0
 11
365.4472453820049
 21
1400.470897841575
 31
0.0
  0
LINE
  5
203
330
17
100
AcDbEntity
  8
4
100
AcDbLine
 10
335.4472453820049
 20
1410.970897841575
 30
0.0
 11
365.4472453820049
 21
1410.970897841575
 31
0.0
  0
LINE
  5
204
330
17
100
AcDbEntity
  8
4
100
AcDbLine
 10
316.1445712217842
 20
1411.96863749754
 30
0.0
 11
365.4472453820049
 21
1425.273181183011
 31
0.0
  0
ARC
  5
205
330
17
100
AcDbEntity
  8
4
100
AcDbCircle
 10
335.4472453820049
 20
1398.970897841575
 30
0.0
 40
3.0
100
AcDbArc
 50
180.0
 51
270.0
  0
LINE
  5
206
330
17
100
AcDbEntity
  8
4
100
AcDbLine
 10
340.1472453820047
 20
1395.970897841575
 30
0.0
 11
335.4472453820049
 21
1395.970897841575
 31
0.0
  0
ARC
  5
207
330
17
100
AcDbEntity
  8
4
100
AcDbCircle
 10
335.4472453820049
 20
1407.970897841575
 30
0.0
 40
3.0
100
AcDbArc
 50
90.0
 51
180.0
  0
LINE
  5
208
330
17
100
AcDbEntity
  8
4
100
AcDbLine
 10
332.4472453820049
 20
1407.970897841575
 30
0.0
 11
332.4472453820049
 21
1398.970897841575
 31
0.0
  0
ARC
  5
209
330
17
100
AcDbEntity
  8
4
100
AcDbCircle
 10
317.4472453820049
 20
1407.141315255106
 30
0.0
 40
5.0
100
AcDbArc
 50
105.1017995437977
 51
180.0
  0
ARC
  5
20A
330
17
100
AcDbEntity
  8
4
100
AcDbCircle
 10
394.8661059348237
 20
1323.389758394395
 30
0.0
 40
5.0
100
AcDbArc
 50
195.003349769204
 51
254.9966502307956
  0
ARC
  5
20B
330
17
100
AcDbEntity
  8
4
100
AcDbCircle
 10
394.8661059348237
 20
1323.389758394394
 30
0.0
 40
5.0
100
AcDbArc
 50
195.003349769204
 51
254.9966502308008
  0
LINE
  5
20C
330
17
100
AcDbEntity
  8
4
100
AcDbLine
 10
992.447245382004
 20
1317.470897832062
 30
0.0
 11
992.447245382004
 21
1407.141315255107
 31
0.0
  0
LINE
  5
20D
330
17
100
AcDbEntity
  8
4
100
AcDbLine
 10
944.447245382004
 20
1171.470897841575
 30
0.0
 11
944.447245382004
 21
1400.470897841575
 31
0.0
  0
LINE
  5
20E
330
17
100
AcDbEntity
  8
4
100
AcDbLine
 10
944.7472453820042
 20
1171.470897841575
 30
0.0
 11
944.7472453820042
 21
1400.470897841575
 31
0.0
  0
LINE
  5
20F
330
17
100
AcDbEntity
  8
4
100
AcDbLine
 10
939.447245382004
 20
1171.470897841575
 30
0.0
 11
963.7472453820042
 21
1171.470897841575
 31
0.0
  0
LINE
  5
210
330
17
100
AcDbEntity
  8
4
100
AcDbLine
 10
988.7499195422247
 20
1411.96863749754
 30
0.0
 11
939.447245382004
 21
1425.273181183011
 31
0.0
  0
ARC
  5
211
330
17
100
AcDbEntity
  8
4
100
AcDbCircle
 10
969.447245382004
 20
1398.970897841575
 30
0.0
 40
3.0
100
AcDbArc
 50
270.0
 51
0.0
  0
LINE
  5
212
330
17
100
AcDbEntity
  8
4
100
AcDbLine
 10
964.7472453820042
 20
1395.970897841575
 30
0.0
 11
969.447245382004
 21
1395.970897841575
 31
0.0
  0
LINE
  5
213
330
17
100
AcDbEntity
  8
4
100
AcDbLine
 10
969.447245382004
 20
1410.970897841575
 30
0.0
 11
939.447245382004
 21
1410.970897841575
 31
0.0
  0
ARC
  5
214
330
17
100
AcDbEntity
  8
4
100
AcDbCircle
 10
941.447245382004
 20
1402.470897841575
 30
0.0
 40
2.0
100
AcDbArc
 50
180.0
 51
270.0
  0
LINE
  5
215
330
17
100
AcDbEntity
  8
4
100
AcDbLine
 10
941.447245382004
 20
1400.470897841575
 30
0.0
 11
963.7472453820042
 21
1400.470897841575
 31
0.0
  0
LINE
  5
216
330
17
100
AcDbEntity
  8
4
100
AcDbLine
 10
972.447245382004
 20
1407.970897841575
 30
0.0
 11
972.447245382004
 21
1398.970897841575
 31
0.0
  0
ARC
  5
217
330
17
100
AcDbEntity
  8
4
100
AcDbCircle
 10
969.447245382004
 20
1407.970897841575
 30
0.0
 40
3.0
100
AcDbArc
 50
0.0
 51
90.0
  0
ARC
  5
218
330
17
100
AcDbEntity
  8
4
100
AcDbCircle
 10
987.447245382004
 20
1407.141315255107
 30
0.0
 40
5.0
100
AcDbArc
 50
0.0
 51
74.89820045620169
  0
ARC
  5
219
330
17
100
AcDbEntity
  8
4
100
AcDbCircle
 10
652.4472453820049
 20
877.4708978415756
 30
0.0
 40
1000.0
100
AcDbArc
 50
74.99665023079676
 51
105.0033497692033
  0
LINE
  5
21A
330
17
100
AcDbEntity
  8
4
100
AcDbLine
 10
317.4472453820049
 20
1870.970897841575
 30
0.0
 11
512.4472453820049
 21
1870.970897841575
 31
0.0
  0
LINE
  5
21B
330
17
100
AcDbEntity
  8
L-CENTER
 48
2.0
100
AcDbLine
 10
362.4472453820049
 20
1838.270897841575
 30
0.0
 11
362.4472453820049
 21
1783.670897841575
 31
0.0
  0
CIRCLE
  5
21C
330
17
100
AcDbEntity
  8
4
100
AcDbCircle
 10
362.4472453820049
 20
1810.970897841575
 30
0.0
 40
13.0
  0
LINE
  5
21D
330
17
100
AcDbEntity
  8
4
100
AcDbLine
 10
312.4472453820049
 20
1754.800480428044
 30
0.0
 11
312.4472453820049
 21
1865.970897841575
 31
0.0
  0
LINE
  5
21E
330
17
100
AcDbEntity
  8
4
100
AcDbLine
 10
316.1445712217842
 20
1749.973158185611
 30
0.0
 11
368.0327753999118
 21
1735.970897841575
 31
0.0
  0
LINE
  5
21F
330
17
100
AcDbEntity
  8
4
100
AcDbLine
 10
335.4472453820049
 20
1765.970897841575
 30
0.0
 11
373.2087247164109
 21
1765.970897841575
 31
0.0
  0
LINE
  5
220
330
17
100
AcDbEntity
  8
4
100
AcDbLine
 10
335.4472453820049
 20
1750.970897841575
 30
0.0
 11
370.5031830425942
 21
1750.970897841575
 31
0.0
  0
ARC
  5
221
330
17
100
AcDbEntity
  8
4
100
AcDbCircle
 10
335.4472453820049
 20
1762.970897841575
 30
0.0
 40
3.0
100
AcDbArc
 50
90.0
 51
180.0
  0
ARC
  5
222
330
17
100
AcDbEntity
  8
4
100
AcDbCircle
 10
335.4472453820049
 20
1753.970897841575
 30
0.0
 40
3.0
100
AcDbArc
 50
180.0
 51
270.0
  0
LINE
  5
223
330
17
100
AcDbEntity
  8
4
100
AcDbLine
 10
332.4472453820049
 20
1753.970897841575
 30
0.0
 11
332.4472453820049
 21
1762.970897841575
 31
0.0
  0
ARC
  5
224
330
17
100
AcDbEntity
  8
4
100
AcDbCircle
 10
317.4472453820049
 20
1754.800480428044
 30
0.0
 40
5.0
100
AcDbArc
 50
180.0
 51
254.8982004561985
  0
LINE
  5
225
330
17
100
AcDbEntity
  8
L-CENTER
 48
2.0
100
AcDbLine
 10
389.7472453820046
 20
1810.970897841575
 30
0.0
 11
335.1472453820047
 21
1810.970897841575
 31
0.0
  0
ARC
  5
226
330
17
100
AcDbEntity
  8
4
100
AcDbCircle
 10
317.4472453820049
 20
1865.970897841575
 30
0.0
 40
5.0
100
AcDbArc
 50
90.0
 51
180.0
  0
ARC
  5
227
330
17
100
AcDbEntity
  8
4
100
AcDbCircle
 10
394.8661059348237
 20
1838.552037288756
 30
0.0
 40
5.0
100
AcDbArc
 50
105.0033497691942
 51
164.9966502307959
  0
ARC
  5
228
330
17
100
AcDbEntity
  8
4
100
AcDbCircle
 10
394.8661059348237
 20
1838.552037288756
 30
0.0
 40
5.0
100
AcDbArc
 50
105.0033497692044
 51
164.9966502307959
  0
LINE
  5
229
330
17
100
AcDbEntity
  8
4
100
AcDbLine
 10
512.4472453820049
 20
1870.970897841575
 30
0.0
 11
512.4472453820049
 21
1867.622401400501
 31
0.0
  0
ARC
  5
22A
330
17
100
AcDbEntity
  8
4
100
AcDbCircle
 10
675.4472453820049
 20
1880.207154291894
 30
0.0
 40
3.0
100
AcDbArc
 50
180.0
 51
268.686023481121
  0
LINE
  5
22B
330
17
100
AcDbEntity
  8
4
100
AcDbLine
 10
632.4472453820049
 20
1882.970897841576
 30
0.0
 11
672.4472453820049
 21
1882.970897841576
 31
0.0
  0
LINE
  5
22C
330
17
100
AcDbEntity
  8
4
100
AcDbLine
 10
632.4472453820049
 20
1882.970897841576
 30
0.0
 11
632.4472453820049
 21
1880.207154291894
 31
0.0
  0
ARC
  5
22D
330
17
100
AcDbEntity
  8
4
100
AcDbCircle
 10
629.4472453820049
 20
1880.207154291894
 30
0.0
 40
3.0
100
AcDbArc
 50
271.313976518879
 51
0.0
  0
LINE
  5
22E
330
17
100
AcDbEntity
  8
4
100
AcDbLine
 10
672.4472453820049
 20
1882.970897841576
 30
0.0
 11
672.4472453820049
 21
1880.207154291894
 31
0.0
  0
LINE
  5
22F
330
17
100
AcDbEntity
  8
4
100
AcDbLine
 10
792.4472453820044
 20
1870.970897841575
 30
0.0
 11
987.447245382004
 21
1870.970897841575
 31
0.0
  0
LINE
  5
230
330
17
100
AcDbEntity
  8
4
100
AcDbLine
 10
988.7499195422247
 20
1749.973158185611
 30
0.0
 11
936.8617153640976
 21
1735.970897841575
 31
0.0
  0
LINE
  5
231
330
17
100
AcDbEntity
  8
L-CENTER
 48
2.0
100
AcDbLine
 10
942.4472453820058
 20
1838.270897841575
 30
0.0
 11
942.4472453820058
 21
1783.670897841575
 31
0.0
  0
CIRCLE
  5
232
330
17
100
AcDbEntity
  8
4
100
AcDbCircle
 10
942.4472453820058
 20
1810.970897841575
 30
0.0
 40
13.0
  0
ARC
  5
233
330
17
100
AcDbEntity
  8
4
100
AcDbCircle
 10
969.447245382004
 20
1762.970897841575
 30
0.0
 40
3.0
100
AcDbArc
 50
0.0
 51
90.0
  0
LINE
  5
234
330
17
100
AcDbEntity
  8
4
100
AcDbLine
 10
969.447245382004
 20
1750.970897841575
 30
0.0
 11
934.3913077214152
 21
1750.970897841575
 31
0.0
  0
LINE
  5
235
330
17
100
AcDbEntity
  8
4
100
AcDbLine
 10
972.447245382004
 20
1753.970897841575
 30
0.0
 11
972.447245382004
 21
1762.970897841575
 31
0.0
  0
ARC
  5
236
330
17
100
AcDbEntity
  8
4
100
AcDbCircle
 10
969.447245382004
 20
1753.970897841575
 30
0.0
 40
3.0
100
AcDbArc
 50
270.0
 51
0.0
  0
LINE
  5
237
330
17
100
AcDbEntity
  8
4
100
AcDbLine
 10
969.447245382004
 20
1765.970897841575
 30
0.0
 11
931.6857660475985
 21
1765.970897841575
 31
0.0
  0
LINE
  5
238
330
17
100
AcDbEntity
  8
4
100
AcDbLine
 10
792.4472453820044
 20
1870.970897841575
 30
0.0
 11
792.4472453820044
 21
1867.622401400501
 31
0.0
  0
LINE
  5
239
330
17
100
AcDbEntity
  8
L-CENTER
 48
2.0
100
AcDbLine
 10
915.1472453820047
 20
1810.970897841575
 30
0.0
 11
969.7472453820051
 21
1810.970897841575
 31
0.0
  0
ARC
  5
23A
330
17
100
AcDbEntity
  8
4
100
AcDbCircle
 10
910.028384829186
 20
1838.552037288756
 30
0.0
 40
5.0
100
AcDbArc
 50
15.00334976920372
 51
74.99665023079561
  0
LINE
  5
23B
330
17
100
AcDbEntity
  8
4
100
AcDbLine
 10
992.447245382004
 20
1754.800480428044
 30
0.0
 11
992.447245382004
 21
1865.970897841575
 31
0.0
  0
ARC
  5
23C
330
17
100
AcDbEntity
  8
4
100
AcDbCircle
 10
987.447245382004
 20
1754.800480428044
 30
0.0
 40
5.0
100
AcDbArc
 50
285.1017995438008
 51
0.0
  0
ARC
  5
23D
330
17
100
AcDbEntity
  8
4
100
AcDbCircle
 10
987.447245382004
 20
1865.970897841575
 30
0.0
 40
5.0
100
AcDbArc
 50
0.0
 51
90.0
  0
ARC
  5
23E
330
17
100
AcDbEntity
  8
4
100
AcDbCircle
 10
910.028384829186
 20
1323.389758394394
 30
0.0
 40
5.0
100
AcDbArc
 50
285.0033497692044
 51
344.9966502307963
  0
ARC
  5
23F
330
17
100
AcDbEntity
  8
4
100
AcDbCircle
 10
910.028384829186
 20
1323.389758394395
 30
0.0
 40
5.0
100
AcDbArc
 50
285.0033497692044
 51
344.9966502307963
  0
LINE
  5
240
330
17
100
AcDbEntity
  8
4
100
AcDbLine
 10
662.4472453820049
 20
1249.970897841575
 30
0.0
 11
654.4472453820049
 21
1249.970897841575
 31
0.0
  0
ARC
  5
241
330
17
100
AcDbEntity
  8
4
100
AcDbCircle
 10
675.4472453820049
 20
1249.970897841575
 30
0.0
 40
21.0
100
AcDbArc
 50
0.0
 51
180.0
  0
LINE
  5
242
330
17
100
AcDbEntity
  8
4
100
AcDbLine
 10
662.4472453820049
 20
1223.970897841575
 30
0.0
 11
654.4472453820049
 21
1223.970897841575
 31
0.0
  0
ARC
  5
243
330
17
100
AcDbEntity
  8
4
100
AcDbCircle
 10
675.4472453820049
 20
1223.970897841575
 30
0.0
 40
21.0
100
AcDbArc
 50
180.0
 51
0.0
  0
LINE
  5
244
330
17
100
AcDbEntity
  8
4
100
AcDbLine
 10
728.4472453820049
 20
1202.970897841575
 30
0.0
 11
728.4472453820049
 21
1262.970897841575
 31
0.0
  0
LINE
  5
245
330
17
100
AcDbEntity
  8
4
100
AcDbLine
 10
736.4472453820049
 20
1202.970897841575
 30
0.0
 11
736.4472453820049
 21
1270.970897841575
 31
0.0
  0
ARC
  5
246
330
17
100
AcDbEntity
  8
4
100
AcDbCircle
 10
675.4472453820049
 20
1249.970897841575
 30
0.0
 40
13.0
100
AcDbArc
 50
0.0
 51
180.0
  0
ARC
  5
247
330
17
100
AcDbEntity
  8
4
100
AcDbCircle
 10
675.4472453820049
 20
1223.970897841575
 30
0.0
 40
13.0
100
AcDbArc
 50
180.0
 51
0.0
  0
LINE
  5
248
330
17
100
AcDbEntity
  8
4
100
AcDbLine
 10
688.4472453820049
 20
1249.970897841575
 30
0.0
 11
688.4472453820049
 21
1223.970897841575
 31
0.0
  0
LINE
  5
249
330
17
100
AcDbEntity
  8
4
100
AcDbLine
 10
696.4472453820049
 20
1249.970897841575
 30
0.0
 11
696.4472453820049
 21
1223.970897841575
 31
0.0
  0
LINE
  5
24A
330
17
100
AcDbEntity
  8
4
100
AcDbLine
 10
736.4472453820049
 20
1202.970897841575
 30
0.0
 11
728.4472453820049
 21
1202.970897841575
 31
0.0
  0
LINE
  5
24B
330
17
100
AcDbEntity
  8
4
100
AcDbLine
 10
728.4472453820049
 20
1262.970897841575
 30
0.0
 11
700.4472453820049
 21
1262.970897841575
 31
0.0
  0
LINE
  5
24C
330
17
100
AcDbEntity
  8
4
100
AcDbLine
 10
736.4472453820049
 20
1270.970897841575
 30
0.0
 11
700.4472453820049
 21
1270.970897841575
 31
0.0
  0
LINE
  5
24D
330
17
100
AcDbEntity
  8
4
100
AcDbLine
 10
700.4472453820049
 20
1262.970897841575
 30
0.0
 11
700.4472453820049
 21
1270.970897841575
 31
0.0
  0
LINE
  5
24E
330
17
100
AcDbEntity
  8
4
100
AcDbLine
 10
939.4472453820049
 20
1168.970897841575
 30
0.0
 11
939.4472453820049
 21
1265.970897841575
 31
0.0
  0
LINE
  5
24F
330
17
100
AcDbEntity
  8
4
100
AcDbLine
 10
939.4472453820049
 20
1305.970897841575
 30
0.0
 11
939.4472453820049
 21
1443.458171157823
 31
0.0
  0
ARC
  5
250
330
17
100
AcDbEntity
  8
4
100
AcDbCircle
 10
260.4472453820049
 20
1580.970897841575
 30
0.0
 40
500.0
100
AcDbArc
 50
348.8981303845912
 51
11.10186961540886
  0
ARC
  5
251
330
17
100
AcDbEntity
  8
4
100
AcDbCircle
 10
267.4472453820049
 20
1580.970897841575
 30
0.0
 40
500.0
100
AcDbArc
 50
348.2133909687814
 51
11.80489633831079
  0
ARC
  5
252
330
17
100
AcDbEntity
  8
4
100
AcDbCircle
 10
1044.447245382005
 20
1580.970897841575
 30
0.0
 40
500.0
100
AcDbArc
 50
168.8981303845912
 51
191.1018696154088
  0
ARC
  5
253
330
17
100
AcDbEntity
  8
4
100
AcDbCircle
 10
1037.447245382005
 20
1580.970897841575
 30
0.0
 40
500.0
100
AcDbArc
 50
168.1951036616891
 51
191.7866090312186
  0
CIRCLE
  5
254
330
17
100
AcDbEntity
  8
L-CENTER
 48
2.0
100
AcDbCircle
 10
652.4472453820049
 20
1580.970897841575
 30
0.0
 40
278.5
  0
CIRCLE
  5
255
330
17
100
AcDbEntity
  8
4
100
AcDbCircle
 10
652.4472453820049
 20
1580.970897841575
 30
0.0
 40
263.5
  0
CIRCLE
  5
256
330
17
100
AcDbEntity
  8
4
100
AcDbCircle
 10
652.4472453820049
 20
1580.970897841575
 30
0.0
 40
295.5
  0
LINE
  5
257
330
17
100
AcDbEntity
  8
L-CENTER
 48
2.0
100
AcDbLine
 10
690.3883417710681
 20
1365.970897841575
 30
0.0
 11
614.5061489929417
 21
1365.970897841575
 31
0.0
  0
CIRCLE
  5
258
330
17
100
AcDbEntity
  8
4
100
AcDbCircle
 10
652.4472453820049
 20
1580.970897841575
 30
0.0
 40
65.0
  0
ARC
  5
259
330
17
100
AcDbEntity
  8
4
100
AcDbCircle
 10
652.4472453820049
 20
1965.970897841575
 30
0.0
 40
500.0
100
AcDbArc
 50
258.2133909687814
 51
281.7866090312186
  0
ARC
  5
25A
330
17
100
AcDbEntity
  8
4
100
AcDbCircle
 10
652.4472453820049
 20
1972.970897841575
 30
0.0
 40
500.0
100
AcDbArc
 50
258.8981303845912
 51
281.1018696154088
  0
LINE
  5
25B
330
17
100
AcDbEntity
  8
L-CENTER
 48
2.0
100
AcDbLine
 10
501.5551324986814
 20
1319.618091866241
 30
0.0
 11
524.8393582653289
 21
1359.947553908979
 31
0.0
  0
LINE
  5
25C
330
17
100
AcDbEntity
  8
4
100
AcDbLine
 10
594.35885049338
 20
1329.420661159052
 30
0.0
 11
580.2515617013792
 21
1463.674237503258
 31
0.0
  0
ARC
  5
25D
330
17
100
AcDbEntity
  8
4
100
AcDbCircle
 10
590.3807526534774
 20
1329.002644919943
 30
0.0
 40
4.0
100
AcDbArc
 50
256.1620147383546
 51
5.998594083043264
  0
LINE
  5
25E
330
17
100
AcDbEntity
  8
4
100
AcDbLine
 10
400.8970086994818
 20
1522.882502952951
 30
0.0
 11
535.1505850436874
 21
1508.775214160949
 31
0.0
  0
ARC
  5
25F
330
17
100
AcDbEntity
  8
4
100
AcDbCircle
 10
555.8963951012374
 20
1484.420047560807
 30
0.0
 40
2.0
100
AcDbArc
 50
191.1791407569922
 51
258.8208592429886
  0
ARC
  5
260
330
17
100
AcDbEntity
  8
4
100
AcDbCircle
 10
556.7479138777999
 20
1485.271566337371
 30
0.0
 40
3.0
100
AcDbArc
 50
191.1018696154183
 51
258.8981303845899
  0
ARC
  5
261
330
17
100
AcDbEntity
  8
4
100
AcDbCircle
 10
550.0815980101893
 20
1478.60525046976
 30
0.0
 40
2.0
100
AcDbArc
 50
191.8619028382972
 51
258.1380971617092
  0
ARC
  5
262
330
17
100
AcDbEntity
  8
4
100
AcDbCircle
 10
550.9264127867614
 20
1479.450065246332
 30
0.0
 40
3.0
100
AcDbArc
 50
191.7866090312037
 51
258.2133909687779
  0
ARC
  5
263
330
17
100
AcDbEntity
  8
4
100
AcDbCircle
 10
534.1055444459143
 20
1498.829969561192
 30
0.0
 40
10.0
100
AcDbArc
 50
9.268465124024724
 51
84.00140591696209
  0
ARC
  5
264
330
17
100
AcDbEntity
  8
4
100
AcDbCircle
 10
570.3063171016215
 20
1462.629196905484
 30
0.0
 40
10.0
100
AcDbArc
 50
5.998594083037969
 51
80.73153487597777
  0
LINE
  5
265
330
17
100
AcDbEntity
  8
4
100
AcDbLine
 10
400.8970086994818
 20
1639.0592927302
 30
0.0
 11
535.1505850436874
 21
1653.166581522201
 31
0.0
  0
CIRCLE
  5
266
330
17
100
AcDbEntity
  8
4
100
AcDbCircle
 10
447.4472453820049
 20
1580.970897841575
 30
0.0
 40
25.0
  0
LINE
  5
267
330
17
100
AcDbEntity
  8
L-CENTER
 48
2.0
100
AcDbLine
 10
447.4472453820049
 20
1622.708142105228
 30
0.0
 11
447.4472453820049
 21
1536.542407632254
 31
0.0
  0
ARC
  5
268
330
17
100
AcDbEntity
  8
4
100
AcDbCircle
 10
400.4789924603729
 20
1518.904405113047
 30
0.0
 40
4.0
100
AcDbArc
 50
84.00140591696338
 51
193.8379852616422
  0
ARC
  5
269
330
17
100
AcDbEntity
  8
4
100
AcDbCircle
 10
400.4789924603729
 20
1643.037390570102
 30
0.0
 40
4.0
100
AcDbArc
 50
166.1620147383578
 51
275.9985940830366
  0
ARC
  5
26A
330
17
100
AcDbEntity
  8
4
100
AcDbCircle
 10
534.1055444459143
 20
1663.111826121959
 30
0.0
 40
10.0
100
AcDbArc
 50
275.9985940830405
 51
350.7315348759805
  0
LINE
  5
26B
330
17
100
AcDbEntity
  8
L-CENTER
 48
2.0
100
AcDbLine
 10
803.3393582653289
 20
1319.61809186624
 30
0.0
 11
780.0551324986809
 21
1359.947553908978
 31
0.0
  0
ARC
  5
26C
330
17
100
AcDbEntity
  8
4
100
AcDbCircle
 10
652.4472453820049
 20
1365.970897841575
 30
0.0
 40
25.0
100
AcDbArc
 50
108.6629248849426
 51
251.3370751150554
  0
LINE
  5
26D
330
17
100
AcDbEntity
  8
4
100
AcDbLine
 10
710.5356402706288
 20
1329.420661159052
 30
0.0
 11
724.6429290626306
 21
1463.674237503258
 31
0.0
  0
ARC
  5
26E
330
17
100
AcDbEntity
  8
4
100
AcDbCircle
 10
714.5137381105319
 20
1329.002644919943
 30
0.0
 40
4.0
100
AcDbArc
 50
174.0014059169567
 51
283.8379852616454
  0
LINE
  5
26F
330
17
100
AcDbEntity
  8
4
100
AcDbLine
 10
903.997482064528
 20
1522.882502952951
 30
0.0
 11
769.7439057203223
 21
1508.775214160949
 31
0.0
  0
LINE
  5
270
330
17
100
AcDbEntity
  8
4
100
AcDbLine
 10
903.997482064528
 20
1639.0592927302
 30
0.0
 11
769.7439057203223
 21
1653.166581522201
 31
0.0
  0
ARC
  5
271
330
17
100
AcDbEntity
  8
4
100
AcDbCircle
 10
734.5881736623883
 20
1462.629196905484
 30
0.0
 40
10.0
100
AcDbArc
 50
99.2684651240248
 51
174.001405916962
  0
ARC
  5
272
330
17
100
AcDbEntity
  8
4
100
AcDbCircle
 10
748.9980956627719
 20
1484.420047560807
 30
0.0
 40
2.0
100
AcDbArc
 50
281.1791407570114
 51
348.8208592430078
  0
ARC
  5
273
330
17
100
AcDbEntity
  8
4
100
AcDbCircle
 10
748.1465768862095
 20
1485.271566337371
 30
0.0
 40
3.0
100
AcDbArc
 50
281.1018696154101
 51
348.8981303845817
  0
ARC
  5
274
330
17
100
AcDbEntity
  8
4
100
AcDbCircle
 10
754.8128927538205
 20
1478.60525046976
 30
0.0
 40
2.0
100
AcDbArc
 50
281.8619028382908
 51
348.1380971617028
  0
ARC
  5
275
330
17
100
AcDbEntity
  8
4
100
AcDbCircle
 10
754.8128927538205
 20
1478.60525046976
 30
0.0
 40
2.0
100
AcDbArc
 50
281.8619028382908
 51
348.1380971617028
  0
ARC
  5
276
330
17
100
AcDbEntity
  8
4
100
AcDbCircle
 10
753.9680779772475
 20
1479.450065246332
 30
0.0
 40
3.0
100
AcDbArc
 50
281.786609031222
 51
348.2133909687784
  0
ARC
  5
277
330
17
100
AcDbEntity
  8
4
100
AcDbCircle
 10
770.788946318095
 20
1498.829969561192
 30
0.0
 40
10.0
100
AcDbArc
 50
95.99859408303791
 51
170.7315348759805
  0
ARC
  5
278
330
17
100
AcDbEntity
  8
4
100
AcDbCircle
 10
770.788946318095
 20
1663.111826121959
 30
0.0
 40
10.0
100
AcDbArc
 50
189.2684651240247
 51
264.0014059169621
  0
ARC
  5
279
330
17
100
AcDbEntity
  8
4
100
AcDbCircle
 10
904.4154983036365
 20
1518.904405113047
 30
0.0
 40
4.0
100
AcDbArc
 50
346.1620147383578
 51
95.99859408303661
  0
ARC
  5
27A
330
17
100
AcDbEntity
  8
4
100
AcDbCircle
 10
904.4154983036365
 20
1643.037390570102
 30
0.0
 40
4.0
100
AcDbArc
 50
264.0014059169634
 51
13.83798526164223
  0
LINE
  5
27B
330
17
100
AcDbEntity
  8
L-CENTER
 48
2.0
100
AcDbLine
 10
614.5061489929417
 20
1795.970897841575
 30
0.0
 11
690.3883417710681
 21
1795.970897841575
 31
0.0
  0
ARC
  5
27C
330
17
100
AcDbEntity
  8
4
100
AcDbCircle
 10
652.4472453820049
 20
1188.970897841575
 30
0.0
 40
500.0
100
AcDbArc
 50
78.89813038459117
 51
101.1018696154088
  0
ARC
  5
27D
330
17
100
AcDbEntity
  8
4
100
AcDbCircle
 10
652.4472453820049
 20
1188.970897841575
 30
0.0
 40
507.0
100
AcDbArc
 50
78.38315647824388
 51
101.6168435217561
  0
LINE
  5
27E
330
17
100
AcDbEntity
  8
4
100
AcDbLine
 10
594.3588504933809
 20
1832.521134524099
 30
0.0
 11
580.2515617013792
 21
1698.267558179893
 31
0.0
  0
ARC
  5
27F
330
17
100
AcDbEntity
  8
4
100
AcDbCircle
 10
550.0815980101893
 20
1683.336545213391
 30
0.0
 40
2.0
100
AcDbArc
 50
101.8619028382908
 51
168.1380971617028
  0
ARC
  5
280
330
17
100
AcDbEntity
  8
4
100
AcDbCircle
 10
550.1146852267871
 20
1683.493947994021
 30
0.0
 40
2.0
100
AcDbArc
 50
101.6913075314826
 51
168.1195919159414
  0
ARC
  5
281
330
17
100
AcDbEntity
  8
4
100
AcDbCircle
 10
550.9588403494085
 20
1682.647009927161
 30
0.0
 40
3.0
100
AcDbArc
 50
101.6168435217561
 51
168.1951036616782
  0
ARC
  5
282
330
17
100
AcDbEntity
  8
4
100
AcDbCircle
 10
555.8963951012374
 20
1677.521748122342
 30
0.0
 40
2.0
100
AcDbArc
 50
101.1791407569986
 51
168.8208592430078
  0
ARC
  5
283
330
17
100
AcDbEntity
  8
4
100
AcDbCircle
 10
556.7479138777999
 20
1676.67022934578
 30
0.0
 40
3.0
100
AcDbArc
 50
101.1018696154102
 51
168.8981303845817
  0
ARC
  5
284
330
17
100
AcDbEntity
  8
4
100
AcDbCircle
 10
570.3063171016215
 20
1699.312598777665
 30
0.0
 40
10.0
100
AcDbArc
 50
279.2684651240248
 51
354.0014059169621
  0
LINE
  5
285
330
17
100
AcDbEntity
  8
L-CENTER
 48
2.0
100
AcDbLine
 10
501.5551324986809
 20
1842.32370381691
 30
0.0
 11
524.8393582653289
 21
1801.994241774173
 31
0.0
  0
ARC
  5
286
330
17
100
AcDbEntity
  8
4
100
AcDbCircle
 10
590.3807526534774
 20
1832.939150763208
 30
0.0
 40
4.0
100
AcDbArc
 50
354.0014059169699
 51
103.8379852616391
  0
LINE
  5
287
330
17
100
AcDbEntity
  8
4
100
AcDbLine
 10
710.5356402706298
 20
1832.521134524098
 30
0.0
 11
724.6429290626306
 21
1698.267558179893
 31
0.0
  0
ARC
  5
288
330
17
100
AcDbEntity
  8
4
100
AcDbCircle
 10
734.5881736623883
 20
1699.312598777665
 30
0.0
 40
10.0
100
AcDbArc
 50
185.998594083038
 51
260.7315348759778
  0
ARC
  5
289
330
17
100
AcDbEntity
  8
4
100
AcDbCircle
 10
714.5137381105319
 20
1832.939150763208
 30
0.0
 40
4.0
100
AcDbArc
 50
76.16201473836094
 51
185.9985940830301
  0
ARC
  5
28A
330
17
100
AcDbEntity
  8
4
100
AcDbCircle
 10
754.8128927538205
 20
1683.336545213391
 30
0.0
 40
2.0
100
AcDbArc
 50
11.8619028382972
 51
78.13809716170917
  0
ARC
  5
28B
330
17
100
AcDbEntity
  8
4
100
AcDbCircle
 10
754.8128927538205
 20
1683.336545213391
 30
0.0
 40
2.0
100
AcDbArc
 50
11.8619028382972
 51
78.13809716170917
  0
ARC
  5
28C
330
17
100
AcDbEntity
  8
4
100
AcDbCircle
 10
754.7798055372227
 20
1683.493947994021
 30
0.0
 40
2.0
100
AcDbArc
 50
11.8804080840586
 51
78.30869246851736
  0
ARC
  5
28D
330
17
100
AcDbEntity
  8
4
100
AcDbCircle
 10
753.9356504146012
 20
1682.647009927161
 30
0.0
 40
3.0
100
AcDbArc
 50
11.80489633832179
 51
78.38315647824389
  0
ARC
  5
28E
330
17
100
AcDbEntity
  8
4
100
AcDbCircle
 10
748.9980956627719
 20
1677.521748122342
 30
0.0
 40
2.0
100
AcDbArc
 50
11.17914075699222
 51
78.82085924300138
  0
ARC
  5
28F
330
17
100
AcDbEntity
  8
4
100
AcDbCircle
 10
748.1465768862095
 20
1676.67022934578
 30
0.0
 40
3.0
100
AcDbArc
 50
11.10186961540083
 51
78.89813038458983
  0
LINE
  5
290
330
17
100
AcDbEntity
  8
L-CENTER
 48
2.0
100
AcDbLine
 10
803.3393582653289
 20
1842.32370381691
 30
0.0
 11
780.0551324986809
 21
1801.994241774173
 31
0.0
  0
LINE
  5
291
330
17
100
AcDbEntity
  8
4
100
AcDbLine
 10
964.7472453820042
 20
1172.470897841575
 30
0.0
 11
964.7472453820042
 21
1399.470897841575
 31
0.0
  0
LINE
  5
292
330
17
100
AcDbEntity
  8
4
100
AcDbLine
 10
340.1472453820047
 20
1172.470897841575
 30
0.0
 11
340.1472453820047
 21
1399.470897841575
 31
0.0
  0
ARC
  5
293
330
17
100
AcDbEntity
  8
4
100
AcDbCircle
 10
963.7472453820042
 20
1399.470897841575
 30
0.0
 40
1.0
100
AcDbArc
 50
0.0
 51
90.0
  0
ARC
  5
294
330
17
100
AcDbEntity
  8
4
100
AcDbCircle
 10
963.7472453820042
 20
1172.470897841575
 30
0.0
 40
1.0
100
AcDbArc
 50
270.0
 51
0.0
  0
ARC
  5
295
330
17
100
AcDbEntity
  8
4
100
AcDbCircle
 10
341.1472453820047
 20
1399.470897841575
 30
0.0
 40
1.0
100
AcDbArc
 50
90.0
 51
180.0
  0
ARC
  5
296
330
17
100
AcDbEntity
  8
4
100
AcDbCircle
 10
341.1472453820047
 20
1172.470897841575
 30
0.0
 40
1.0
100
AcDbArc
 50
180.0
 51
270.0
  0
LINE
  5
297
330
17
100
AcDbEntity
  8
4
100
AcDbLine
 10
330.2844262926319
 20
1375.893050276305
 30
0.0
 11
337.1472453820052
 21
1375.893050276305
 31
0.0
  0
LINE
  5
298
330
17
100
AcDbEntity
  8
4
100
AcDbLine
 10
340.1472453820052
 20
1381.377877833606
 30
0.0
 11
330.2844262926319
 21
1381.377877833606
 31
0.0
  0
LINE
  5
299
330
17
100
AcDbEntity
  8
4
100
AcDbLine
 10
330.2844262926319
 20
1364.923395161702
 30
0.0
 11
337.1472453820052
 21
1364.923395161702
 31
0.0
  0
LINE
  5
29A
330
17
100
AcDbEntity
  8
4
100
AcDbLine
 10
330.2844262926319
 20
1359.4385676044
 30
0.0
 11
340.1472453820052
 21
1359.4385676044
 31
0.0
  0
ARC
  5
29B
330
17
100
AcDbEntity
  8
4
100
AcDbCircle
 10
333.0226242572844
 20
1378.635464054956
 30
0.0
 40
3.875378875279264
100
AcDbArc
 50
134.9559267627375
 51
225.0440732372459
  0
ARC
  5
29C
330
17
100
AcDbEntity
  8
4
100
AcDbCircle
 10
342.9429895171825
 20
1370.408222719003
 30
0.0
 40
13.7957441351769
100
AcDbArc
 50
156.5734024913727
 51
203.4265975086273
  0
LINE
  5
29D
330
17
100
AcDbEntity
  8
4
100
AcDbLine
 10
329.1472453820052
 20
1378.635464054956
 30
0.0
 11
329.1472453820052
 21
1362.180981383051
 31
0.0
  0
ARC
  5
29E
330
17
100
AcDbEntity
  8
4
100
AcDbCircle
 10
333.0226242572844
 20
1362.180981383051
 30
0.0
 40
3.875378875279244
100
AcDbArc
 50
134.9559267627375
 51
225.0440732372459
  0
LINE
  5
29F
330
17
100
AcDbEntity
  8
4
100
AcDbLine
 10
340.1472453820052
 20
1359.4385676044
 30
0.0
 11
340.1472453820052
 21
1381.377877833606
 31
0.0
  0
LINE
  5
2A0
330
17
100
AcDbEntity
  8
4
100
AcDbLine
 10
337.1472453820052
 20
1359.4385676044
 30
0.0
 11
337.1472453820052
 21
1381.377877833606
 31
0.0
  0
LINE
  5
2A1
330
17
100
AcDbEntity
  8
L-CENTER
 48
2.0
100
AcDbLine
 10
325.5464055019011
 20
1370.408222719003
 30
0.0
 11
375.8879993483888
 21
1370.408222719003
 31
0.0
  0
LINE
  5
2A2
330
17
100
AcDbEntity
  8
L-CENTER
 48
2.0
100
AcDbLine
 10
325.5464055019006
 20
1201.533545222289
 30
0.0
 11
375.8879993483888
 21
1201.533545222289
 31
0.0
  0
LINE
  5
2A3
330
17
100
AcDbEntity
  8
4
100
AcDbLine
 10
337.1472453820047
 20
1190.563890107685
 30
0.0
 11
337.1472453820047
 21
1212.503200336891
 31
0.0
  0
LINE
  5
2A4
330
17
100
AcDbEntity
  8
4
100
AcDbLine
 10
340.1472453820047
 20
1190.563890107685
 30
0.0
 11
340.1472453820047
 21
1212.503200336891
 31
0.0
  0
ARC
  5
2A5
330
17
100
AcDbEntity
  8
4
100
AcDbCircle
 10
333.022624257284
 20
1193.306303886336
 30
0.0
 40
3.875378875279244
100
AcDbArc
 50
134.955926762747
 51
225.0440732372626
  0
LINE
  5
2A6
330
17
100
AcDbEntity
  8
4
100
AcDbLine
 10
329.1472453820047
 20
1209.760786558241
 30
0.0
 11
329.1472453820047
 21
1193.306303886336
 31
0.0
  0
ARC
  5
2A7
330
17
100
AcDbEntity
  8
4
100
AcDbCircle
 10
342.942989517182
 20
1201.533545222289
 30
0.0
 40
13.7957441351769
100
AcDbArc
 50
156.5734024913727
 51
203.4265975086273
  0
ARC
  5
2A8
330
17
100
AcDbEntity
  8
4
100
AcDbCircle
 10
333.022624257284
 20
1209.760786558241
 30
0.0
 40
3.875378875279264
100
AcDbArc
 50
134.955926762747
 51
225.0440732372626
  0
LINE
  5
2A9
330
17
100
AcDbEntity
  8
4
100
AcDbLine
 10
330.2844262926315
 20
1190.563890107685
 30
0.0
 11
340.1472453820047
 21
1190.563890107685
 31
0.0
  0
LINE
  5
2AA
330
17
100
AcDbEntity
  8
4
100
AcDbLine
 10
330.2844262926315
 20
1196.048717664987
 30
0.0
 11
337.1472453820047
 21
1196.048717664987
 31
0.0
  0
LINE
  5
2AB
330
17
100
AcDbEntity
  8
4
100
AcDbLine
 10
340.1472453820047
 20
1212.503200336891
 30
0.0
 11
330.2844262926315
 21
1212.503200336891
 31
0.0
  0
LINE
  5
2AC
330
17
100
AcDbEntity
  8
4
100
AcDbLine
 10
330.2844262926315
 20
1207.01837277959
 30
0.0
 11
337.1472453820047
 21
1207.01837277959
 31
0.0
  0
LINE
  5
2AD
330
17
100
AcDbEntity
  8
4
100
AcDbLine
 10
337.1472453820047
 20
1275.001242726972
 30
0.0
 11
337.1472453820047
 21
1296.940552956178
 31
0.0
  0
LINE
  5
2AE
330
17
100
AcDbEntity
  8
4
100
AcDbLine
 10
340.1472453820047
 20
1275.001242726972
 30
0.0
 11
340.1472453820047
 21
1296.940552956178
 31
0.0
  0
ARC
  5
2AF
330
17
100
AcDbEntity
  8
4
100
AcDbCircle
 10
333.022624257284
 20
1277.743656505623
 30
0.0
 40
3.875378875279244
100
AcDbArc
 50
134.9559267627375
 51
225.044073237253
  0
LINE
  5
2B0
330
17
100
AcDbEntity
  8
4
100
AcDbLine
 10
329.1472453820047
 20
1294.198139177528
 30
0.0
 11
329.1472453820047
 21
1277.743656505623
 31
0.0
  0
ARC
  5
2B1
330
17
100
AcDbEntity
  8
4
100
AcDbCircle
 10
342.942989517182
 20
1285.970897841575
 30
0.0
 40
13.7957441351769
100
AcDbArc
 50
156.5734024913727
 51
203.4265975086273
  0
ARC
  5
2B2
330
17
100
AcDbEntity
  8
4
100
AcDbCircle
 10
333.022624257284
 20
1294.198139177528
 30
0.0
 40
3.875378875279264
100
AcDbArc
 50
134.9559267627375
 51
225.044073237253
  0
LINE
  5
2B3
330
17
100
AcDbEntity
  8
4
100
AcDbLine
 10
330.2844262926315
 20
1275.001242726972
 30
0.0
 11
340.1472453820047
 21
1275.001242726972
 31
0.0
  0
LINE
  5
2B4
330
17
100
AcDbEntity
  8
4
100
AcDbLine
 10
330.2844262926315
 20
1280.486070284274
 30
0.0
 11
337.1472453820047
 21
1280.486070284274
 31
0.0
  0
LINE
  5
2B5
330
17
100
AcDbEntity
  8
4
100
AcDbLine
 10
340.1472453820047
 20
1296.940552956178
 30
0.0
 11
330.2844262926315
 21
1296.940552956178
 31
0.0
  0
LINE
  5
2B6
330
17
100
AcDbEntity
  8
4
100
AcDbLine
 10
330.2844262926315
 20
1291.455725398877
 30
0.0
 11
337.1472453820047
 21
1291.455725398877
 31
0.0
  0
LINE
  5
2B7
330
17
100
AcDbEntity
  8
4
100
AcDbLine
 10
1100.447245246709
 20
1254.470897851089
 30
0.0
 11
982.4472452823452
 21
1254.470897851089
 31
0.0
  0
LINE
  5
2B8
330
17
100
AcDbEntity
  8
4
100
AcDbLine
 10
965.7472452874786
 20
1253.470897851391
 30
0.0
 11
982.4472452823452
 21
1253.470897851391
 31
0.0
  0
LINE
  5
2B9
330
17
100
AcDbEntity
  8
4
100
AcDbLine
 10
982.4472452823452
 20
1318.47089783176
 30
0.0
 11
982.4472452823452
 21
1253.470897851391
 31
0.0
  0
LINE
  5
2BA
330
17
100
AcDbEntity
  8
4
100
AcDbLine
 10
1100.447245246709
 20
1254.470897851089
 30
0.0
 11
1100.447245246709
 21
1276.970897841575
 31
0.0
  0
LINE
  5
2BB
330
17
100
AcDbEntity
  8
4
100
AcDbLine
 10
1102.447245246105
 20
1256.470897850484
 30
0.0
 11
1102.447245246105
 21
1315.470897832667
 31
0.0
  0
LINE
  5
2BC
330
17
100
AcDbEntity
  8
4
100
AcDbLine
 10
1102.447245246105
 20
1256.470897850484
 30
0.0
 11
1100.447245246709
 21
1254.470897851089
 31
0.0
  0
LINE
  5
2BD
330
17
100
AcDbEntity
  8
4
100
AcDbLine
 10
1100.447245246709
 20
1317.470897832062
 30
0.0
 11
982.4472452823452
 21
1317.470897832062
 31
0.0
  0
LINE
  5
2BE
330
17
100
AcDbEntity
  8
4
100
AcDbLine
 10
965.7472452874786
 20
1318.47089783176
 30
0.0
 11
982.4472452823452
 21
1318.47089783176
 31
0.0
  0
LINE
  5
2BF
330
17
100
AcDbEntity
  8
4
100
AcDbLine
 10
965.7472452874786
 20
1330.970897841576
 30
0.0
 11
965.7472452874786
 21
1296.940552956201
 31
0.0
  0
LINE
  5
2C0
330
17
100
AcDbEntity
  8
4
100
AcDbLine
 10
1102.447245246105
 20
1315.470897832667
 30
0.0
 11
1100.447245246709
 21
1317.470897832063
 31
0.0
  0
LINE
  5
2C1
330
17
100
AcDbEntity
  8
4
100
AcDbLine
 10
1100.447245246709
 20
1294.970897841575
 30
0.0
 11
1100.447245246709
 21
1317.470897832062
 31
0.0
  0
LINE
  5
2C2
330
17
100
AcDbEntity
  8
4
100
AcDbLine
 10
964.7472453820042
 20
1330.970897841575
 30
0.0
 11
965.7472452874786
 21
1330.970897841575
 31
0.0
  0
LINE
  5
2C3
330
17
100
AcDbEntity
  8
4
100
AcDbLine
 10
964.7472453820042
 20
1240.970897841576
 30
0.0
 11
965.7472452874786
 21
1240.970897841576
 31
0.0
  0
LINE
  5
2C4
330
17
100
AcDbEntity
  8
L-CENTER
 48
2.0
100
AcDbLine
 10
979.3480852621119
 20
1370.408222719027
 30
0.0
 11
929.0064914156242
 21
1370.408222719023
 31
0.0
  0
LINE
  5
2C5
330
17
100
AcDbEntity
  8
4
100
AcDbLine
 10
967.7472453820087
 20
1359.438567604423
 30
0.0
 11
967.7472453820069
 21
1381.377877833629
 31
0.0
  0
LINE
  5
2C6
330
17
100
AcDbEntity
  8
4
100
AcDbLine
 10
964.7472453820087
 20
1359.438567604423
 30
0.0
 11
964.7472453820069
 21
1381.377877833629
 31
0.0
  0
ARC
  5
2C7
330
17
100
AcDbEntity
  8
4
100
AcDbCircle
 10
971.8718665067295
 20
1362.180981383075
 30
0.0
 40
3.875378875279244
100
AcDbArc
 50
314.955926762738
 51
45.04407323727382
  0
LINE
  5
2C8
330
17
100
AcDbEntity
  8
4
100
AcDbLine
 10
975.7472453820069
 20
1378.635464054979
 30
0.0
 11
975.7472453820087
 21
1362.180981383075
 31
0.0
  0
ARC
  5
2C9
330
17
100
AcDbEntity
  8
4
100
AcDbCircle
 10
961.9515012468305
 20
1370.408222719026
 30
0.0
 40
13.7957441351769
100
AcDbArc
 50
336.5734024913767
 51
23.42659750862713
  0
ARC
  5
2CA
330
17
100
AcDbEntity
  8
4
100
AcDbCircle
 10
971.8718665067286
 20
1378.635464054979
 30
0.0
 40
3.875378875279264
100
AcDbArc
 50
314.955926762738
 51
45.04407323727382
  0
LINE
  5
2CB
330
17
100
AcDbEntity
  8
4
100
AcDbLine
 10
974.610064471382
 20
1359.438567604423
 30
0.0
 11
964.7472453820087
 21
1359.438567604423
 31
0.0
  0
LINE
  5
2CC
330
17
100
AcDbEntity
  8
4
100
AcDbLine
 10
974.610064471382
 20
1364.923395161726
 30
0.0
 11
967.7472453820087
 21
1364.923395161725
 31
0.0
  0
LINE
  5
2CD
330
17
100
AcDbEntity
  8
4
100
AcDbLine
 10
964.7472453820069
 20
1381.377877833629
 30
0.0
 11
974.6100644713802
 21
1381.37787783363
 31
0.0
  0
LINE
  5
2CE
330
17
100
AcDbEntity
  8
4
100
AcDbLine
 10
974.6100644713811
 20
1375.893050276328
 30
0.0
 11
967.7472453820078
 21
1375.893050276327
 31
0.0
  0
LINE
  5
2CF
330
17
100
AcDbEntity
  8
4
100
AcDbLine
 10
974.6100644713874
 20
1291.4557253989
 30
0.0
 11
967.7472453820142
 21
1291.455725398899
 31
0.0
  0
LINE
  5
2D0
330
17
100
AcDbEntity
  8
4
100
AcDbLine
 10
964.7472453820142
 20
1296.940552956201
 30
0.0
 11
974.6100644713865
 21
1296.940552956202
 31
0.0
  0
LINE
  5
2D1
330
17
100
AcDbEntity
  8
4
100
AcDbLine
 10
974.6100644713883
 20
1280.486070284298
 30
0.0
 11
967.7472453820151
 21
1280.486070284297
 31
0.0
  0
LINE
  5
2D2
330
17
100
AcDbEntity
  8
4
100
AcDbLine
 10
974.6100644713883
 20
1275.001242726996
 30
0.0
 11
964.7472453820151
 21
1275.001242726995
 31
0.0
  0
ARC
  5
2D3
330
17
100
AcDbEntity
  8
4
100
AcDbCircle
 10
971.8718665067349
 20
1294.198139177551
 30
0.0
 40
3.875378875279264
100
AcDbArc
 50
314.955926762738
 51
45.04407323727145
  0
ARC
  5
2D4
330
17
100
AcDbEntity
  8
4
100
AcDbCircle
 10
961.9515012468369
 20
1285.970897841598
 30
0.0
 40
13.7957441351769
100
AcDbArc
 50
336.5734024913767
 51
23.42659750863135
  0
LINE
  5
2D5
330
17
100
AcDbEntity
  8
4
100
AcDbLine
 10
975.7472453820142
 20
1294.198139177551
 30
0.0
 11
975.7472453820151
 21
1277.743656505647
 31
0.0
  0
ARC
  5
2D6
330
17
100
AcDbEntity
  8
4
100
AcDbCircle
 10
971.8718665067358
 20
1277.743656505647
 30
0.0
 40
3.875378875279244
100
AcDbArc
 50
314.955926762738
 51
45.04407323726194
  0
LINE
  5
2D7
330
17
100
AcDbEntity
  8
4
100
AcDbLine
 10
964.7472453820151
 20
1275.001242726995
 30
0.0
 11
964.7472453820142
 21
1296.940552956201
 31
0.0
  0
LINE
  5
2D8
330
17
100
AcDbEntity
  8
4
100
AcDbLine
 10
967.7472453820151
 20
1275.001242726995
 30
0.0
 11
967.7472453820142
 21
1296.940552956201
 31
0.0
  0
LINE
  5
2D9
330
17
100
AcDbEntity
  8
L-CENTER
 48
2.0
100
AcDbLine
 10
979.3480852621246
 20
1201.533545222312
 30
0.0
 11
929.0064914156369
 21
1201.533545222309
 31
0.0
  0
LINE
  5
2DA
330
17
100
AcDbEntity
  8
4
100
AcDbLine
 10
974.6100644713938
 20
1207.018372779613
 30
0.0
 11
967.7472453820205
 21
1207.018372779613
 31
0.0
  0
LINE
  5
2DB
330
17
100
AcDbEntity
  8
4
100
AcDbLine
 10
964.7472453820196
 20
1212.503200336914
 30
0.0
 11
974.6100644713929
 21
1212.503200336914
 31
0.0
  0
LINE
  5
2DC
330
17
100
AcDbEntity
  8
4
100
AcDbLine
 10
974.6100644713938
 20
1196.04871766501
 30
0.0
 11
967.7472453820214
 21
1196.04871766501
 31
0.0
  0
LINE
  5
2DD
330
17
100
AcDbEntity
  8
4
100
AcDbLine
 10
974.6100644713947
 20
1190.563890107708
 30
0.0
 11
964.7472453820214
 21
1190.563890107708
 31
0.0
  0
ARC
  5
2DE
330
17
100
AcDbEntity
  8
4
100
AcDbCircle
 10
971.8718665067413
 20
1209.760786558264
 30
0.0
 40
3.875378875279264
100
AcDbArc
 50
314.9559267627476
 51
45.04407323728095
  0
ARC
  5
2DF
330
17
100
AcDbEntity
  8
4
100
AcDbCircle
 10
961.9515012468432
 20
1201.533545222311
 30
0.0
 40
13.7957441351769
100
AcDbArc
 50
336.5734024913767
 51
23.42659750863135
  0
LINE
  5
2E0
330
17
100
AcDbEntity
  8
4
100
AcDbLine
 10
975.7472453820196
 20
1209.760786558264
 30
0.0
 11
975.7472453820214
 21
1193.306303886359
 31
0.0
  0
ARC
  5
2E1
330
17
100
AcDbEntity
  8
4
100
AcDbCircle
 10
971.8718665067422
 20
1193.306303886359
 30
0.0
 40
3.875378875279244
100
AcDbArc
 50
314.9559267627476
 51
45.04407323728095
  0
LINE
  5
2E2
330
17
100
AcDbEntity
  8
4
100
AcDbLine
 10
964.7472453820214
 20
1190.563890107708
 30
0.0
 11
964.7472453820196
 21
1212.503200336914
 31
0.0
  0
LINE
  5
2E3
330
17
100
AcDbEntity
  8
4
100
AcDbLine
 10
967.7472453820214
 20
1190.563890107708
 30
0.0
 11
967.7472453820196
 21
1212.503200336914
 31
0.0
  0
LINE
  5
2E4
330
17
100
AcDbEntity
  8
4
100
AcDbLine
 10
965.7472452874786
 20
1275.001242726995
 30
0.0
 11
965.7472452874786
 21
1240.970897841575
 31
0.0
  0
LINE
  5
2E5
330
17
100
AcDbEntity
  8
4
100
AcDbLine
 10
1534.785906702122
 20
649.1126901030593
 30
0.0
 11
1525.285906702122
 21
643.627862545758
 31
0.0
  0
LINE
  5
2E6
330
17
100
AcDbEntity
  8
4
100
AcDbLine
 10
1525.285906702122
 20
632.6582074311555
 30
0.0
 11
1534.785906702122
 21
627.1733798738533
 31
0.0
  0
CIRCLE
  5
2E7
330
17
100
AcDbEntity
  8
4
100
AcDbCircle
 10
1534.785906702122
 20
638.1430349884567
 30
0.0
 40
9.5
  0
LINE
  5
2E8
330
17
100
AcDbEntity
  8
4
100
AcDbLine
 10
1525.285906702122
 20
643.627862545758
 30
0.0
 11
1525.285906702122
 21
632.6582074311555
 31
0.0
  0
LINE
  5
2E9
330
17
100
AcDbEntity
  8
4
100
AcDbLine
 10
1544.285906702122
 20
643.627862545758
 30
0.0
 11
1534.785906702122
 21
649.1126901030593
 31
0.0
  0
LINE
  5
2EA
330
17
100
AcDbEntity
  8
4
100
AcDbLine
 10
1544.285906702122
 20
632.6582074311555
 30
0.0
 11
1544.285906702122
 21
643.627862545758
 31
0.0
  0
LINE
  5
2EB
330
17
100
AcDbEntity
  8
4
100
AcDbLine
 10
1534.785906702122
 20
627.1733798738533
 30
0.0
 11
1544.285906702122
 21
632.6582074311555
 31
0.0
  0
CIRCLE
  5
2EC
330
17
100
AcDbEntity
  8
4
100
AcDbCircle
 10
1450.348429833139
 20
589.3930349884563
 30
0.0
 40
9.5
  0
LINE
  5
2ED
330
17
100
AcDbEntity
  8
4
100
AcDbLine
 10
1450.348429833139
 20
578.4233798738537
 30
0.0
 11
1459.848429833139
 21
583.9082074311546
 31
0.0
  0
LINE
  5
2EE
330
17
100
AcDbEntity
  8
4
100
AcDbLine
 10
1440.848429833139
 20
594.8778625457576
 30
0.0
 11
1440.848429833139
 21
583.908207431155
 31
0.0
  0
LINE
  5
2EF
330
17
100
AcDbEntity
  8
4
100
AcDbLine
 10
1440.848429833139
 20
583.908207431155
 30
0.0
 11
1450.348429833139
 21
578.4233798738537
 31
0.0
  0
LINE
  5
2F0
330
17
100
AcDbEntity
  8
4
100
AcDbLine
 10
1459.848429833139
 20
583.9082074311546
 30
0.0
 11
1459.848429833139
 21
594.877862545758
 31
0.0
  0
LINE
  5
2F1
330
17
100
AcDbEntity
  8
4
100
AcDbLine
 10
1459.848429833139
 20
594.877862545758
 30
0.0
 11
1450.348429833139
 21
600.3626901030593
 31
0.0
  0
LINE
  5
2F2
330
17
100
AcDbEntity
  8
4
100
AcDbLine
 10
1450.348429833139
 20
600.3626901030593
 30
0.0
 11
1440.848429833139
 21
594.8778625457576
 31
0.0
  0
CIRCLE
  5
2F3
330
17
100
AcDbEntity
  8
4
100
AcDbCircle
 10
1450.348429833139
 20
491.893034988457
 30
0.0
 40
9.5
  0
LINE
  5
2F4
330
17
100
AcDbEntity
  8
4
100
AcDbLine
 10
1459.848429833139
 20
486.408207431155
 30
0.0
 11
1459.84842983314
 21
497.3778625457583
 31
0.0
  0
LINE
  5
2F5
330
17
100
AcDbEntity
  8
4
100
AcDbLine
 10
1440.84842983314
 20
486.4082074311552
 30
0.0
 11
1450.34842983314
 21
480.9233798738537
 31
0.0
  0
LINE
  5
2F6
330
17
100
AcDbEntity
  8
4
100
AcDbLine
 10
1450.34842983314
 20
480.9233798738537
 30
0.0
 11
1459.848429833139
 21
486.408207431155
 31
0.0
  0
LINE
  5
2F7
330
17
100
AcDbEntity
  8
4
100
AcDbLine
 10
1459.84842983314
 20
497.3778625457583
 30
0.0
 11
1450.348429833139
 21
502.8626901030593
 31
0.0
  0
LINE
  5
2F8
330
17
100
AcDbEntity
  8
4
100
AcDbLine
 10
1450.348429833139
 20
502.8626901030593
 30
0.0
 11
1440.84842983314
 21
497.377862545758
 31
0.0
  0
LINE
  5
2F9
330
17
100
AcDbEntity
  8
4
100
AcDbLine
 10
1440.84842983314
 20
497.377862545758
 30
0.0
 11
1440.84842983314
 21
486.4082074311552
 31
0.0
  0
CIRCLE
  5
2FA
330
17
100
AcDbEntity
  8
4
100
AcDbCircle
 10
1534.785906702122
 20
443.143034988457
 30
0.0
 40
9.5
  0
LINE
  5
2FB
330
17
100
AcDbEntity
  8
4
100
AcDbLine
 10
1544.285906702122
 20
448.6278625457583
 30
0.0
 11
1534.785906702122
 21
454.1126901030605
 31
0.0
  0
LINE
  5
2FC
330
17
100
AcDbEntity
  8
4
100
AcDbLine
 10
1534.785906702122
 20
432.1733798738544
 30
0.0
 11
1544.285906702122
 21
437.6582074311557
 31
0.0
  0
LINE
  5
2FD
330
17
100
AcDbEntity
  8
4
100
AcDbLine
 10
1544.285906702122
 20
437.6582074311557
 30
0.0
 11
1544.285906702122
 21
448.6278625457583
 31
0.0
  0
LINE
  5
2FE
330
17
100
AcDbEntity
  8
4
100
AcDbLine
 10
1534.785906702122
 20
454.1126901030605
 30
0.0
 11
1525.285906702122
 21
448.6278625457583
 31
0.0
  0
LINE
  5
2FF
330
17
100
AcDbEntity
  8
4
100
AcDbLine
 10
1525.285906702122
 20
448.6278625457583
 30
0.0
 11
1525.285906702122
 21
437.6582074311557
 31
0.0
  0
LINE
  5
300
330
17
100
AcDbEntity
  8
4
100
AcDbLine
 10
1525.285906702122
 20
437.6582074311557
 30
0.0
 11
1534.785906702122
 21
432.1733798738544
 31
0.0
  0
CIRCLE
  5
301
330
17
100
AcDbEntity
  8
4
100
AcDbCircle
 10
1619.223383571105
 20
491.893034988457
 30
0.0
 40
9.5
  0
LINE
  5
302
330
17
100
AcDbEntity
  8
4
100
AcDbLine
 10
1619.223383571105
 20
502.8626901030598
 30
0.0
 11
1609.723383571104
 21
497.3778625457585
 31
0.0
  0
LINE
  5
303
330
17
100
AcDbEntity
  8
4
100
AcDbLine
 10
1628.723383571104
 20
486.4082074311555
 30
0.0
 11
1628.723383571105
 21
497.3778625457585
 31
0.0
  0
LINE
  5
304
330
17
100
AcDbEntity
  8
4
100
AcDbLine
 10
1628.723383571105
 20
497.3778625457585
 30
0.0
 11
1619.223383571105
 21
502.8626901030598
 31
0.0
  0
LINE
  5
305
330
17
100
AcDbEntity
  8
4
100
AcDbLine
 10
1609.723383571104
 20
497.3778625457585
 30
0.0
 11
1609.723383571105
 21
486.4082074311555
 31
0.0
  0
LINE
  5
306
330
17
100
AcDbEntity
  8
4
100
AcDbLine
 10
1609.723383571105
 20
486.4082074311555
 30
0.0
 11
1619.223383571105
 21
480.9233798738542
 31
0.0
  0
LINE
  5
307
330
17
100
AcDbEntity
  8
4
100
AcDbLine
 10
1619.223383571105
 20
480.9233798738542
 30
0.0
 11
1628.723383571104
 21
486.4082074311555
 31
0.0
  0
CIRCLE
  5
308
330
17
100
AcDbEntity
  8
4
100
AcDbCircle
 10
1619.223383571104
 20
589.3930349884572
 30
0.0
 40
9.5
  0
LINE
  5
309
330
17
100
AcDbEntity
  8
4
100
AcDbLine
 10
1609.723383571104
 20
594.8778625457585
 30
0.0
 11
1609.723383571104
 21
583.908207431155
 31
0.0
  0
LINE
  5
30A
330
17
100
AcDbEntity
  8
4
100
AcDbLine
 10
1628.723383571104
 20
594.877862545758
 30
0.0
 11
1619.223383571104
 21
600.3626901030598
 31
0.0
  0
LINE
  5
30B
330
17
100
AcDbEntity
  8
4
100
AcDbLine
 10
1619.223383571104
 20
600.3626901030598
 30
0.0
 11
1609.723383571104
 21
594.8778625457585
 31
0.0
  0
LINE
  5
30C
330
17
100
AcDbEntity
  8
4
100
AcDbLine
 10
1609.723383571104
 20
583.908207431155
 30
0.0
 11
1619.223383571104
 21
578.4233798738542
 31
0.0
  0
LINE
  5
30D
330
17
100
AcDbEntity
  8
4
100
AcDbLine
 10
1619.223383571104
 20
578.4233798738542
 30
0.0
 11
1628.723383571104
 21
583.9082074311555
 31
0.0
  0
LINE
  5
30E
330
17
100
AcDbEntity
  8
4
100
AcDbLine
 10
1628.723383571104
 20
583.9082074311555
 30
0.0
 11
1628.723383571104
 21
594.877862545758
 31
0.0
  0
LINE
  5
314
330
17
100
AcDbEntity
  8
L-CENTER
 48
2.0
100
AcDbLine
 10
1564.135294086552
 20
731.9430349386264
 30
0.0
 11
1665.436519269371
 21
731.9430349386264
 31
0.0
  0
ARC
  5
315
330
17
100
AcDbEntity
  8
4
100
AcDbCircle
 10
1614.785906677962
 20
731.9430349386264
 30
0.0
 40
36.0
100
AcDbArc
 50
304.0502224511964
 51
235.9497775487916
  0
LINE
  5
316
330
17
100
AcDbEntity
  8
4
100
AcDbLine
 10
1632.285906677962
 20
696.9430349386264
 30
0.0
 11
1630.785906677962
 21
709.9430349386264
 31
0.0
  0
LINE
  5
317
330
17
100
AcDbEntity
  8
4
100
AcDbLine
 10
1598.785906677962
 20
709.9430349386264
 30
0.0
 11
1614.785906677962
 21
711.9430349386264
 31
0.0
  0
LINE
  5
318
330
17
100
AcDbEntity
  8
4
100
AcDbLine
 10
1597.396406482775
 20
697.900699913673
 30
0.0
 11
1598.785906677962
 21
709.9430349386264
 31
0.0
  0
LINE
  5
319
330
17
100
AcDbEntity
  8
4
100
AcDbLine
 10
1614.785906677962
 20
711.9430349386264
 30
0.0
 11
1630.785906677962
 21
709.9430349386264
 31
0.0
  0
LINE
  5
31A
330
17
100
AcDbEntity
  8
4
100
AcDbLine
 10
1598.785906677962
 20
709.9430349386264
 30
0.0
 11
1630.785906677962
 21
709.9430349386264
 31
0.0
  0
CIRCLE
  5
31B
330
17
100
AcDbEntity
  8
4
100
AcDbCircle
 10
1614.785906677962
 20
731.9430349386264
 30
0.0
 40
20.0
  0
ARC
  5
31C
330
17
100
AcDbEntity
  8
4
100
AcDbCircle
 10
1638.302520598498
 20
697.1440569405238
 30
0.0
 40
6.0
100
AcDbArc
 50
124.050222451196
 51
181.9199780251475
  0
ARC
  5
31D
330
17
100
AcDbEntity
  8
4
100
AcDbCircle
 10
1591.269292757421
 20
697.144056940532
 30
0.0
 40
6.0
100
AcDbArc
 50
7.459598857820763
 51
55.94977754878231
  0
CIRCLE
  5
31E
330
17
100
AcDbEntity
  8
4
100
AcDbCircle
 10
2044.785906548103
 20
731.9430349386264
 30
0.0
 40
20.0
  0
ARC
  5
31F
330
17
100
AcDbEntity
  8
4
100
AcDbCircle
 10
2044.785906548103
 20
731.9430349386264
 30
0.0
 40
36.0
100
AcDbArc
 50
304.0502224512069
 51
235.949777548802
  0
LINE
  5
320
330
17
100
AcDbEntity
  8
L-CENTER
 48
2.0
100
AcDbLine
 10
2095.436519139512
 20
731.9430349386264
 30
0.0
 11
1994.135293956694
 21
731.9430349386264
 31
0.0
  0
LINE
  5
321
330
17
100
AcDbEntity
  8
4
100
AcDbLine
 10
2060.785906548103
 20
709.9430349386264
 30
0.0
 11
2028.785906548103
 21
709.9430349386264
 31
0.0
  0
LINE
  5
322
330
17
100
AcDbEntity
  8
4
100
AcDbLine
 10
2044.785906548103
 20
711.9430349386264
 30
0.0
 11
2028.785906548103
 21
709.9430349386264
 31
0.0
  0
LINE
  5
323
330
17
100
AcDbEntity
  8
4
100
AcDbLine
 10
2062.17540674329
 20
697.900699913673
 30
0.0
 11
2060.785906548103
 21
709.9430349386264
 31
0.0
  0
LINE
  5
324
330
17
100
AcDbEntity
  8
4
100
AcDbLine
 10
2060.785906548103
 20
709.9430349386264
 30
0.0
 11
2044.785906548103
 21
711.9430349386264
 31
0.0
  0
LINE
  5
325
330
17
100
AcDbEntity
  8
4
100
AcDbLine
 10
2027.285906548103
 20
696.9430349386264
 30
0.0
 11
2028.785906548103
 21
709.9430349386264
 31
0.0
  0
ARC
  5
326
330
17
100
AcDbEntity
  8
4
100
AcDbCircle
 10
2021.269292627565
 20
697.1440569405238
 30
0.0
 40
6.0
100
AcDbArc
 50
358.0800219748526
 51
55.94977754880399
  0
ARC
  5
327
330
17
100
AcDbEntity
  8
4
100
AcDbCircle
 10
2068.302520468642
 20
697.144056940532
 30
0.0
 40
6.0
100
AcDbArc
 50
124.0502224512177
 51
172.5404011421793
  0
LINE
  5
328
330
17
100
AcDbEntity
  8
L-CENTER
 48
2.0
100
AcDbLine
 10
2044.785906548103
 20
782.5936475300357
 30
0.0
 11
2044.785906548103
 21
669.6661828341882
 31
0.0
  0
ARC
  5
329
330
17
100
AcDbEntity
  8
4
100
AcDbCircle
 10
652.4472453820044
 20
759.9430349386264
 30
0.0
 40
8.0
100
AcDbArc
 50
0.0
 51
180.0
  0
LINE
  5
32A
330
17
100
AcDbEntity
  8
L-CENTER
100
AcDbLine
 10
636.7372778409454
 20
731.9430349386264
 30
0.0
 11
667.275707826283
 21
731.9430349386264
 31
0.0
  0
ARC
  5
32B
330
17
100
AcDbEntity
  8
4
100
AcDbCircle
 10
638.4472453820044
 20
702.9430349386264
 30
0.0
 40
6.0
100
AcDbArc
 50
270.0
 51
0.0
  0
LINE
  5
32C
330
17
100
AcDbEntity
  8
4
100
AcDbLine
 10
636.4472453820053
 20
709.9430349386264
 30
0.0
 11
644.4472453820053
 21
710.9430349386264
 31
0.0
  0
LINE
  5
32D
330
17
100
AcDbEntity
  8
4
100
AcDbLine
 10
634.9472453820044
 20
696.9430349386264
 30
0.0
 11
636.4472453820044
 21
709.9430349386264
 31
0.0
  0
LINE
  5
32E
330
17
100
AcDbEntity
  8
4
100
AcDbLine
 10
644.4472453820044
 20
759.9430349386264
 30
0.0
 11
644.4472453820044
 21
702.9430349386264
 31
0.0
  0
ARC
  5
32F
330
17
100
AcDbEntity
  8
4
100
AcDbCircle
 10
666.4472453820044
 20
702.9430349386264
 30
0.0
 40
6.0
100
AcDbArc
 50
180.0
 51
270.0
  0
LINE
  5
330
330
17
100
AcDbEntity
  8
4
100
AcDbLine
 10
660.4472453820053
 20
710.9430349386264
 30
0.0
 11
668.4472453820044
 21
709.9430349386264
 31
0.0
  0
LINE
  5
331
330
17
100
AcDbEntity
  8
4
100
AcDbLine
 10
669.9472453820044
 20
696.9430349386264
 30
0.0
 11
668.4472453820044
 21
709.9430349386264
 31
0.0
  0
LINE
  5
332
330
17
100
AcDbEntity
  8
4
100
AcDbLine
 10
660.4472453820044
 20
759.9430349386264
 30
0.0
 11
660.4472453820044
 21
702.9430349386264
 31
0.0
  0
LINE
  5
333
330
17
100
AcDbEntity
  8
L-CENTER
100
AcDbLine
 10
652.4472453820044
 20
774.624856129554
 30
0.0
 11
652.4472453820044
 21
694.660394169641
 31
0.0
  0
ARC
  5
334
330
17
100
AcDbEntity
  8
4
100
AcDbCircle
 10
652.4472453820049
 20
1393.970897841575
 30
0.0
 40
8.0
100
AcDbArc
 50
0.0
 51
180.0
  0
ARC
  5
335
330
17
100
AcDbEntity
  8
4
100
AcDbCircle
 10
652.4472453820049
 20
1337.970897841575
 30
0.0
 40
8.0
100
AcDbArc
 50
180.0
 51
0.0
  0
ARC
  5
336
330
17
100
AcDbEntity
  8
4
100
AcDbCircle
 10
652.4472453820049
 20
1365.970897841575
 30
0.0
 40
17.5
100
AcDbArc
 50
297.2028944122143
 51
62.79710558778572
  0
ARC
  5
337
330
17
100
AcDbEntity
  8
4
100
AcDbCircle
 10
652.4472453820049
 20
1365.970897841575
 30
0.0
 40
16.0
100
AcDbArc
 50
300.0000000000001
 51
60.00000000000168
  0
ARC
  5
338
330
17
100
AcDbEntity
  8
4
100
AcDbCircle
 10
652.4472453820049
 20
1365.970897841575
 30
0.0
 40
16.0
100
AcDbArc
 50
119.9999999999983
 51
239.9999999999984
  0
ARC
  5
339
330
17
100
AcDbEntity
  8
4
100
AcDbCircle
 10
652.4472453820049
 20
1365.970897841575
 30
0.0
 40
17.5
100
AcDbArc
 50
117.2028944122143
 51
242.7971055877857
  0
LINE
  5
33A
330
17
100
AcDbEntity
  8
4
100
AcDbLine
 10
660.447245382004
 20
1337.970897841575
 30
0.0
 11
660.4472453820049
 21
1393.970897841575
 31
0.0
  0
LINE
  5
33B
330
17
100
AcDbEntity
  8
4
100
AcDbLine
 10
644.447245382004
 20
1337.970897841575
 30
0.0
 11
644.4472453820049
 21
1393.970897841575
 31
0.0
  0
ARC
  5
33C
330
17
100
AcDbEntity
  8
4
100
AcDbCircle
 10
652.4472453820049
 20
1365.970897841575
 30
0.0
 40
25.0
100
AcDbArc
 50
288.6629248849408
 51
71.33707511505739
  0
ARC
  5
33D
330
17
100
AcDbEntity
  8
4
100
AcDbCircle
 10
652.4472453820049
 20
1823.970897841575
 30
0.0
 40
8.0
100
AcDbArc
 50
0.0
 51
180.0
  0
ARC
  5
33E
330
17
100
AcDbEntity
  8
4
100
AcDbCircle
 10
652.4472453820049
 20
1767.970897841575
 30
0.0
 40
8.0
100
AcDbArc
 50
180.0
 51
0.0
  0
ARC
  5
33F
330
17
100
AcDbEntity
  8
4
100
AcDbCircle
 10
652.4472453820049
 20
1795.970897841575
 30
0.0
 40
25.0
100
AcDbArc
 50
108.6629248849446
 51
251.3370751150574
  0
ARC
  5
340
330
17
100
AcDbEntity
  8
4
100
AcDbCircle
 10
652.4472453820049
 20
1795.970897841575
 30
0.0
 40
16.0
100
AcDbArc
 50
120.0000000000016
 51
239.9999999999984
  0
ARC
  5
341
330
17
100
AcDbEntity
  8
4
100
AcDbCircle
 10
652.4472453820049
 20
1795.970897841575
 30
0.0
 40
17.5
100
AcDbArc
 50
117.2028944122143
 51
242.7971055877857
  0
LINE
  5
342
330
17
100
AcDbEntity
  8
4
100
AcDbLine
 10
644.447245382004
 20
1823.970897841576
 30
0.0
 11
644.4472453820049
 21
1767.970897841576
 31
0.0
  0
ARC
  5
343
330
17
100
AcDbEntity
  8
4
100
AcDbCircle
 10
652.4472453820049
 20
1795.970897841575
 30
0.0
 40
25.0
100
AcDbArc
 50
288.6629248849426
 51
71.3370751150602
  0
ARC
  5
344
330
17
100
AcDbEntity
  8
4
100
AcDbCircle
 10
652.4472453820049
 20
1795.970897841575
 30
0.0
 40
17.5
100
AcDbArc
 50
297.2028944122143
 51
62.79710558778572
  0
ARC
  5
345
330
17
100
AcDbEntity
  8
4
100
AcDbCircle
 10
652.4472453820049
 20
1795.970897841575
 30
0.0
 40
16.0
100
AcDbArc
 50
300.0000000000001
 51
60.00000000000168
  0
LINE
  5
346
330
17
100
AcDbEntity
  8
4
100
AcDbLine
 10
660.447245382004
 20
1823.970897841576
 30
0.0
 11
660.4472453820049
 21
1767.970897841576
 31
0.0
  0
ARC
  5
347
330
17
100
AcDbEntity
  8
4
100
AcDbCircle
 10
447.4472453820053
 20
1600.889482128618
 30
0.0
 40
3.0
100
AcDbArc
 50
59.9999999999965
 51
120.0000000000035
  0
ARC
  5
348
330
17
100
AcDbEntity
  8
4
100
AcDbCircle
 10
464.6972453820053
 20
1571.011605698055
 30
0.0
 40
3.0
100
AcDbArc
 50
300.0000000000035
 51
0.0
  0
ARC
  5
349
330
17
100
AcDbEntity
  8
4
100
AcDbCircle
 10
464.6972453820053
 20
1590.930189985097
 30
0.0
 40
3.0
100
AcDbArc
 50
0.0
 51
59.9999999999965
  0
LINE
  5
34A
330
17
100
AcDbEntity
  8
4
100
AcDbLine
 10
467.6972453820053
 20
1590.930189985097
 30
0.0
 11
467.6972453820053
 21
1571.011605698055
 31
0.0
  0
ARC
  5
34B
330
17
100
AcDbEntity
  8
4
100
AcDbCircle
 10
430.1972453820044
 20
1590.930189985097
 30
0.0
 40
3.0
100
AcDbArc
 50
119.9999999999841
 51
180.0
  0
ARC
  5
34C
330
17
100
AcDbEntity
  8
4
100
AcDbCircle
 10
430.1972453820044
 20
1571.011605698055
 30
0.0
 40
3.0
100
AcDbArc
 50
180.0
 51
240.0000000000065
  0
ARC
  5
34D
330
17
100
AcDbEntity
  8
4
100
AcDbCircle
 10
447.4472453820053
 20
1561.052313554533
 30
0.0
 40
3.0
100
AcDbArc
 50
239.9999999999965
 51
300.0000000000035
  0
LINE
  5
34E
330
17
100
AcDbEntity
  8
4
100
AcDbLine
 10
445.9472453820053
 20
1558.45423734318
 30
0.0
 11
428.6972453820053
 21
1568.413529486701
 31
0.0
  0
LINE
  5
34F
330
17
100
AcDbEntity
  8
4
100
AcDbLine
 10
427.1972453820053
 20
1590.930189985097
 30
0.0
 11
427.1972453820053
 21
1571.011605698055
 31
0.0
  0
LINE
  5
350
330
17
100
AcDbEntity
  8
4
100
AcDbLine
 10
466.1972453820053
 20
1568.413529486701
 30
0.0
 11
448.9472453820053
 21
1558.45423734318
 31
0.0
  0
LINE
  5
351
330
17
100
AcDbEntity
  8
4
100
AcDbLine
 10
448.9472453820053
 20
1603.487558339971
 30
0.0
 11
466.1972453820053
 21
1593.52826619645
 31
0.0
  0
LINE
  5
352
330
17
100
AcDbEntity
  8
4
100
AcDbLine
 10
445.9472453820053
 20
1603.487558339971
 30
0.0
 11
428.6972453820053
 21
1593.52826619645
 31
0.0
  0
CIRCLE
  5
353
330
17
100
AcDbEntity
  8
4
100
AcDbCircle
 10
447.4472453820053
 20
1580.970897841575
 30
0.0
 40
23.0
  0
LINE
  5
354
330
17
100
AcDbEntity
  8
4
100
AcDbLine
 10
791.6972453820044
 20
1833.128627910145
 30
0.0
 11
782.1972453820044
 21
1827.643800352843
 31
0.0
  0
LINE
  5
355
330
17
100
AcDbEntity
  8
4
100
AcDbLine
 10
782.1972453820044
 20
1816.674145238241
 30
0.0
 11
791.6972453820044
 21
1811.189317680939
 31
0.0
  0
CIRCLE
  5
356
330
17
100
AcDbEntity
  8
4
100
AcDbCircle
 10
791.6972453820044
 20
1822.158972795542
 30
0.0
 40
9.5
  0
LINE
  5
357
330
17
100
AcDbEntity
  8
4
100
AcDbLine
 10
782.1972453820044
 20
1827.643800352843
 30
0.0
 11
782.1972453820044
 21
1816.674145238241
 31
0.0
  0
LINE
  5
358
330
17
100
AcDbEntity
  8
4
100
AcDbLine
 10
801.1972453820044
 20
1827.643800352843
 30
0.0
 11
791.6972453820044
 21
1833.128627910145
 31
0.0
  0
LINE
  5
359
330
17
100
AcDbEntity
  8
4
100
AcDbLine
 10
801.1972453820044
 20
1816.674145238241
 30
0.0
 11
801.1972453820044
 21
1827.643800352843
 31
0.0
  0
LINE
  5
35A
330
17
100
AcDbEntity
  8
4
100
AcDbLine
 10
791.6972453820044
 20
1811.189317680939
 30
0.0
 11
801.1972453820044
 21
1816.674145238241
 31
0.0
  0
LINE
  5
35B
330
17
100
AcDbEntity
  8
4
100
AcDbLine
 10
522.6972453820049
 20
1816.67414523824
 30
0.0
 11
522.6972453820044
 21
1827.643800352843
 31
0.0
  0
LINE
  5
35C
330
17
100
AcDbEntity
  8
4
100
AcDbLine
 10
513.1972453820044
 20
1833.128627910145
 30
0.0
 11
503.6972453820044
 21
1827.643800352842
 31
0.0
  0
CIRCLE
  5
35D
330
17
100
AcDbEntity
  8
4
100
AcDbCircle
 10
513.197245382004
 20
1822.158972795541
 30
0.0
 40
9.5
  0
LINE
  5
35E
330
17
100
AcDbEntity
  8
4
100
AcDbLine
 10
503.6972453820044
 20
1816.67414523824
 30
0.0
 11
513.1972453820044
 21
1811.189317680939
 31
0.0
  0
LINE
  5
35F
330
17
100
AcDbEntity
  8
4
100
AcDbLine
 10
513.1972453820044
 20
1811.189317680939
 30
0.0
 11
522.6972453820049
 21
1816.67414523824
 31
0.0
  0
LINE
  5
360
330
17
100
AcDbEntity
  8
4
100
AcDbLine
 10
503.6972453820044
 20
1827.643800352842
 30
0.0
 11
503.6972453820044
 21
1816.67414523824
 31
0.0
  0
LINE
  5
361
330
17
100
AcDbEntity
  8
4
100
AcDbLine
 10
522.6972453820044
 20
1827.643800352843
 30
0.0
 11
513.1972453820044
 21
1833.128627910145
 31
0.0
  0
LINE
  5
362
330
17
100
AcDbEntity
  8
4
100
AcDbLine
 10
383.4472453820053
 20
1586.455725398876
 30
0.0
 11
373.9472453820044
 21
1591.940552956178
 31
0.0
  0
LINE
  5
363
330
17
100
AcDbEntity
  8
4
100
AcDbLine
 10
364.4472453820044
 20
1586.455725398876
 30
0.0
 11
364.4472453820053
 21
1575.486070284273
 31
0.0
  0
CIRCLE
  5
364
330
17
100
AcDbEntity
  8
4
100
AcDbCircle
 10
373.9472453820049
 20
1580.970897841574
 30
0.0
 40
9.5
  0
LINE
  5
365
330
17
100
AcDbEntity
  8
4
100
AcDbLine
 10
373.9472453820044
 20
1570.001242726972
 30
0.0
 11
383.4472453820044
 21
1575.486070284273
 31
0.0
  0
LINE
  5
366
330
17
100
AcDbEntity
  8
4
100
AcDbLine
 10
383.4472453820044
 20
1575.486070284273
 30
0.0
 11
383.4472453820053
 21
1586.455725398876
 31
0.0
  0
LINE
  5
367
330
17
100
AcDbEntity
  8
4
100
AcDbLine
 10
364.4472453820053
 20
1575.486070284273
 30
0.0
 11
373.9472453820044
 21
1570.001242726972
 31
0.0
  0
LINE
  5
368
330
17
100
AcDbEntity
  8
4
100
AcDbLine
 10
373.9472453820044
 20
1591.940552956178
 30
0.0
 11
364.4472453820044
 21
1586.455725398876
 31
0.0
  0
LINE
  5
369
330
17
100
AcDbEntity
  8
4
100
AcDbLine
 10
513.1972453820053
 20
1350.752478002213
 30
0.0
 11
503.6972453820053
 21
1345.26765044491
 31
0.0
  0
LINE
  5
36A
330
17
100
AcDbEntity
  8
4
100
AcDbLine
 10
503.6972453820053
 20
1334.297995330308
 30
0.0
 11
513.1972453820053
 21
1328.813167773007
 31
0.0
  0
CIRCLE
  5
36B
330
17
100
AcDbEntity
  8
4
100
AcDbCircle
 10
513.1972453820053
 20
1339.782822887609
 30
0.0
 40
9.5
  0
LINE
  5
36C
330
17
100
AcDbEntity
  8
4
100
AcDbLine
 10
522.6972453820053
 20
1334.297995330308
 30
0.0
 11
522.6972453820053
 21
1345.26765044491
 31
0.0
  0
LINE
  5
36D
330
17
100
AcDbEntity
  8
4
100
AcDbLine
 10
522.6972453820053
 20
1345.26765044491
 30
0.0
 11
513.1972453820053
 21
1350.752478002213
 31
0.0
  0
LINE
  5
36E
330
17
100
AcDbEntity
  8
4
100
AcDbLine
 10
513.1972453820053
 20
1328.813167773007
 30
0.0
 11
522.6972453820053
 21
1334.297995330308
 31
0.0
  0
LINE
  5
36F
330
17
100
AcDbEntity
  8
4
100
AcDbLine
 10
503.6972453820053
 20
1345.26765044491
 30
0.0
 11
503.6972453820053
 21
1334.297995330308
 31
0.0
  0
LINE
  5
370
330
17
100
AcDbEntity
  8
4
100
AcDbLine
 10
782.1972453820049
 20
1345.267650444911
 30
0.0
 11
782.1972453820053
 21
1334.297995330308
 31
0.0
  0
LINE
  5
371
330
17
100
AcDbEntity
  8
4
100
AcDbLine
 10
791.6972453820053
 20
1328.813167773007
 30
0.0
 11
801.1972453820049
 21
1334.297995330308
 31
0.0
  0
CIRCLE
  5
372
330
17
100
AcDbEntity
  8
4
100
AcDbCircle
 10
791.6972453820058
 20
1339.782822887609
 30
0.0
 40
9.5
  0
LINE
  5
373
330
17
100
AcDbEntity
  8
4
100
AcDbLine
 10
801.1972453820053
 20
1345.267650444911
 30
0.0
 11
791.6972453820053
 21
1350.752478002213
 31
0.0
  0
LINE
  5
374
330
17
100
AcDbEntity
  8
4
100
AcDbLine
 10
791.6972453820053
 20
1350.752478002213
 30
0.0
 11
782.1972453820049
 21
1345.267650444911
 31
0.0
  0
LINE
  5
375
330
17
100
AcDbEntity
  8
4
100
AcDbLine
 10
801.1972453820049
 20
1334.297995330308
 30
0.0
 11
801.1972453820053
 21
1345.267650444911
 31
0.0
  0
LINE
  5
376
330
17
100
AcDbEntity
  8
4
100
AcDbLine
 10
782.1972453820053
 20
1334.297995330308
 30
0.0
 11
791.6972453820053
 21
1328.813167773007
 31
0.0
  0
LINE
  5
377
330
17
100
AcDbEntity
  8
4
100
AcDbLine
 10
921.4472453820049
 20
1575.486070284274
 30
0.0
 11
930.9472453820058
 21
1570.001242726973
 31
0.0
  0
LINE
  5
378
330
17
100
AcDbEntity
  8
4
100
AcDbLine
 10
940.4472453820058
 20
1575.486070284274
 30
0.0
 11
940.4472453820049
 21
1586.455725398877
 31
0.0
  0
CIRCLE
  5
379
330
17
100
AcDbEntity
  8
4
100
AcDbCircle
 10
930.9472453820049
 20
1580.970897841575
 30
0.0
 40
9.5
  0
LINE
  5
37A
330
17
100
AcDbEntity
  8
4
100
AcDbLine
 10
930.9472453820058
 20
1591.940552956179
 30
0.0
 11
921.4472453820058
 21
1586.455725398877
 31
0.0
  0
LINE
  5
37B
330
17
100
AcDbEntity
  8
4
100
AcDbLine
 10
921.4472453820058
 20
1586.455725398877
 30
0.0
 11
921.4472453820049
 21
1575.486070284274
 31
0.0
  0
LINE
  5
37C
330
17
100
AcDbEntity
  8
4
100
AcDbLine
 10
940.4472453820049
 20
1586.455725398877
 30
0.0
 11
930.9472453820058
 21
1591.940552956179
 31
0.0
  0
LINE
  5
37D
330
17
100
AcDbEntity
  8
4
100
AcDbLine
 10
930.9472453820058
 20
1570.001242726973
 30
0.0
 11
940.4472453820058
 21
1575.486070284274
 31
0.0
  0
LINE
  5
37E
330
17
100
AcDbEntity
  8
4
100
AcDbLine
 10
2060.004251498429
 20
696.8058540337377
 30
0.0
 11
2060.004251498429
 21
686.9430349443644
 31
0.0
  0
LINE
  5
37F
330
17
100
AcDbEntity
  8
4
100
AcDbLine
 10
2065.489079055732
 20
696.8058540337377
 30
0.0
 11
2065.489079055732
 21
689.9430349443644
 31
0.0
  0
LINE
  5
380
330
17
100
AcDbEntity
  8
4
100
AcDbLine
 10
2081.943561727634
 20
686.9430349443644
 30
0.0
 11
2081.943561727634
 21
696.8058540337377
 31
0.0
  0
LINE
  5
381
330
17
100
AcDbEntity
  8
4
100
AcDbLine
 10
2076.458734170334
 20
696.8058540337377
 30
0.0
 11
2076.458734170334
 21
689.9430349443644
 31
0.0
  0
ARC
  5
382
330
17
100
AcDbEntity
  8
4
100
AcDbCircle
 10
2062.74666527708
 20
694.0676560690852
 30
0.0
 40
3.875378875279244
100
AcDbArc
 50
44.9559267627547
 51
135.044073237262
  0
LINE
  5
383
330
17
100
AcDbEntity
  8
4
100
AcDbLine
 10
2079.201147948985
 20
697.9430349443644
 30
0.0
 11
2062.74666527708
 21
697.9430349443644
 31
0.0
  0
ARC
  5
384
330
17
100
AcDbEntity
  8
4
100
AcDbCircle
 10
2070.973906613032
 20
684.1472908091871
 30
0.0
 40
13.7957441351769
100
AcDbArc
 50
66.57340249136868
 51
113.4265975086233
  0
ARC
  5
385
330
17
100
AcDbEntity
  8
4
100
AcDbCircle
 10
2079.201147948985
 20
694.0676560690852
 30
0.0
 40
3.875378875279264
100
AcDbArc
 50
44.9559267627547
 51
135.044073237262
  0
LINE
  5
386
330
17
100
AcDbEntity
  8
4
100
AcDbLine
 10
2060.004251498429
 20
689.9430349443644
 30
0.0
 11
2081.943561727634
 21
689.9430349443644
 31
0.0
  0
LINE
  5
387
330
17
100
AcDbEntity
  8
4
100
AcDbLine
 10
2060.004251498429
 20
686.9430349443644
 30
0.0
 11
2081.943561727634
 21
686.9430349443644
 31
0.0
  0
LINE
  5
388
330
17
100
AcDbEntity
  8
4
100
AcDbLine
 10
1818.816251498429
 20
686.9430349443644
 30
0.0
 11
1840.755561727634
 21
686.9430349443644
 31
0.0
  0
LINE
  5
389
330
17
100
AcDbEntity
  8
4
100
AcDbLine
 10
1818.816251498429
 20
689.9430349443644
 30
0.0
 11
1840.755561727634
 21
689.9430349443644
 31
0.0
  0
ARC
  5
38A
330
17
100
AcDbEntity
  8
4
100
AcDbCircle
 10
1838.013147948985
 20
694.0676560690852
 30
0.0
 40
3.875378875279264
100
AcDbArc
 50
44.9559267627547
 51
135.044073237262
  0
ARC
  5
38B
330
17
100
AcDbEntity
  8
4
100
AcDbCircle
 10
1829.785906613032
 20
684.1472908091871
 30
0.0
 40
13.7957441351769
100
AcDbArc
 50
66.57340249136868
 51
113.4265975086233
  0
LINE
  5
38C
330
17
100
AcDbEntity
  8
4
100
AcDbLine
 10
1838.013147948985
 20
697.9430349443644
 30
0.0
 11
1821.55866527708
 21
697.9430349443644
 31
0.0
  0
ARC
  5
38D
330
17
100
AcDbEntity
  8
4
100
AcDbCircle
 10
1821.55866527708
 20
694.0676560690852
 30
0.0
 40
3.875378875279244
100
AcDbArc
 50
44.9559267627547
 51
135.044073237262
  0
LINE
  5
38E
330
17
100
AcDbEntity
  8
4
100
AcDbLine
 10
1835.270734170334
 20
696.8058540337377
 30
0.0
 11
1835.270734170334
 21
689.9430349443644
 31
0.0
  0
LINE
  5
38F
330
17
100
AcDbEntity
  8
4
100
AcDbLine
 10
1840.755561727634
 20
686.9430349443644
 30
0.0
 11
1840.755561727634
 21
696.8058540337377
 31
0.0
  0
LINE
  5
390
330
17
100
AcDbEntity
  8
4
100
AcDbLine
 10
1824.301079055731
 20
696.8058540337377
 30
0.0
 11
1824.301079055731
 21
689.9430349443644
 31
0.0
  0
LINE
  5
391
330
17
100
AcDbEntity
  8
4
100
AcDbLine
 10
1818.816251498429
 20
696.8058540337377
 30
0.0
 11
1818.816251498429
 21
686.9430349443644
 31
0.0
  0
ARC
  5
392
330
17
100
AcDbEntity
  8
4
100
AcDbCircle
 10
1596.825147948985
 20
694.0676560690852
 30
0.0
 40
3.875378875279264
100
AcDbArc
 50
44.95592676275233
 51
135.044073237262
  0
LINE
  5
393
330
17
100
AcDbEntity
  8
4
100
AcDbLine
 10
1577.628251498429
 20
689.9430349443644
 30
0.0
 11
1599.567561727634
 21
689.9430349443644
 31
0.0
  0
LINE
  5
394
330
17
100
AcDbEntity
  8
4
100
AcDbLine
 10
1577.628251498429
 20
686.9430349443644
 30
0.0
 11
1599.567561727634
 21
686.9430349443644
 31
0.0
  0
LINE
  5
395
330
17
100
AcDbEntity
  8
4
100
AcDbLine
 10
1577.628251498429
 20
696.8058540337377
 30
0.0
 11
1577.628251498429
 21
686.9430349443644
 31
0.0
  0
LINE
  5
396
330
17
100
AcDbEntity
  8
4
100
AcDbLine
 10
1583.113079055731
 20
696.8058540337377
 30
0.0
 11
1583.113079055731
 21
689.9430349443644
 31
0.0
  0
LINE
  5
397
330
17
100
AcDbEntity
  8
4
100
AcDbLine
 10
1594.082734170334
 20
696.8058540337377
 30
0.0
 11
1594.082734170334
 21
689.9430349443644
 31
0.0
  0
ARC
  5
398
330
17
100
AcDbEntity
  8
4
100
AcDbCircle
 10
1580.37066527708
 20
694.0676560690852
 30
0.0
 40
3.875378875279244
100
AcDbArc
 50
44.95592676275233
 51
135.044073237262
  0
LINE
  5
399
330
17
100
AcDbEntity
  8
4
100
AcDbLine
 10
1596.825147948985
 20
697.9430349443644
 30
0.0
 11
1580.37066527708
 21
697.9430349443644
 31
0.0
  0
ARC
  5
39A
330
17
100
AcDbEntity
  8
4
100
AcDbCircle
 10
1588.597906613032
 20
684.1472908091871
 30
0.0
 40
13.7957441351769
100
AcDbArc
 50
66.57340249136868
 51
113.4265975086271
  0
LINE
  5
39B
330
17
100
AcDbEntity
  8
4
100
AcDbLine
 10
1599.567561727634
 20
686.9430349443644
 30
0.0
 11
1599.567561727634
 21
696.8058540337377
 31
0.0
  0
LINE
  5
39C
330
17
100
AcDbEntity
  8
4
100
AcDbLine
 10
2060.148443234306
 20
696.9430349386264
 30
0.0
 11
2019.785906555652
 21
696.9430349386264
 31
0.0
  0
LINE
  5
39D
330
17
100
AcDbEntity
  8
4
100
AcDbLine
 10
1599.423369991759
 20
696.9430349386264
 30
0.0
 11
1639.785906670412
 21
696.9430349386264
 31
0.0
  0
LINE
  5
39E
330
17
100
AcDbEntity
  8
4
100
AcDbLine
 10
2133.285906521828
 20
518.1430350005367
 30
0.0
 11
2131.785906521828
 21
518.1430350005367
 31
0.0
  0
LINE
  5
39F
330
17
100
AcDbEntity
  8
4
100
AcDbLine
 10
2135.285906521828
 20
518.6430350005367
 30
0.0
 11
2133.285906521828
 21
518.6430350005367
 31
0.0
  0
LINE
  5
3A0
330
17
100
AcDbEntity
  8
4
100
AcDbLine
 10
2139.534494973541
 20
517.9635430762255
 30
0.0
 11
2135.285906521828
 21
517.9635430762255
 31
0.0
  0
LINE
  5
3A1
330
17
100
AcDbEntity
  8
4
100
AcDbLine
 10
2140.09831854871
 20
491.9827809626922
 30
0.0
 11
2135.285906521828
 21
491.9827809626922
 31
0.0
  0
LINE
  5
3A2
330
17
100
AcDbEntity
  8
4
100
AcDbLine
 10
2140.09831854871
 20
509.3032890383811
 30
0.0
 11
2135.285906521828
 21
509.3032890383811
 31
0.0
  0
LINE
  5
3A3
330
17
100
AcDbEntity
  8
4
100
AcDbLine
 10
2133.285906521828
 20
483.1430350005367
 30
0.0
 11
2131.785906521828
 21
483.1430350005367
 31
0.0
  0
LINE
  5
3A4
330
17
100
AcDbEntity
  8
4
100
AcDbLine
 10
2135.285906521828
 20
482.6430350005367
 30
0.0
 11
2133.285906521828
 21
482.6430350005367
 31
0.0
  0
LINE
  5
3A5
330
17
100
AcDbEntity
  8
4
100
AcDbLine
 10
2139.534494973541
 20
483.3225269248478
 30
0.0
 11
2135.285906521828
 21
483.3225269248478
 31
0.0
  0
ARC
  5
3A6
330
17
100
AcDbEntity
  8
4
100
AcDbCircle
 10
1940.285906521828
 20
500.6430350005367
 30
0.0
 40
200.0
100
AcDbArc
 50
355.0318164639294
 51
4.968183536070257
  0
LINE
  5
3A7
330
17
100
AcDbEntity
  8
4
100
AcDbLine
 10
2131.785906521828
 20
518.1430350005367
 30
0.0
 11
2131.785906521828
 21
483.1430350005367
 31
0.0
  0
LINE
  5
3A8
330
17
100
AcDbEntity
  8
4
100
AcDbLine
 10
2133.285906521828
 20
518.6430350005367
 30
0.0
 11
2133.285906521828
 21
482.6430350005367
 31
0.0
  0
LINE
  5
3A9
330
17
100
AcDbEntity
  8
4
100
AcDbLine
 10
2135.285906521828
 20
518.6430350005367
 30
0.0
 11
2135.285906521828
 21
482.6430350005367
 31
0.0
  0
LINE
  5
3AA
330
17
100
AcDbEntity
  8
4
100
AcDbLine
 10
634.4472453820053
 20
1884.470897841576
 30
0.0
 11
670.4472453820053
 21
1884.470897841576
 31
0.0
  0
LINE
  5
3AB
330
17
100
AcDbEntity
  8
4
100
AcDbLine
 10
634.4472453820053
 20
1886.470897841576
 30
0.0
 11
670.4472453820053
 21
1886.470897841576
 31
0.0
  0
LINE
  5
3AC
330
17
100
AcDbEntity
  8
4
100
AcDbLine
 10
634.4472453820053
 20
1886.470897841576
 30
0.0
 11
634.4472453820053
 21
1884.470897841576
 31
0.0
  0
LINE
  5
3AD
330
17
100
AcDbEntity
  8
4
100
AcDbLine
 10
669.9472453820053
 20
1884.470897841576
 30
0.0
 11
669.9472453820053
 21
1882.970897841576
 31
0.0
  0
LINE
  5
3AE
330
17
100
AcDbEntity
  8
4
100
AcDbLine
 10
670.4472453820053
 20
1886.470897841576
 30
0.0
 11
670.4472453820053
 21
1884.470897841576
 31
0.0
  0
LINE
  5
3AF
330
17
100
AcDbEntity
  8
4
100
AcDbLine
 10
667.4472453820053
 20
1890.907604593368
 30
0.0
 11
667.4472453820053
 21
1886.470897841576
 31
0.0
  0
LINE
  5
3B0
330
17
100
AcDbEntity
  8
4
100
AcDbLine
 10
634.9472453820053
 20
1884.470897841576
 30
0.0
 11
634.9472453820053
 21
1882.970897841576
 31
0.0
  0
LINE
  5
3B1
330
17
100
AcDbEntity
  8
4
100
AcDbLine
 10
637.4472453820053
 20
1890.907604593368
 30
0.0
 11
637.4472453820053
 21
1886.470897841576
 31
0.0
  0
ARC
  5
3B2
330
17
100
AcDbEntity
  8
4
100
AcDbCircle
 10
652.4472453820053
 20
1691.470897841576
 30
0.0
 40
200.0
100
AcDbArc
 50
85.69877769532965
 51
94.30122230467038
  0
LINE
  5
3B3
330
17
100
AcDbEntity
  8
4
100
AcDbLine
 10
634.9472453820053
 20
1882.970897841576
 30
0.0
 11
669.9472453820053
 21
1882.970897841576
 31
0.0
  0
LINE
  5
3B4
330
17
100
AcDbEntity
  8
4
100
AcDbLine
 10
1001.447245279325
 20
1294.970897841575
 30
0.0
 11
1102.447245246105
 21
1294.970897841575
 31
0.0
  0
LINE
  5
3B5
330
17
100
AcDbEntity
  8
4
100
AcDbLine
 10
1001.447245279325
 20
1276.970897841575
 30
0.0
 11
1102.447245246105
 21
1276.970897841575
 31
0.0
  0
ARC
  5
3B6
330
17
100
AcDbEntity
  8
4
100
AcDbCircle
 10
1001.447245279325
 20
1285.970897841575
 30
0.0
 40
9.0
100
AcDbArc
 50
90.0
 51
270.0
  0
CIRCLE
  5
417
330
17
100
AcDbEntity
  8
4
100
AcDbCircle
 10
1534.785906702122
 20
540.6430349884567
 30
0.0
 40
50.0
  0
CIRCLE
  5
418
330
17
100
AcDbEntity
  8
4
100
AcDbCircle
 10
1534.785906702122
 20
540.6430349884567
 30
0.0
 40
72.0
  0
LINE
  5
53E
330
17
100
AcDbEntity
  8
4
100
AcDbLine
 10
1841.785906613032
 20
125.9750241160594
 30
0.0
 11
1817.785906613032
 21
125.9750241160594
 31
0.0
  0
LINE
  5
53F
330
17
100
AcDbEntity
  8
4
100
AcDbLine
 10
1841.785906613032
 20
109.9750221160594
 30
0.0
 11
1817.785906613032
 21
109.9750221160594
 31
0.0
  0
LINE
  5
540
330
17
100
AcDbEntity
  8
4
100
AcDbLine
 10
1817.785906613032
 20
125.9750241160594
 30
0.0
 11
1817.785906613032
 21
109.9750221160594
 31
0.0
  0
LINE
  5
541
330
17
100
AcDbEntity
  8
4
100
AcDbLine
 10
1841.785906613032
 20
109.9750221160594
 30
0.0
 11
1841.785906613032
 21
125.9750241160594
 31
0.0
  0
LINE
  5
544
330
17
100
AcDbEntity
  8
L-CENTER
 48
2.0
100
AcDbLine
 10
1829.785906613032
 20
4.216382116059663
 30
0.0
 11
1829.785906613032
 21
138.7336701160594
 31
0.0
  0
LINE
  5
554
330
17
100
AcDbEntity
  8
L-CENTER
 48
2.0
100
AcDbLine
 10
1762.527262613031
 20
71.47502611605967
 30
0.0
 11
1897.044550613031
 21
71.47502611605944
 31
0.0
  0
ARC
  5
555
330
17
100
AcDbEntity
  8
4
100
AcDbCircle
 10
1829.785906613032
 20
71.47502611605944
 30
0.0
 40
46.500054
100
AcDbArc
 50
104.9552305438094
 51
75.04478700000078
  0
SPLINE
  5
586
330
17
100
AcDbEntity
  8
4
100
AcDbSpline
210
0.0
220
0.0
230
1.0
 70
     8
 71
     3
 72
    10
 73
     6
 74
     0
 42
0.000000001
 43
0.0
 40
10.15181342429091
 40
10.15181342429091
 40
10.15181342429091
 40
10.15181342429091
 40
22.97080335179979
 40
39.7370718880326
 40
53.00932436427401
 40
53.00932436427401
 40
53.00932436427401
 40
53.00932436427401
 10
900.8861945150234
 20
352.643035045837
 30
0.0
 10
902.4593344831105
 20
348.4215718802038
 30
0.0
 10
904.4638451034698
 20
338.3895632079168
 30
0.0
 10
894.9285727130232
 20
326.7410988324318
 30
0.0
 10
893.7080049064184
 20
315.2213789371003
 30
0.0
 10
894.5520717447257
 20
310.6430350579169
 30
0.0
  0
ARC
  5
587
330
17
100
AcDbEntity
  8
4
100
AcDbCircle
 10
341.1472454762288
 20
427.1430350230357
 30
0.0
 40
1.0
100
AcDbArc
 50
180.0
 51
270.0
  0
ARC
  5
588
330
17
100
AcDbEntity
  8
4
100
AcDbCircle
 10
341.1472454762288
 20
654.1430349538778
 30
0.0
 40
1.0
100
AcDbArc
 50
90.0
 51
180.0
  0
ARC
  5
589
330
17
100
AcDbEntity
  8
4
100
AcDbCircle
 10
963.7472452877805
 20
654.1430349538778
 30
0.0
 40
1.0
100
AcDbArc
 50
0.0
 51
90.0
  0
ARC
  5
58A
330
17
100
AcDbEntity
  8
4
100
AcDbCircle
 10
963.7472452877805
 20
427.1430350230357
 30
0.0
 40
1.0
100
AcDbArc
 50
270.0
 51
0.0
  0
ARC
  5
5E6
330
17
100
AcDbEntity
  8
4
100
AcDbCircle
 10
1829.785906613032
 20
318.6430350766409
 30
0.0
 40
11.999999996376
100
AcDbArc
 50
0.0
 51
180.0
  0
LINE
  5
5E7
330
17
100
AcDbEntity
  8
4
100
AcDbLine
 10
1817.785906616656
 20
180.6430351282829
 30
0.0
 11
1817.785906616656
 21
318.6430350766409
 31
0.0
  0
LINE
  5
5E8
330
17
100
AcDbEntity
  8
4
100
AcDbLine
 10
1841.785906609408
 20
318.6430350766409
 30
0.0
 11
1841.785906609408
 21
180.6430351282829
 31
0.0
  0
LINE
  5
5E9
330
17
100
AcDbEntity
  8
4
100
AcDbLine
 10
604.9472453963499
 20
349.6430350461387
 30
0.0
 11
604.9472453963499
 21
340.6430350669771
 31
0.0
  0
LINE
  5
5EA
330
17
100
AcDbEntity
  8
4
100
AcDbLine
 10
699.9472453676599
 20
349.6430350461392
 30
0.0
 11
699.9472453676599
 21
340.6430350669771
 31
0.0
  0
LINE
  5
5EC
330
17
100
AcDbEntity
  8
4
100
AcDbLine
 10
1784.785906626169
 20
180.6430351282834
 30
0.0
 11
1783.285906626621
 21
182.1430351278295
 31
0.0
  0
LINE
  5
5ED
330
17
100
AcDbEntity
  8
4
100
AcDbLine
 10
1783.285906626621
 20
182.1430351278295
 30
0.0
 11
1783.285906626621
 21
340.6430350669771
 31
0.0
  0
LINE
  5
5EE
330
17
100
AcDbEntity
  8
4
100
AcDbLine
 10
1874.785906599895
 20
180.6430351282834
 30
0.0
 11
1876.285906599442
 21
182.1430351278295
 31
0.0
  0
LINE
  5
5EF
330
17
100
AcDbEntity
  8
4
100
AcDbLine
 10
1874.785906599895
 20
180.6430351282834
 30
0.0
 11
1784.785906626169
 21
180.6430351282834
 31
0.0
  0
LINE
  5
5F0
330
17
100
AcDbEntity
  8
4
100
AcDbLine
 10
1876.285906599442
 20
182.1430351278295
 30
0.0
 11
1876.285906599442
 21
340.6430350669771
 31
0.0
  0
LINE
  5
5F1
330
17
100
AcDbEntity
  8
4
100
AcDbLine
 10
1876.285906599442
 20
182.1430351278295
 30
0.0
 11
1841.785906609408
 21
182.14303512783
 31
0.0
  0
LINE
  5
5F2
330
17
100
AcDbEntity
  8
4
100
AcDbLine
 10
1877.285906598687
 20
340.6430350669771
 30
0.0
 11
1782.285906627376
 21
340.6430350669771
 31
0.0
  0
LINE
  5
5F3
330
17
100
AcDbEntity
  8
4
100
AcDbLine
 10
1877.285906598687
 20
349.6430350461387
 30
0.0
 11
1877.285906598687
 21
340.6430350669771
 31
0.0
  0
LINE
  5
5F4
330
17
100
AcDbEntity
  8
4
100
AcDbLine
 10
1782.285906627376
 20
349.6430350461387
 30
0.0
 11
1782.285906627376
 21
340.6430350669771
 31
0.0
  0
LINE
  5
5F5
330
17
100
AcDbEntity
  8
4
100
AcDbLine
 10
712.447245363885
 20
349.6430350461392
 30
0.0
 11
592.4472454001248
 21
349.6430350461387
 31
0.0
  0
LINE
  5
5F7
330
17
100
AcDbEntity
  8
4
100
AcDbLine
 10
592.4472454001248
 20
350.6430350458368
 30
0.0
 11
592.4472454001248
 21
349.6430350461387
 31
0.0
  0
LINE
  5
5F8
330
17
100
AcDbEntity
  8
4
100
AcDbLine
 10
712.447245363885
 20
350.6430350458368
 30
0.0
 11
712.447245363885
 21
349.6430350461387
 31
0.0
  0
LINE
  5
5F9
330
17
100
AcDbEntity
  8
4
100
AcDbLine
 10
1769.785906631153
 20
350.6430350458368
 30
0.0
 11
1769.785906631153
 21
349.6430350461387
 31
0.0
  0
LINE
  5
5FA
330
17
100
AcDbEntity
  8
4
100
AcDbLine
 10
1829.785906613032
 20
349.6430350461387
 30
0.0
 11
1769.785906631153
 21
349.6430350461387
 31
0.0
  0
LINE
  5
5FB
330
17
100
AcDbEntity
  8
4
100
AcDbLine
 10
1829.785906613032
 20
349.6430350461387
 30
0.0
 11
1889.785906594911
 21
349.6430350461387
 31
0.0
  0
LINE
  5
5FC
330
17
100
AcDbEntity
  8
4
100
AcDbLine
 10
1889.785906594911
 20
350.6430350458368
 30
0.0
 11
1889.785906594911
 21
349.6430350461387
 31
0.0
  0
LINE
  5
5FD
330
17
100
AcDbEntity
  8
4
100
AcDbLine
 10
1817.785906616656
 20
182.14303512783
 30
0.0
 11
1783.285906626621
 21
182.1430351278295
 31
0.0
  0
LINE
  5
5FE
330
17
100
AcDbEntity
  8
4
100
AcDbLine
 10
607.4472453951421
 20
180.6430351282834
 30
0.0
 11
706.9472453684152
 21
180.6430351282829
 31
0.0
  0
LINE
  5
5FF
330
17
100
AcDbEntity
  8
4
100
AcDbLine
 10
605.947245395595
 20
182.1430351278295
 30
0.0
 11
698.9472453684148
 21
182.1430351278295
 31
0.0
  0
LINE
  5
600
330
17
100
AcDbEntity
  8
4
100
AcDbLine
 10
706.9472453684152
 20
180.6430351282829
 30
0.0
 11
706.9472453684143
 21
330.6430351282838
 31
0.0
  0
LINE
  5
601
330
17
100
AcDbEntity
  8
4
100
AcDbLine
 10
698.9472453684148
 20
182.1430351278295
 30
0.0
 11
698.9472453684148
 21
340.6430350669771
 31
0.0
  0
LINE
  5
602
330
17
100
AcDbEntity
  8
4
100
AcDbLine
 10
697.4472453688677
 20
180.6430351282834
 30
0.0
 11
698.9472453684148
 21
182.1430351278295
 31
0.0
  0
LINE
  5
603
330
17
100
AcDbEntity
  8
4
100
AcDbLine
 10
605.947245395595
 20
182.1430351278295
 30
0.0
 11
605.947245395595
 21
340.6430350669771
 31
0.0
  0
LINE
  5
604
330
17
100
AcDbEntity
  8
4
100
AcDbLine
 10
607.4472453951421
 20
180.6430351282834
 30
0.0
 11
605.947245395595
 21
182.1430351278295
 31
0.0
  0
LINE
  5
605
330
17
100
AcDbEntity
  8
4
100
AcDbLine
 10
698.9472453684148
 20
330.6430351282829
 30
0.0
 11
706.9472453684157
 21
330.6430351282829
 31
0.0
  0
LINE
  5
606
330
17
100
AcDbEntity
  8
4
100
AcDbLine
 10
699.9472453676599
 20
340.6430350669759
 30
0.0
 11
604.9472453963499
 21
340.6430350669771
 31
0.0
  0
LINE
  5
649
330
17
100
AcDbEntity
  8
4
100
AcDbLine
 10
339.1472454765312
 20
578.4430349884574
 30
0.0
 11
339.1472454765312
 21
502.8430349884561
 31
0.0
  0
LINE
  5
64A
330
17
100
AcDbEntity
  8
4
100
AcDbLine
 10
339.1472454765312
 20
508.1430349982716
 30
0.0
 11
322.4472454816646
 21
508.1430349982716
 31
0.0
  0
LINE
  5
64B
330
17
100
AcDbEntity
  8
4
100
AcDbLine
 10
339.1472454765312
 20
573.1430349786415
 30
0.0
 11
322.4472454816646
 21
573.1430349786415
 31
0.0
  0
LINE
  5
64C
330
17
100
AcDbEntity
  8
4
100
AcDbLine
 10
322.4472454816646
 20
573.1430349786415
 30
0.0
 11
322.4472454816646
 21
508.1430349982716
 31
0.0
  0
LINE
  5
64D
330
17
100
AcDbEntity
  8
4
100
AcDbLine
 10
202.4472455179052
 20
570.1430349795473
 30
0.0
 11
204.4472455173004
 21
572.1430349789434
 31
0.0
  0
LINE
  5
64E
330
17
100
AcDbEntity
  8
4
100
AcDbLine
 10
202.4472455179052
 20
511.1430349973652
 30
0.0
 11
204.4472455173004
 21
509.1430349979696
 31
0.0
  0
LINE
  5
64F
330
17
100
AcDbEntity
  8
4
100
AcDbLine
 10
204.4472455173004
 20
509.1430349979696
 30
0.0
 11
322.4472454816646
 21
509.1430349979696
 31
0.0
  0
LINE
  5
650
330
17
100
AcDbEntity
  8
4
100
AcDbLine
 10
202.4472455179052
 20
511.1430349973652
 30
0.0
 11
202.4472455179052
 21
578.1430349771317
 31
0.0
  0
LINE
  5
651
330
17
100
AcDbEntity
  8
4
100
AcDbLine
 10
204.4472455173004
 20
509.1430349979696
 30
0.0
 11
204.4472455173004
 21
572.1430349789434
 31
0.0
  0
LINE
  5
652
330
17
100
AcDbEntity
  8
4
100
AcDbLine
 10
312.447245484685
 20
578.1430349771317
 30
0.0
 11
202.4472455179052
 21
578.1430349771317
 31
0.0
  0
LINE
  5
653
330
17
100
AcDbEntity
  8
4
100
AcDbLine
 10
312.447245484685
 20
572.1430349789434
 30
0.0
 11
312.447245484685
 21
578.1430349771317
 31
0.0
  0
LINE
  5
654
330
17
100
AcDbEntity
  8
4
100
AcDbLine
 10
204.4472455173004
 20
572.1430349789434
 30
0.0
 11
322.4472454816646
 21
572.1430349789434
 31
0.0
  0
LINE
  5
657
330
17
100
AcDbEntity
  8
4
100
AcDbLine
 10
204.4472455173004
 20
1254.470897851089
 30
0.0
 11
322.4472454816646
 21
1254.470897851089
 31
0.0
  0
LINE
  5
658
330
17
100
AcDbEntity
  8
4
100
AcDbLine
 10
339.1472454765312
 20
1253.470897851391
 30
0.0
 11
322.4472454816646
 21
1253.470897851391
 31
0.0
  0
LINE
  5
659
330
17
100
AcDbEntity
  8
4
100
AcDbLine
 10
322.4472454816646
 20
1318.47089783176
 30
0.0
 11
322.4472454816646
 21
1253.470897851391
 31
0.0
  0
LINE
  5
65A
330
17
100
AcDbEntity
  8
4
100
AcDbLine
 10
204.4472455173004
 20
1254.470897851089
 30
0.0
 11
204.4472455173004
 21
1276.970897841575
 31
0.0
  0
LINE
  5
65B
330
17
100
AcDbEntity
  8
4
100
AcDbLine
 10
202.4472455179052
 20
1256.470897850484
 30
0.0
 11
202.4472455179052
 21
1315.470897832667
 31
0.0
  0
LINE
  5
65C
330
17
100
AcDbEntity
  8
4
100
AcDbLine
 10
202.4472455179052
 20
1256.470897850484
 30
0.0
 11
204.4472455173004
 21
1254.470897851089
 31
0.0
  0
LINE
  5
65D
330
17
100
AcDbEntity
  8
4
100
AcDbLine
 10
204.4472455173004
 20
1317.470897832062
 30
0.0
 11
322.4472454816646
 21
1317.470897832062
 31
0.0
  0
LINE
  5
65E
330
17
100
AcDbEntity
  8
4
100
AcDbLine
 10
339.1472454765312
 20
1318.47089783176
 30
0.0
 11
322.4472454816646
 21
1318.47089783176
 31
0.0
  0
LINE
  5
65F
330
17
100
AcDbEntity
  8
4
100
AcDbLine
 10
339.1472454765312
 20
1330.970897841576
 30
0.0
 11
339.1472454765312
 21
1296.940552956201
 31
0.0
  0
LINE
  5
660
330
17
100
AcDbEntity
  8
4
100
AcDbLine
 10
202.4472455179052
 20
1315.470897832667
 30
0.0
 11
204.4472455173004
 21
1317.470897832063
 31
0.0
  0
LINE
  5
661
330
17
100
AcDbEntity
  8
4
100
AcDbLine
 10
204.4472455173004
 20
1294.970897841575
 30
0.0
 11
204.4472455173004
 21
1317.470897832062
 31
0.0
  0
LINE
  5
662
330
17
100
AcDbEntity
  8
4
100
AcDbLine
 10
340.1472453820056
 20
1330.970897841575
 30
0.0
 11
339.1472454765312
 21
1330.970897841575
 31
0.0
  0
LINE
  5
663
330
17
100
AcDbEntity
  8
4
100
AcDbLine
 10
340.1472453820056
 20
1240.970897841576
 30
0.0
 11
339.1472454765312
 21
1240.970897841576
 31
0.0
  0
LINE
  5
664
330
17
100
AcDbEntity
  8
4
100
AcDbLine
 10
339.1472454765312
 20
1275.001242726995
 30
0.0
 11
339.1472454765312
 21
1240.970897841575
 31
0.0
  0
LINE
  5
665
330
17
100
AcDbEntity
  8
4
100
AcDbLine
 10
303.447245484685
 20
1294.970897841575
 30
0.0
 11
202.4472455179052
 21
1294.970897841575
 31
0.0
  0
LINE
  5
666
330
17
100
AcDbEntity
  8
4
100
AcDbLine
 10
303.447245484685
 20
1276.970897841575
 30
0.0
 11
202.4472455179052
 21
1276.970897841575
 31
0.0
  0
ARC
  5
667
330
17
100
AcDbEntity
  8
4
100
AcDbCircle
 10
303.447245484685
 20
1285.970897841575
 30
0.0
 40
9.0
100
AcDbArc
 50
270.0
 51
90.0
  0
ENDSEC
  0
SECTION
  2
OBJECTS
  0
DICTIONARY
  5
5
330
0
100
AcDbDictionary
281
     1
  3
ACAD_COLOR
350
29
  3
ACAD_GROUP
350
27
  3
ACAD_LAYOUT
350
1E
  3
ACAD_MATERIAL
350
7
  3
ACAD_MLEADERSTYLE
350
58E
  3
ACAD_MLINESTYLE
350
15
  3
ACAD_PLOTSETTINGS
350
28
  3
ACAD_PLOTSTYLENAME
350
4
  3
ACAD_SCALELIST
350
2D
  3
ACAD_TABLESTYLE
350
58D
  3
ACAD_VISUALSTYLE
350
2A
  3
ACDBHEADERROUNDTRIPXREC
350
683
  3
AcDbVariableDictionary
350
58B
  3
DWGPROPS
350
686
  0
DICTIONARY
  5
687
330
26
100
AcDbDictionary
280
     1
281
     1
  3
ACAD_XREC_ROUNDTRIP
360
688
  0
DICTIONARY
  5
18
330
17
100
AcDbDictionary
280
     1
281
     1
  3
ACAD_SORTENTS
360
19
  0
DICTIONARY
  5
29
102
{ACAD_REACTORS
330
5
102
}
330
5
100
AcDbDictionary
281
     1
  0
DICTIONARY
  5
27
102
{ACAD_REACTORS
330
5
102
}
330
5
100
AcDbDictionary
281
     1
  0
DICTIONARY
  5
1E
102
{ACAD_REACTORS
330
5
102
}
330
5
100
AcDbDictionary
281
     1
  3
Model
350
1D
  3
ﾚｲｱｳﾄ1
350
23
  0
DICTIONARY
  5
7
102
{ACAD_REACTORS
330
5
102
}
330
5
100
AcDbDictionary
281
     1
  3
ByBlock
350
70
  3
ByLayer
350
10
  3
Global
350
6
  0
DICTIONARY
  5
58E
102
{ACAD_REACTORS
330
5
102
}
330
5
100
AcDbDictionary
281
     1
  3
Standard
350
5A9
  0
DICTIONARY
  5
15
102
{ACAD_REACTORS
330
5
102
}
330
5
100
AcDbDictionary
281
     1
  3
STANDARD
350
14
  0
DICTIONARY
  5
28
102
{ACAD_REACTORS
330
5
102
}
330
5
100
AcDbDictionary
281
     1
  0
ACDBDICTIONARYWDFLT
  5
4
102
{ACAD_REACTORS
330
5
102
}
330
5
100
AcDbDictionary
281
     1
  3
Normal
350
3
100
AcDbDictionaryWithDefault
340
3
  0
DICTIONARY
  5
2D
102
{ACAD_REACTORS
330
5
102
}
330
5
100
AcDbDictionary
281
     1
  3
*A1
350
4F
  3
*A10
350
58
  3
*A11
350
59
  3
*A12
350
5A
  3
*A13
350
5B
  3
*A14
350
5C
  3
*A15
350
5D
  3
*A16
350
5E
  3
*A17
350
5F
  3
*A18
350
60
  3
*A19
350
61
  3
*A2
350
50
  3
*A20
350
62
  3
*A21
350
63
  3
*A22
350
64
  3
*A23
350
65
  3
*A24
350
66
  3
*A25
350
67
  3
*A26
350
68
  3
*A27
350
69
  3
*A28
350
6A
  3
*A29
350
6B
  3
*A3
350
51
  3
*A30
350
6C
  3
*A31
350
6D
  3
*A32
350
6E
  3
*A33
350
6F
  3
*A4
350
52
  3
*A5
350
53
  3
*A6
350
54
  3
*A7
350
55
  3
*A8
350
56
  3
*A9
350
57
  0
DICTIONARY
  5
58D
102
{ACAD_REACTORS
330
5
102
}
330
5
100
AcDbDictionary
281
     1
  3
Standard
350
67F
  0
DICTIONARY
  5
2A
102
{ACAD_REACTORS
330
5
102
}
330
5
100
AcDbDictionary
281
     1
  3
2dWireframe
350
595
  3
Basic
350
598
  3
Brighten
350
59C
  3
ColorChange
350
5A0
  3
Conceptual
350
59A
  3
Dim
350
59B
  3
EdgeColorOff
350
5A3
  3
Facepattern
350
59F
  3
Flat
350
591
  3
FlatWithEdges
350
592
  3
Gouraud
350
593
  3
GouraudWithEdges
350
594
  3
Hidden
350
597
  3
JitterOff
350
5A1
  3
Linepattern
350
59E
  3
OverhangOff
350
5A2
  3
Realistic
350
599
  3
Shaded
350
5A8
  3
Shaded with edges
350
5A7
  3
Shades of Gray
350
5A4
  3
Sketchy
350
5A5
  3
Thicken
350
59D
  3
Wireframe
350
596
  3
X-Ray
350
5A6
  0
DICTIONARY
  5
683
102
{ACAD_REACTORS
330
5
102
}
330
5
100
AcDbDictionary
281
     1
  3
COLORDICT
350
684
  3
MATERIALDICT
350
685
  0
DICTIONARY
  5
58B
102
{ACAD_REACTORS
330
5
102
}
330
5
100
AcDbDictionary
281
     1
  3
CANNOSCALE
350
58C
  3
CMLEADERSTYLE
350
5AB
  3
CTABLESTYLE
350
680
  3
DIMASSOC
350
681
  3
HIDETEXT
350
682
  3
MSLTSCALE
350
689
  0
XRECORD
  5
686
102
{ACAD_REACTORS
330
5
102
}
330
5
100
AcDbXrecord
280
     1
  1
DWGPROPS COOKIE
  2

  3

  4

  6

  7

  8
sg-d04
  9

300
=
301
=
302
=
303
=
304
=
305
=
306
=
307
=
308
=
309
=
 40
0.0
 41
2457431.467175023
 42
2457871.469788658
  1

 90
        0
  0
XRECORD
  5
688
102
{ACAD_REACTORS
330
687
102
}
330
687
100
AcDbXrecord
280
     1
102
VTR_0.000_0.000_1.000_1.000_VISUALSTYLE
340
595
102
VTR_0.000_0.000_1.000_1.000_GRIDDISPLAY
 70
     3
102
VTR_0.000_0.000_1.000_1.000_GRIDMAJOR
 70
     5
102
VTR_0.000_0.000_1.000_1.000_DEFAULTLIGHTING
280
     1
102
VTR_0.000_0.000_1.000_1.000_DEFAULTLIGHTINGTYPE
 70
     1
102
VTR_0.000_0.000_1.000_1.000_BRIGHTNESS
141
0.0
102
VTR_0.000_0.000_1.000_1.000_CONTRAST
142
0.0
  0
SORTENTSTABLE
  5
19
102
{ACAD_REACTORS
330
18
102
}
330
18
100
AcDbSortentsTable
330
17
  0
LAYOUT
  5
1D
102
{ACAD_REACTORS
330
1E
102
}
330
1E
100
AcDbPlotSettings
  1

  2
Bullzip PDF Printer.pc3
  4
A3
  6

 40
0.2
 41
0.0
 42
0.0
 43
0.0
 44
420.2
 45
297.1
 46
25.0
 47
12.0
 48
139.9999997783334
 49
0.0
140
2813.999993653335
141
1907.499995549166
142
1.0
143
7.0
 70
  1696
 72
     1
 73
     0
 74
     4
  7
monochrome.ctb
 75
     0
147
0.1428571428571428
148
-139.9999997783334
149
0.0
100
AcDbLayout
  1
Model
 70
     0
 71
     0
 10
0.0
 20
0.0
 11
12.0
 21
9.0
 12
0.0
 22
0.0
 32
0.0
 14
188.4443159446696
 24
4.216382116059549
 34
0.0
 15
2143.488443784979
 25
1899.218138083494
 35
0.0
146
0.0
 13
0.0
 23
0.0
 33
0.0
 16
1.0
 26
0.0
 36
0.0
 17
0.0
 27
1.0
 37
0.0
 76
     0
330
17
331
2B
1001
ACAD_PSEXT
1000
Bullzip PDF Printer.pc3
1000
Bullzip PDF Printer
1000
BULLZIP
1000
Bullzip PDF Printer 10.1.0.1871
1070
     0
  0
LAYOUT
  5
23
102
{ACAD_REACTORS
330
1E
102
}
330
1E
100
AcDbPlotSettings
  1

  2
SR-LP8300F
  4

  6

 40
0.0
 41
0.0
 42
0.0
 43
0.0
 44
0.0
 45
0.0
 46
0.0
 47
0.0
 48
0.0
 49
0.0
140
0.0
141
0.0
142
1.0
143
1.0
 70
   688
 72
     0
 73
     0
 74
     5
  7
monochrome.ctb
 75
    16
147
1.0
148
0.0
149
0.0
100
AcDbLayout
  1
ﾚｲｱｳﾄ1
 70
     0
 71
     1
 10
0.0
 20
0.0
 11
12.0
 21
9.0
 12
0.0
 22
0.0
 32
0.0
 14
1.000000000000000E+20
 24
1.000000000000000E+20
 34
1.000000000000000E+20
 15
-1.000000000000000E+20
 25
-1.000000000000000E+20
 35
-1.000000000000000E+20
146
0.0
 13
0.0
 23
0.0
 33
0.0
 16
1.0
 26
0.0
 36
0.0
 17
0.0
 27
1.0
 37
0.0
 76
     0
330
20
  0
MATERIAL
  5
70
102
{ACAD_REACTORS
330
7
102
}
102
{ACAD_XDICTIONARY
360
68E
102
}
330
7
100
AcDbMaterial
  1
ByBlock
  0
MATERIAL
  5
10
102
{ACAD_REACTORS
330
7
102
}
102
{ACAD_XDICTIONARY
360
68A
102
}
330
7
100
AcDbMaterial
  1
ByLayer
  0
MATERIAL
  5
6
102
{ACAD_REACTORS
330
7
102
}
102
{ACAD_XDICTIONARY
360
68C
102
}
330
7
100
AcDbMaterial
  1
Global
1001
ACAD
1070
    -1
1070
     3
1070
     0
1000

1071
        0
  0
MLEADERSTYLE
  5
5A9
102
{ACAD_REACTORS
330
58E
102
}
102
{ACAD_XDICTIONARY
360
6C0
102
}
330
58E
100
AcDbMLeaderStyle
170
     2
171
     1
172
     0
 90
        2
 40
0.0
 41
0.0
173
     1
 91
-1056964608
340
D
 92
       -2
290
     1
 42
0.09
291
     1
 43
0.36
  3
Standard
341
0
 44
0.18
300

342
E
174
     1
178
     6
175
     1
176
     0
 93
-1056964608
 45
0.18
292
     0
297
     0
 46
0.18
343
0
 94
-1056964608
 47
1.0
 49
1.0
140
1.0
293
     1
141
0.0
294
     1
177
     0
142
1.0
295
     0
296
     0
143
0.125
1001
ACAD_MLEADERVER
1070
     2
  0
MLINESTYLE
  5
14
102
{ACAD_REACTORS
330
15
102
}
330
15
100
AcDbMlineStyle
  2
STANDARD
 70
     0
  3

 62
     0
 51
90.0
 52
90.0
 71
     2
 49
0.5
 62
   256
  6
BYLAYER
 49
-0.5
 62
   256
  6
BYLAYER
  0
ACDBPLACEHOLDER
  5
3
102
{ACAD_REACTORS
330
4
102
}
330
4
  0
SCALE
  5
4F
102
{ACAD_REACTORS
330
2D
102
}
330
2D
100
AcDbScale
 70
     0
300
1:1
140
1.0
141
1.0
290
     1
  0
SCALE
  5
58
102
{ACAD_REACTORS
330
2D
102
}
330
2D
100
AcDbScale
 70
     0
300
1:40
140
1.0
141
40.0
290
     0
  0
SCALE
  5
59
102
{ACAD_REACTORS
330
2D
102
}
330
2D
100
AcDbScale
 70
     0
300
1:50
140
1.0
141
50.0
290
     0
  0
SCALE
  5
5A
102
{ACAD_REACTORS
330
2D
102
}
330
2D
100
AcDbScale
 70
     0
300
1:100
140
1.0
141
100.0
290
     0
  0
SCALE
  5
5B
102
{ACAD_REACTORS
330
2D
102
}
330
2D
100
AcDbScale
 70
     0
300
2:1
140
2.0
141
1.0
290
     0
  0
SCALE
  5
5C
102
{ACAD_REACTORS
330
2D
102
}
330
2D
100
AcDbScale
 70
     0
300
4:1
140
4.0
141
1.0
290
     0
  0
SCALE
  5
5D
102
{ACAD_REACTORS
330
2D
102
}
330
2D
100
AcDbScale
 70
     0
300
8:1
140
8.0
141
1.0
290
     0
  0
SCALE
  5
5E
102
{ACAD_REACTORS
330
2D
102
}
330
2D
100
AcDbScale
 70
     0
300
10:1
140
10.0
141
1.0
290
     0
  0
SCALE
  5
5F
102
{ACAD_REACTORS
330
2D
102
}
330
2D
100
AcDbScale
 70
     0
300
100:1
140
100.0
141
1.0
290
     0
  0
SCALE
  5
60
102
{ACAD_REACTORS
330
2D
102
}
330
2D
100
AcDbScale
 70
     0
300
1/128" = 1'-0"
140
0.0078125
141
12.0
290
     0
  0
SCALE
  5
61
102
{ACAD_REACTORS
330
2D
102
}
330
2D
100
AcDbScale
 70
     0
300
1/64" = 1'-0"
140
0.015625
141
12.0
290
     0
  0
SCALE
  5
50
102
{ACAD_REACTORS
330
2D
102
}
330
2D
100
AcDbScale
 70
     0
300
1:2
140
1.0
141
2.0
290
     0
  0
SCALE
  5
62
102
{ACAD_REACTORS
330
2D
102
}
330
2D
100
AcDbScale
 70
     0
300
1/32" = 1'-0"
140
0.03125
141
12.0
290
     0
  0
SCALE
  5
63
102
{ACAD_REACTORS
330
2D
102
}
330
2D
100
AcDbScale
 70
     0
300
1/16" = 1'-0"
140
0.0625
141
12.0
290
     0
  0
SCALE
  5
64
102
{ACAD_REACTORS
330
2D
102
}
330
2D
100
AcDbScale
 70
     0
300
3/32" = 1'-0"
140
0.09375
141
12.0
290
     0
  0
SCALE
  5
65
102
{ACAD_REACTORS
330
2D
102
}
330
2D
100
AcDbScale
 70
     0
300
1/8" = 1'-0"
140
0.125
141
12.0
290
     0
  0
SCALE
  5
66
102
{ACAD_REACTORS
330
2D
102
}
330
2D
100
AcDbScale
 70
     0
300
3/16" = 1'-0"
140
0.1875
141
12.0
290
     0
  0
SCALE
  5
67
102
{ACAD_REACTORS
330
2D
102
}
330
2D
100
AcDbScale
 70
     0
300
1/4" = 1'-0"
140
0.25
141
12.0
290
     0
  0
SCALE
  5
68
102
{ACAD_REACTORS
330
2D
102
}
330
2D
100
AcDbScale
 70
     0
300
3/8" = 1'-0"
140
0.375
141
12.0
290
     0
  0
SCALE
  5
69
102
{ACAD_REACTORS
330
2D
102
}
330
2D
100
AcDbScale
 70
     0
300
1/2" = 1'-0"
140
0.5
141
12.0
290
     0
  0
SCALE
  5
6A
102
{ACAD_REACTORS
330
2D
102
}
330
2D
100
AcDbScale
 70
     0
300
3/4" = 1'-0"
140
0.75
141
12.0
290
     0
  0
SCALE
  5
6B
102
{ACAD_REACTORS
330
2D
102
}
330
2D
100
AcDbScale
 70
     0
300
1" = 1'-0"
140
1.0
141
12.0
290
     0
  0
SCALE
  5
51
102
{ACAD_REACTORS
330
2D
102
}
330
2D
100
AcDbScale
 70
     0
300
1:4
140
1.0
141
4.0
290
     0
  0
SCALE
  5
6C
102
{ACAD_REACTORS
330
2D
102
}
330
2D
100
AcDbScale
 70
     0
300
1-1/2" = 1'-0"
140
1.5
141
12.0
290
     0
  0
SCALE
  5
6D
102
{ACAD_REACTORS
330
2D
102
}
330
2D
100
AcDbScale
 70
     0
300
3" = 1'-0"
140
3.0
141
12.0
290
     0
  0
SCALE
  5
6E
102
{ACAD_REACTORS
330
2D
102
}
330
2D
100
AcDbScale
 70
     0
300
6" = 1'-0"
140
6.0
141
12.0
290
     0
  0
SCALE
  5
6F
102
{ACAD_REACTORS
330
2D
102
}
330
2D
100
AcDbScale
 70
     0
300
1'-0" = 1'-0"
140
12.0
141
12.0
290
     0
  0
SCALE
  5
52
102
{ACAD_REACTORS
330
2D
102
}
330
2D
100
AcDbScale
 70
     0
300
1:5
140
1.0
141
5.0
290
     0
  0
SCALE
  5
53
102
{ACAD_REACTORS
330
2D
102
}
330
2D
100
AcDbScale
 70
     0
300
1:8
140
1.0
141
8.0
290
     0
  0
SCALE
  5
54
102
{ACAD_REACTORS
330
2D
102
}
330
2D
100
AcDbScale
 70
     0
300
1:10
140
1.0
141
10.0
290
     0
  0
SCALE
  5
55
102
{ACAD_REACTORS
330
2D
102
}
330
2D
100
AcDbScale
 70
     0
300
1:16
140
1.0
141
16.0
290
     0
  0
SCALE
  5
56
102
{ACAD_REACTORS
330
2D
102
}
330
2D
100
AcDbScale
 70
     0
300
1:20
140
1.0
141
20.0
290
     0
  0
SCALE
  5
57
102
{ACAD_REACTORS
330
2D
102
}
330
2D
100
AcDbScale
 70
     0
300
1:30
140
1.0
141
30.0
290
     0
  0
TABLESTYLE
  5
67F
102
{ACAD_REACTORS
330
58D
102
}
330
58D
100
AcDbTableStyle
  3
Standard
 70
     0
 71
     0
 40
0.06
 41
0.06
280
     0
281
     0
  7
STANDARD
140
0.18
170
     2
 62
     0
 63
   257
283
     0
274
    -2
284
     1
 64
     0
275
    -2
285
     1
 65
     0
276
    -2
286
     1
 66
     0
277
    -2
287
     1
 67
     0
278
    -2
288
     1
 68
     0
279
    -2
289
     1
 69
     0
  7
STANDARD
140
0.25
170
     5
 62
     0
 63
   257
283
     0
274
    -2
284
     1
 64
     0
275
    -2
285
     1
 65
     0
276
    -2
286
     1
 66
     0
277
    -2
287
     1
 67
     0
278
    -2
288
     1
 68
     0
279
    -2
289
     1
 69
     0
  7
STANDARD
140
0.18
170
     5
 62
     0
 63
   257
283
     0
274
    -2
284
     1
 64
     0
275
    -2
285
     1
 65
     0
276
    -2
286
     1
 66
     0
277
    -2
287
     1
 67
     0
278
    -2
288
     1
 68
     0
279
    -2
289
     1
 69
     0
  0
VISUALSTYLE
  5
595
102
{ACAD_REACTORS
330
2A
102
}
102
{ACAD_XDICTIONARY
360
698
102
}
330
2A
100
AcDbVisualStyle
  2
2dWireframe
 70
     4
 71
     0
 72
     2
 73
     0
 90
        0
 40
0.6
 41
30.0
 62
     5
 63
     7
 74
     1
 91
        4
 64
     7
 65
   257
 75
     1
175
     1
 42
1.0
 92
        0
 66
   257
 43
1.0
 76
     1
 77
     6
 78
     2
 67
     7
 79
     5
170
     0
171
     0
290
     0
174
     0
 93
        1
 44
0.0
173
     0
291
     0
 45
0.0
1001
ACAD
1000
AcDbSavedByObjectVersion
1070
     0
  0
VISUALSTYLE
  5
598
102
{ACAD_REACTORS
330
2A
102
}
102
{ACAD_XDICTIONARY
360
69E
102
}
330
2A
100
AcDbVisualStyle
  2
Basic
 70
     7
 71
     1
 72
     0
 73
     1
 90
        0
 40
0.6
 41
30.0
 62
     5
 63
     7
 74
     0
 91
        4
 64
     7
 65
   257
 75
     1
175
     1
 42
1.0
 92
        8
 66
     7
 43
1.0
 76
     1
 77
     6
 78
     2
 67
     7
 79
     5
170
     0
171
     0
290
     0
174
     0
 93
        1
 44
0.0
173
     0
291
     1
 45
0.0
1001
ACAD
1000
AcDbSavedByObjectVersion
1070
     0
  0
VISUALSTYLE
  5
59C
102
{ACAD_REACTORS
330
2A
102
}
102
{ACAD_XDICTIONARY
360
6A6
102
}
330
2A
100
AcDbVisualStyle
  2
Brighten
 70
    12
 71
     2
 72
     2
 73
     0
 90
        0
 40
0.6
 41
30.0
 62
     5
 63
     7
 74
     1
 91
        4
 64
     7
 65
   257
 75
     1
175
     1
 42
1.0
 92
        8
 66
     7
 43
1.0
 76
     1
 77
     6
 78
     2
 67
     7
 79
     5
170
     0
171
     0
290
     0
174
     0
 93
        1
 44
50.0
173
     0
291
     1
 45
0.0
1001
ACAD
1000
AcDbSavedByObjectVersion
1070
     0
  0
VISUALSTYLE
  5
5A0
102
{ACAD_REACTORS
330
2A
102
}
102
{ACAD_XDICTIONARY
360
6AE
102
}
330
2A
100
AcDbVisualStyle
  2
ColorChange
 70
    16
 71
     2
 72
     2
 73
     3
 90
        0
 40
0.6
 41
30.0
 62
     5
 63
     8
 74
     1
 91
        4
 64
     7
 65
   257
 75
     1
175
     1
 42
1.0
 92
        8
 66
     8
 43
1.0
 76
     1
 77
     6
 78
     2
 67
     7
 79
     5
170
     0
171
     0
290
     0
174
     0
 93
        1
 44
0.0
173
     0
291
     1
 45
0.0
1001
ACAD
1000
AcDbSavedByObjectVersion
1070
     0
  0
VISUALSTYLE
  5
59A
102
{ACAD_REACTORS
330
2A
102
}
102
{ACAD_XDICTIONARY
360
6A2
102
}
330
2A
100
AcDbVisualStyle
  2
Conceptual
 70
     9
 71
     3
 72
     2
 73
     0
 90
        0
 40
0.6
 41
30.0
 62
     5
 63
     7
 74
     2
 91
        2
 64
     7
 65
   257
 75
     1
175
     1
 42
40.0
 92
        8
 66
     7
 43
1.0
 76
     1
 77
     6
 78
     2
 67
     7
 79
     3
170
     0
171
     0
290
     0
174
     0
 93
        1
 44
0.0
173
     0
291
     0
 45
0.0
1001
ACAD
1000
AcDbSavedByObjectVersion
1070
     0
  0
VISUALSTYLE
  5
59B
102
{ACAD_REACTORS
330
2A
102
}
102
{ACAD_XDICTIONARY
360
6A4
102
}
330
2A
100
AcDbVisualStyle
  2
Dim
 70
    11
 71
     2
 72
     2
 73
     0
 90
        0
 40
0.6
 41
30.0
 62
     5
 63
     7
 74
     1
 91
        4
 64
     7
 65
   257
 75
     1
175
     1
 42
1.0
 92
        8
 66
     7
 43
1.0
 76
     1
 77
     6
 78
     2
 67
     7
 79
     5
170
     0
171
     0
290
     0
174
     0
 93
        1
 44
-50.0
173
     0
291
     1
 45
0.0
1001
ACAD
1000
AcDbSavedByObjectVersion
1070
     0
  0
VISUALSTYLE
  5
5A3
102
{ACAD_REACTORS
330
2A
102
}
102
{ACAD_XDICTIONARY
360
6B4
102
}
330
2A
100
AcDbVisualStyle
  2
EdgeColorOff
 70
    22
 71
     2
 72
     2
 73
     0
 90
        0
 40
0.6
 41
30.0
 62
     5
 63
     7
 74
     1
 91
        4
 64
     7
 65
   257
 75
     1
175
     1
 42
1.0
 92
        8
 66
     7
 43
1.0
 76
     1
 77
     6
 78
     2
 67
     7
 79
     5
170
     0
171
     0
290
     0
174
     0
 93
        1
 44
0.0
173
     0
291
     1
 45
0.0
1001
ACAD
1000
AcDbSavedByObjectVersion
1070
     0
  0
VISUALSTYLE
  5
59F
102
{ACAD_REACTORS
330
2A
102
}
102
{ACAD_XDICTIONARY
360
6AC
102
}
330
2A
100
AcDbVisualStyle
  2
Facepattern
 70
    15
 71
     2
 72
     2
 73
     0
 90
        0
 40
0.6
 41
30.0
 62
     5
 63
     7
 74
     1
 91
        4
 64
     7
 65
   257
 75
     1
175
     1
 42
1.0
 92
        8
 66
     7
 43
1.0
 76
     1
 77
     6
 78
     2
 67
     7
 79
     5
170
     0
171
     0
290
     0
174
     0
 93
        1
 44
0.0
173
     0
291
     1
 45
0.0
1001
ACAD
1000
AcDbSavedByObjectVersion
1070
     0
  0
VISUALSTYLE
  5
591
102
{ACAD_REACTORS
330
2A
102
}
102
{ACAD_XDICTIONARY
360
690
102
}
330
2A
100
AcDbVisualStyle
  2
Flat
 70
     0
 71
     2
 72
     1
 73
     1
 90
        2
 40
0.6
 41
30.0
 62
     5
 63
     7
 74
     0
 91
        4
 64
     7
 65
   257
 75
     1
175
     1
 42
1.0
 92
        8
 66
     7
 43
1.0
 76
     1
 77
     6
 78
     2
 67
     7
 79
     5
170
     0
171
     0
290
     0
174
     0
 93
       13
 44
0.0
173
     0
291
     1
 45
0.0
1001
ACAD
1000
AcDbSavedByObjectVersion
1070
     0
  0
VISUALSTYLE
  5
592
102
{ACAD_REACTORS
330
2A
102
}
102
{ACAD_XDICTIONARY
360
692
102
}
330
2A
100
AcDbVisualStyle
  2
FlatWithEdges
 70
     1
 71
     2
 72
     1
 73
     1
 90
        2
 40
0.6
 41
30.0
 62
     5
 63
     7
 74
     1
 91
        4
 64
     7
 65
   257
 75
     1
175
     1
 42
1.0
 92
        0
 66
   257
 43
1.0
 76
     1
 77
     6
 78
     2
 67
     7
 79
     5
170
     0
171
     0
290
     0
174
     0
 93
       13
 44
0.0
173
     0
291
     1
 45
0.0
1001
ACAD
1000
AcDbSavedByObjectVersion
1070
     0
  0
VISUALSTYLE
  5
593
102
{ACAD_REACTORS
330
2A
102
}
102
{ACAD_XDICTIONARY
360
694
102
}
330
2A
100
AcDbVisualStyle
  2
Gouraud
 70
     2
 71
     2
 72
     2
 73
     1
 90
        2
 40
0.6
 41
30.0
 62
     5
 63
     7
 74
     0
 91
        4
 64
     7
 65
   257
 75
     1
175
     1
 42
1.0
 92
        0
 66
     7
 43
1.0
 76
     1
 77
     6
 78
     2
 67
     7
 79
     5
170
     0
171
     0
290
     0
174
     0
 93
       13
 44
0.0
173
     0
291
     1
 45
0.0
1001
ACAD
1000
AcDbSavedByObjectVersion
1070
     0
  0
VISUALSTYLE
  5
594
102
{ACAD_REACTORS
330
2A
102
}
102
{ACAD_XDICTIONARY
360
696
102
}
330
2A
100
AcDbVisualStyle
  2
GouraudWithEdges
 70
     3
 71
     2
 72
     2
 73
     1
 90
        2
 40
0.6
 41
30.0
 62
     5
 63
     7
 74
     1
 91
        4
 64
     7
 65
   257
 75
     1
175
     1
 42
1.0
 92
        0
 66
   257
 43
1.0
 76
     1
 77
     6
 78
     2
 67
     7
 79
     5
170
     0
171
     0
290
     0
174
     0
 93
       13
 44
0.0
173
     0
291
     1
 45
0.0
1001
ACAD
1000
AcDbSavedByObjectVersion
1070
     0
  0
VISUALSTYLE
  5
597
102
{ACAD_REACTORS
330
2A
102
}
102
{ACAD_XDICTIONARY
360
69C
102
}
330
2A
100
AcDbVisualStyle
  2
Hidden
 70
     6
 71
     1
 72
     2
 73
     2
 90
        0
 40
0.6
 41
30.0
 62
     5
 63
     7
 74
     2
 91
        2
 64
     7
 65
   257
 75
     2
175
     1
 42
40.0
 92
        0
 66
   257
 43
1.0
 76
     1
 77
     6
 78
     2
 67
     7
 79
     3
170
     0
171
     0
290
     0
174
     0
 93
        1
 44
0.0
173
     0
291
     0
 45
0.0
1001
ACAD
1000
AcDbSavedByObjectVersion
1070
     0
  0
VISUALSTYLE
  5
5A1
102
{ACAD_REACTORS
330
2A
102
}
102
{ACAD_XDICTIONARY
360
6B0
102
}
330
2A
100
AcDbVisualStyle
  2
JitterOff
 70
    20
 71
     2
 72
     2
 73
     0
 90
        0
 40
0.6
 41
30.0
 62
     5
 63
     7
 74
     1
 91
        4
 64
     7
 65
   257
 75
     1
175
     1
 42
1.0
 92
       10
 66
     7
 43
1.0
 76
     1
 77
     6
 78
     2
 67
     7
 79
     5
170
     0
171
     0
290
     0
174
     0
 93
        1
 44
0.0
173
     0
291
     1
 45
0.0
1001
ACAD
1000
AcDbSavedByObjectVersion
1070
     0
  0
VISUALSTYLE
  5
59E
102
{ACAD_REACTORS
330
2A
102
}
102
{ACAD_XDICTIONARY
360
6AA
102
}
330
2A
100
AcDbVisualStyle
  2
Linepattern
 70
    14
 71
     2
 72
     2
 73
     0
 90
        0
 40
0.6
 41
30.0
 62
     5
 63
     7
 74
     1
 91
        4
 64
     7
 65
   257
 75
     7
175
     7
 42
1.0
 92
        8
 66
     7
 43
1.0
 76
     1
 77
     6
 78
     2
 67
     7
 79
     5
170
     0
171
     0
290
     0
174
     0
 93
        1
 44
0.0
173
     0
291
     1
 45
0.0
1001
ACAD
1000
AcDbSavedByObjectVersion
1070
     0
  0
VISUALSTYLE
  5
5A2
102
{ACAD_REACTORS
330
2A
102
}
102
{ACAD_XDICTIONARY
360
6B2
102
}
330
2A
100
AcDbVisualStyle
  2
OverhangOff
 70
    21
 71
     2
 72
     2
 73
     0
 90
        0
 40
0.6
 41
30.0
 62
     5
 63
     7
 74
     1
 91
        4
 64
     7
 65
   257
 75
     1
175
     1
 42
1.0
 92
        9
 66
     7
 43
1.0
 76
     1
 77
     6
 78
     2
 67
     7
 79
     5
170
     0
171
     0
290
     0
174
     0
 93
        1
 44
0.0
173
     0
291
     1
 45
0.0
1001
ACAD
1000
AcDbSavedByObjectVersion
1070
     0
  0
VISUALSTYLE
  5
599
102
{ACAD_REACTORS
330
2A
102
}
102
{ACAD_XDICTIONARY
360
6A0
102
}
330
2A
100
AcDbVisualStyle
  2
Realistic
 70
     8
 71
     2
 72
     3
 73
     0
 90
        2
 40
0.6
 41
30.0
 62
     5
 63
     7
 74
     0
 91
        0
 64
     7
 65
   257
 75
     1
175
     1
 42
1.0
 92
        8
 66
   257
 43
1.0
 76
     1
 77
     6
 78
     2
 67
     7
 79
     3
170
     0
171
     0
290
     0
174
     0
 93
       13
 44
0.0
173
     0
291
     0
 45
0.0
1001
ACAD
1000
AcDbSavedByObjectVersion
1070
     0
  0
VISUALSTYLE
  5
5A8
102
{ACAD_REACTORS
330
2A
102
}
102
{ACAD_XDICTIONARY
360
6BE
102
}
330
2A
100
AcDbVisualStyle
  2
Shaded
 70
    27
 71
     2
 72
     2
 73
     1
 90
        2
 40
0.6
 41
30.0
 62
     5
 63
     7
 74
     0
 91
        4
 64
     7
 65
   257
 75
     1
175
     1
 42
1.0
 92
        8
 66
   257
 43
1.0
 76
     1
 77
     6
 78
     2
 67
   251
 79
     3
170
     0
171
     0
290
     0
174
     0
 93
        5
 44
0.0
173
     0
291
     0
 45
0.0
1001
ACAD
1000
AcDbSavedByObjectVersion
1070
     0
  0
VISUALSTYLE
  5
5A7
102
{ACAD_REACTORS
330
2A
102
}
102
{ACAD_XDICTIONARY
360
6BC
102
}
330
2A
100
AcDbVisualStyle
  2
Shaded with edges
 70
    26
 71
     2
 72
     2
 73
     1
 90
        2
 40
0.6
 41
30.0
 62
     5
 63
     7
 74
     1
 91
       10
 64
     7
 65
   257
 75
     2
175
     1
 42
1.0
 92
        8
 66
   257
 43
1.0
 76
     1
 77
     6
 78
     2
 67
     7
 79
     3
170
     0
171
     0
290
     0
174
     0
 93
        5
 44
0.0
173
     0
291
     0
 45
0.0
1001
ACAD
1000
AcDbSavedByObjectVersion
1070
     0
  0
VISUALSTYLE
  5
5A4
102
{ACAD_REACTORS
330
2A
102
}
102
{ACAD_XDICTIONARY
360
6B6
102
}
330
2A
100
AcDbVisualStyle
  2
Shades of Gray
 70
    23
 71
     2
 72
     2
 73
     3
 90
        0
 40
0.6
 41
30.0
 62
     5
 63
     7
 74
     2
 91
        2
 64
     7
 65
     7
 75
     1
175
     1
 42
40.0
 92
        8
 66
     7
 43
1.0
 76
     1
 77
     6
 78
     2
 67
     7
 79
     3
170
     0
171
     0
290
     0
174
     0
 93
        1
 44
0.0
173
     0
291
     0
 45
0.0
1001
ACAD
1000
AcDbSavedByObjectVersion
1070
     0
  0
VISUALSTYLE
  5
5A5
102
{ACAD_REACTORS
330
2A
102
}
102
{ACAD_XDICTIONARY
360
6B8
102
}
330
2A
100
AcDbVisualStyle
  2
Sketchy
 70
    24
 71
     1
 72
     2
 73
     2
 90
        0
 40
0.6
 41
30.0
 62
     5
 63
     7
 74
     2
 91
        2
 64
     7
 65
     7
 75
     1
175
     1
 42
40.0
 92
       11
 66
     7
 43
1.0
 76
     1
 77
     6
 78
     2
 67
     7
 79
     6
170
     0
171
     0
290
     0
174
     0
 93
        1
 44
0.0
173
     0
291
     0
 45
0.0
1001
ACAD
1000
AcDbSavedByObjectVersion
1070
     0
  0
VISUALSTYLE
  5
59D
102
{ACAD_REACTORS
330
2A
102
}
102
{ACAD_XDICTIONARY
360
6A8
102
}
330
2A
100
AcDbVisualStyle
  2
Thicken
 70
    13
 71
     2
 72
     2
 73
     0
 90
        0
 40
0.6
 41
30.0
 62
     5
 63
     7
 74
     1
 91
        4
 64
     7
 65
   257
 75
     1
175
     1
 42
1.0
 92
       12
 66
     7
 43
1.0
 76
     1
 77
     6
 78
     2
 67
     7
 79
     5
170
     0
171
     0
290
     0
174
     0
 93
        1
 44
0.0
173
     0
291
     1
 45
0.0
1001
ACAD
1000
AcDbSavedByObjectVersion
1070
     0
  0
VISUALSTYLE
  5
596
102
{ACAD_REACTORS
330
2A
102
}
102
{ACAD_XDICTIONARY
360
69A
102
}
330
2A
100
AcDbVisualStyle
  2
Wireframe
 70
     5
 71
     0
 72
     2
 73
     0
 90
        0
 40
0.6
 41
30.0
 62
     5
 63
     7
 74
     1
 91
        4
 64
     7
 65
   257
 75
     1
175
     1
 42
1.0
 92
        0
 66
   257
 43
1.0
 76
     1
 77
     6
 78
     2
 67
     7
 79
     5
170
     0
171
     0
290
     0
174
     0
 93
        1
 44
0.0
173
     0
291
     0
 45
0.0
1001
ACAD
1000
AcDbSavedByObjectVersion
1070
     0
  0
VISUALSTYLE
  5
5A6
102
{ACAD_REACTORS
330
2A
102
}
102
{ACAD_XDICTIONARY
360
6BA
102
}
330
2A
100
AcDbVisualStyle
  2
X-Ray
 70
    25
 71
     2
 72
     2
 73
     1
 90
        1
 40
0.5
 41
30.0
 62
     5
 63
     7
 74
     1
 91
        0
 64
     7
 65
   257
 75
     1
175
     1
 42
1.0
 92
        8
 66
     7
 43
1.0
 76
     1
 77
     6
 78
     2
 67
     7
 79
     3
170
     0
171
     0
290
     0
174
     0
 93
       13
 44
0.0
173
     0
291
     0
 45
0.0
1001
ACAD
1000
AcDbSavedByObjectVersion
1070
     0
  0
XRECORD
  5
684
102
{ACAD_REACTORS
330
683
102
}
330
683
100
AcDbXrecord
280
     1
340
29
  0
XRECORD
  5
685
102
{ACAD_REACTORS
330
683
102
}
330
683
100
AcDbXrecord
280
     1
340
7
  0
DICTIONARYVAR
  5
58C
102
{ACAD_REACTORS
330
58B
102
}
330
58B
100
DictionaryVariables
280
     0
  1
1:1
  0
DICTIONARYVAR
  5
5AB
102
{ACAD_REACTORS
330
58B
102
}
330
58B
100
DictionaryVariables
280
     0
  1
Standard
  0
DICTIONARYVAR
  5
680
102
{ACAD_REACTORS
330
58B
102
}
330
58B
100
DictionaryVariables
280
     0
  1
Standard
  0
DICTIONARYVAR
  5
681
102
{ACAD_REACTORS
330
58B
102
}
330
58B
100
DictionaryVariables
280
     0
  1
0
  0
DICTIONARYVAR
  5
682
102
{ACAD_REACTORS
330
58B
102
}
330
58B
100
DictionaryVariables
280
     0
  1
1
  0
DICTIONARYVAR
  5
689
102
{ACAD_REACTORS
330
58B
102
}
330
58B
100
DictionaryVariables
280
     0
  1
1
  0
DICTIONARY
  5
68E
330
70
100
AcDbDictionary
280
     1
281
     1
  3
ACAD_XREC_ROUNDTRIP
360
68F
  0
DICTIONARY
  5
68A
330
10
100
AcDbDictionary
280
     1
281
     1
  3
ACAD_XREC_ROUNDTRIP
360
68B
  0
DICTIONARY
  5
68C
330
6
100
AcDbDictionary
280
     1
281
     1
  3
ACAD_XREC_ROUNDTRIP
360
68D
  0
DICTIONARY
  5
6C0
330
5A9
100
AcDbDictionary
280
     1
281
     1
  3
ACAD_XREC_ROUNDTRIP
360
6C1
  0
DICTIONARY
  5
698
330
595
100
AcDbDictionary
280
     1
281
     1
  3
ACAD_XREC_ROUNDTRIP
360
699
  0
DICTIONARY
  5
69E
330
598
100
AcDbDictionary
280
     1
281
     1
  3
ACAD_XREC_ROUNDTRIP
360
69F
  0
DICTIONARY
  5
6A6
330
59C
100
AcDbDictionary
280
     1
281
     1
  3
ACAD_XREC_ROUNDTRIP
360
6A7
  0
DICTIONARY
  5
6AE
330
5A0
100
AcDbDictionary
280
     1
281
     1
  3
ACAD_XREC_ROUNDTRIP
360
6AF
  0
DICTIONARY
  5
6A2
330
59A
100
AcDbDictionary
280
     1
281
     1
  3
ACAD_XREC_ROUNDTRIP
360
6A3
  0
DICTIONARY
  5
6A4
330
59B
100
AcDbDictionary
280
     1
281
     1
  3
ACAD_XREC_ROUNDTRIP
360
6A5
  0
DICTIONARY
  5
6B4
330
5A3
100
AcDbDictionary
280
     1
281
     1
  3
ACAD_XREC_ROUNDTRIP
360
6B5
  0
DICTIONARY
  5
6AC
330
59F
100
AcDbDictionary
280
     1
281
     1
  3
ACAD_XREC_ROUNDTRIP
360
6AD
  0
DICTIONARY
  5
690
330
591
100
AcDbDictionary
280
     1
281
     1
  3
ACAD_XREC_ROUNDTRIP
360
691
  0
DICTIONARY
  5
692
330
592
100
AcDbDictionary
280
     1
281
     1
  3
ACAD_XREC_ROUNDTRIP
360
693
  0
DICTIONARY
  5
694
330
593
100
AcDbDictionary
280
     1
281
     1
  3
ACAD_XREC_ROUNDTRIP
360
695
  0
DICTIONARY
  5
696
330
594
100
AcDbDictionary
280
     1
281
     1
  3
ACAD_XREC_ROUNDTRIP
360
697
  0
DICTIONARY
  5
69C
330
597
100
AcDbDictionary
280
     1
281
     1
  3
ACAD_XREC_ROUNDTRIP
360
69D
  0
DICTIONARY
  5
6B0
330
5A1
100
AcDbDictionary
280
     1
281
     1
  3
ACAD_XREC_ROUNDTRIP
360
6B1
  0
DICTIONARY
  5
6AA
330
59E
100
AcDbDictionary
280
     1
281
     1
  3
ACAD_XREC_ROUNDTRIP
360
6AB
  0
DICTIONARY
  5
6B2
330
5A2
100
AcDbDictionary
280
     1
281
     1
  3
ACAD_XREC_ROUNDTRIP
360
6B3
  0
DICTIONARY
  5
6A0
330
599
100
AcDbDictionary
280
     1
281
     1
  3
ACAD_XREC_ROUNDTRIP
360
6A1
  0
DICTIONARY
  5
6BE
330
5A8
100
AcDbDictionary
280
     1
281
     1
  3
ACAD_XREC_ROUNDTRIP
360
6BF
  0
DICTIONARY
  5
6BC
330
5A7
100
AcDbDictionary
280
     1
281
     1
  3
ACAD_XREC_ROUNDTRIP
360
6BD
  0
DICTIONARY
  5
6B6
330
5A4
100
AcDbDictionary
280
     1
281
     1
  3
ACAD_XREC_ROUNDTRIP
360
6B7
  0
DICTIONARY
  5
6B8
330
5A5
100
AcDbDictionary
280
     1
281
     1
  3
ACAD_XREC_ROUNDTRIP
360
6B9
  0
DICTIONARY
  5
6A8
330
59D
100
AcDbDictionary
280
     1
281
     1
  3
ACAD_XREC_ROUNDTRIP
360
6A9
  0
DICTIONARY
  5
69A
330
596
100
AcDbDictionary
280
     1
281
     1
  3
ACAD_XREC_ROUNDTRIP
360
69B
  0
DICTIONARY
  5
6BA
330
5A6
100
AcDbDictionary
280
     1
281
     1
  3
ACAD_XREC_ROUNDTRIP
360
6BB
  0
XRECORD
  5
68F
102
{ACAD_REACTORS
330
68E
102
}
330
68E
100
AcDbXrecord
280
     1
102
MATERIAL
148
0.0
149
0.0
149
0.0
 93
        0
 94
      127
282
     0
 72
     1
 77
     1
171
     1
175
     1
179
     1
273
     0
  0
XRECORD
  5
68B
102
{ACAD_REACTORS
330
68A
102
}
330
68A
100
AcDbXrecord
280
     1
102
MATERIAL
148
0.0
149
0.0
149
0.0
 93
        0
 94
      127
282
     0
 72
     1
 77
     1
171
     1
175
     1
179
     1
273
     0
  0
XRECORD
  5
68D
102
{ACAD_REACTORS
330
68C
102
}
330
68C
100
AcDbXrecord
280
     1
102
MATERIAL
148
0.0
149
0.0
149
0.0
 93
        0
 94
      127
282
     0
 72
     1
 77
     1
171
     1
175
     1
179
     1
273
     0
  0
XRECORD
  5
6C1
102
{ACAD_REACTORS
330
6C0
102
}
330
6C0
100
AcDbXrecord
280
     1
102
ACAD_ROUNDTRIP_2010_MLEADER_STYLE
  0
XRECORD
  5
699
102
{ACAD_REACTORS
330
698
102
}
330
698
100
AcDbXrecord
280
     1
102
RTVSPropertyOp0
 70
     1
102
RTVSPropertyOp1
 70
     1
102
RTVSPropertyOp2
 70
     1
102
RTVSPropertyOp3
 70
     1
102
RTVSPropertyOp4
 70
     1
102
RTVSPropertyOp5
 70
     1
102
RTVSPropertyOp6
 70
     1
102
RTVSPropertyOp7
 70
     1
102
RTVSPropertyOp8
 70
     1
102
RTVSPropertyOp9
 70
     1
102
RTVSPropertyOp10
 70
     1
102
RTVSPropertyOp11
 70
     1
102
RTVSPropertyOp12
 70
     1
102
RTVSPropertyOp13
 70
     1
102
RTVSPropertyOp14
 70
     1
102
RTVSPropertyOp15
 70
     1
102
RTVSPropertyOp16
 70
     1
102
RTVSPropertyOp17
 70
     1
102
RTVSPropertyOp18
 70
     1
102
RTVSPropertyOp19
 70
     1
102
RTVSPropertyOp20
 70
     1
102
RTVSPropertyOp21
 70
     1
102
RTVSPropertyOp22
 70
     1
102
RTVSPropertyOp23
 70
     1
102
RTVSPropertyOp24
 70
     1
102
RTVSPropertyOp25
 70
     1
102
RTVSPropertyOp26
 70
     1
102
RTVSPropertyOp27
 70
     1
102
RTVSPropertyOp28
 70
     1
102
RTVSPropertyOp29
 70
     1
102
RTVSPropertyOp30
 70
     1
102
RTVSPropertyOp31
 70
     1
102
RTVSPropertyOp32
 70
     1
102
RTVSPropertyOp33
 70
     1
102
RTVSPropertyOp34
 70
     1
102
RTVSPropertyOp35
 70
     1
102
RTVSPropertyOp36
 70
     1
102
RTVSPropertyOp37
 70
     1
102
RTVSPropertyOp38
 70
     1
102
RTVSPropertyOp39
 70
     1
102
RTVSPropertyOp40
 70
     1
102
RTVSPropertyOp41
 70
     1
102
RTVSPropertyOp42
 70
     1
102
RTVSPropertyOp43
 70
     1
102
RTVSPropertyOp44
 70
     1
102
RTVSPropertyOp45
 70
     1
102
RTVSPropertyOp46
 70
     1
102
RTVSPropertyOp47
 70
     1
102
RTVSPropertyOp48
 70
     1
102
RTVSPropertyOp49
 70
     1
102
RTVSPropertyOp50
 70
     1
102
RTVSPropertyOp51
 70
     0
102
RTVSPropertyOp52
 70
     0
102
RTVSPropertyOp53
 70
     1
102
RTVSPropertyOp54
 70
     1
102
RTVSPropertyOp55
 70
     1
102
RTVSPropertyOp56
 70
     1
102
RTVSPropertyOp57
 70
     1
102
RTVSPost2010Prop28
280
     1
102
RTVSPost2010PropOp28
 70
     1
102
RTVSPost2010Prop29
280
     1
102
RTVSPost2010PropOp29
 70
     1
102
RTVSPost2010Prop30
280
     0
102
RTVSPost2010PropOp30
 70
     1
102
RTVSPost2010Prop31
280
     0
102
RTVSPost2010PropOp31
 70
     1
102
RTVSPost2010Prop32
280
     0
102
RTVSPost2010PropOp32
 70
     1
102
RTVSPost2010Prop33
280
     0
102
RTVSPost2010PropOp33
 70
     1
102
RTVSPost2010Prop34
280
     0
102
RTVSPost2010PropOp34
 70
     1
102
RTVSPost2010Prop35
280
     0
102
RTVSPost2010PropOp35
 70
     1
102
RTVSPost2010Prop36
280
     0
102
RTVSPost2010PropOp36
 70
     1
102
RTVSPost2010Prop37
 90
       50
102
RTVSPost2010PropOp37
 70
     1
102
RTVSPost2010Prop38
140
0.0
102
RTVSPost2010PropOp38
 70
     1
102
RTVSPost2010Prop39
140
1.0
102
RTVSPost2010PropOp39
 70
     1
102
RTVSPost2010Prop40
 90
        0
102
RTVSPost2010PropOp40
 70
     1
102
RTVSPost2010Prop41ColorIndex
 90
       18
102
RTVSPost2010Prop41ColorRGB
 90
        0
102
RTVSPost2010PropOp41
 70
     1
102
RTVSPost2010Prop42
 90
       50
102
RTVSPost2010PropOp42
 70
     1
102
RTVSPost2010Prop43
 90
        3
102
RTVSPost2010PropOp43
 70
     1
102
RTVSPost2010Prop44ColorIndex
 90
        5
102
RTVSPost2010Prop44ColorRGB
 90
      255
102
RTVSPost2010PropOp44
 70
     1
102
RTVSPost2010Prop45
280
     0
102
RTVSPost2010PropOp45
 70
     1
102
RTVSPost2010Prop46
 90
       50
102
RTVSPost2010PropOp46
 70
     1
102
RTVSPost2010Prop47
 90
       50
102
RTVSPost2010PropOp47
 70
     1
102
RTVSPost2010Prop48
 90
       50
102
RTVSPost2010PropOp48
 70
     1
102
RTVSPost2010Prop49
280
     0
102
RTVSPost2010PropOp49
 70
     1
102
RTVSPost2010Prop50
 90
       50
102
RTVSPost2010PropOp50
 70
     1
102
RTVSPost2010Prop51ColorIndex
 90
      256
102
RTVSPost2010Prop51ColorRGB
 90
-16777216
102
RTVSPost2010PropOp51
 70
     0
102
RTVSPost2010Prop52
140
1.0
102
RTVSPost2010PropOp52
 70
     0
102
RTVSPost2010Prop53
 90
        2
102
RTVSPost2010PropOp53
 70
     1
102
RTVSPost2010Prop54
  1
strokes_ogs.tif
102
RTVSPost2010PropOp54
 70
     1
102
RTVSPost2010Prop55
280
     0
102
RTVSPost2010PropOp55
 70
     1
102
RTVSPost2010Prop56
140
1.0
102
RTVSPost2010PropOp56
 70
     1
102
RTVSPost2010Prop57
140
1.0
102
RTVSPost2010PropOp57
 70
     1
  0
XRECORD
  5
69F
102
{ACAD_REACTORS
330
69E
102
}
330
69E
100
AcDbXrecord
280
     1
102
RTVSPropertyOp0
 70
     1
102
RTVSPropertyOp1
 70
     1
102
RTVSPropertyOp2
 70
     1
102
RTVSPropertyOp3
 70
     1
102
RTVSPropertyOp4
 70
     1
102
RTVSPropertyOp5
 70
     1
102
RTVSPropertyOp6
 70
     1
102
RTVSPropertyOp7
 70
     1
102
RTVSPropertyOp8
 70
     1
102
RTVSPropertyOp9
 70
     1
102
RTVSPropertyOp10
 70
     1
102
RTVSPropertyOp11
 70
     1
102
RTVSPropertyOp12
 70
     1
102
RTVSPropertyOp13
 70
     1
102
RTVSPropertyOp14
 70
     1
102
RTVSPropertyOp15
 70
     1
102
RTVSPropertyOp16
 70
     1
102
RTVSPropertyOp17
 70
     1
102
RTVSPropertyOp18
 70
     1
102
RTVSPropertyOp19
 70
     1
102
RTVSPropertyOp20
 70
     1
102
RTVSPropertyOp21
 70
     1
102
RTVSPropertyOp22
 70
     1
102
RTVSPropertyOp23
 70
     1
102
RTVSPropertyOp24
 70
     1
102
RTVSPropertyOp25
 70
     1
102
RTVSPropertyOp26
 70
     1
102
RTVSPropertyOp27
 70
     1
102
RTVSPropertyOp28
 70
     1
102
RTVSPropertyOp29
 70
     1
102
RTVSPropertyOp30
 70
     1
102
RTVSPropertyOp31
 70
     1
102
RTVSPropertyOp32
 70
     1
102
RTVSPropertyOp33
 70
     1
102
RTVSPropertyOp34
 70
     1
102
RTVSPropertyOp35
 70
     1
102
RTVSPropertyOp36
 70
     1
102
RTVSPropertyOp37
 70
     1
102
RTVSPropertyOp38
 70
     1
102
RTVSPropertyOp39
 70
     1
102
RTVSPropertyOp40
 70
     1
102
RTVSPropertyOp41
 70
     1
102
RTVSPropertyOp42
 70
     1
102
RTVSPropertyOp43
 70
     1
102
RTVSPropertyOp44
 70
     1
102
RTVSPropertyOp45
 70
     1
102
RTVSPropertyOp46
 70
     1
102
RTVSPropertyOp47
 70
     1
102
RTVSPropertyOp48
 70
     1
102
RTVSPropertyOp49
 70
     1
102
RTVSPropertyOp50
 70
     1
102
RTVSPropertyOp51
 70
     0
102
RTVSPropertyOp52
 70
     0
102
RTVSPropertyOp53
 70
     1
102
RTVSPropertyOp54
 70
     1
102
RTVSPropertyOp55
 70
     1
102
RTVSPropertyOp56
 70
     1
102
RTVSPropertyOp57
 70
     1
102
RTVSPost2010Prop28
280
     0
102
RTVSPost2010PropOp28
 70
     1
102
RTVSPost2010Prop29
280
     1
102
RTVSPost2010PropOp29
 70
     1
102
RTVSPost2010Prop30
280
     1
102
RTVSPost2010PropOp30
 70
     1
102
RTVSPost2010Prop31
280
     0
102
RTVSPost2010PropOp31
 70
     1
102
RTVSPost2010Prop32
280
     0
102
RTVSPost2010PropOp32
 70
     1
102
RTVSPost2010Prop33
280
     0
102
RTVSPost2010PropOp33
 70
     1
102
RTVSPost2010Prop34
280
     0
102
RTVSPost2010PropOp34
 70
     1
102
RTVSPost2010Prop35
280
     0
102
RTVSPost2010PropOp35
 70
     1
102
RTVSPost2010Prop36
280
     0
102
RTVSPost2010PropOp36
 70
     1
102
RTVSPost2010Prop37
 90
       50
102
RTVSPost2010PropOp37
 70
     1
102
RTVSPost2010Prop38
140
0.0
102
RTVSPost2010PropOp38
 70
     1
102
RTVSPost2010Prop39
140
1.0
102
RTVSPost2010PropOp39
 70
     1
102
RTVSPost2010Prop40
 90
        0
102
RTVSPost2010PropOp40
 70
     1
102
RTVSPost2010Prop41ColorIndex
 90
       18
102
RTVSPost2010Prop41ColorRGB
 90
        0
102
RTVSPost2010PropOp41
 70
     1
102
RTVSPost2010Prop42
 90
       50
102
RTVSPost2010PropOp42
 70
     1
102
RTVSPost2010Prop43
 90
        3
102
RTVSPost2010PropOp43
 70
     1
102
RTVSPost2010Prop44ColorIndex
 90
        5
102
RTVSPost2010Prop44ColorRGB
 90
      255
102
RTVSPost2010PropOp44
 70
     1
102
RTVSPost2010Prop45
280
     0
102
RTVSPost2010PropOp45
 70
     1
102
RTVSPost2010Prop46
 90
       50
102
RTVSPost2010PropOp46
 70
     1
102
RTVSPost2010Prop47
 90
       50
102
RTVSPost2010PropOp47
 70
     1
102
RTVSPost2010Prop48
 90
       50
102
RTVSPost2010PropOp48
 70
     1
102
RTVSPost2010Prop49
280
     0
102
RTVSPost2010PropOp49
 70
     1
102
RTVSPost2010Prop50
 90
       50
102
RTVSPost2010PropOp50
 70
     1
102
RTVSPost2010Prop51ColorIndex
 90
      256
102
RTVSPost2010Prop51ColorRGB
 90
-16777216
102
RTVSPost2010PropOp51
 70
     0
102
RTVSPost2010Prop52
140
1.0
102
RTVSPost2010PropOp52
 70
     0
102
RTVSPost2010Prop53
 90
        2
102
RTVSPost2010PropOp53
 70
     1
102
RTVSPost2010Prop54
  1
strokes_ogs.tif
102
RTVSPost2010PropOp54
 70
     1
102
RTVSPost2010Prop55
280
     0
102
RTVSPost2010PropOp55
 70
     1
102
RTVSPost2010Prop56
140
1.0
102
RTVSPost2010PropOp56
 70
     1
102
RTVSPost2010Prop57
140
1.0
102
RTVSPost2010PropOp57
 70
     1
  0
XRECORD
  5
6A7
102
{ACAD_REACTORS
330
6A6
102
}
330
6A6
100
AcDbXrecord
280
     1
102
RTVSPropertyOp0
 70
     1
102
RTVSPropertyOp1
 70
     1
102
RTVSPropertyOp2
 70
     1
102
RTVSPropertyOp3
 70
     1
102
RTVSPropertyOp4
 70
     1
102
RTVSPropertyOp5
 70
     1
102
RTVSPropertyOp6
 70
     1
102
RTVSPropertyOp7
 70
     1
102
RTVSPropertyOp8
 70
     1
102
RTVSPropertyOp9
 70
     1
102
RTVSPropertyOp10
 70
     1
102
RTVSPropertyOp11
 70
     1
102
RTVSPropertyOp12
 70
     1
102
RTVSPropertyOp13
 70
     1
102
RTVSPropertyOp14
 70
     1
102
RTVSPropertyOp15
 70
     1
102
RTVSPropertyOp16
 70
     1
102
RTVSPropertyOp17
 70
     1
102
RTVSPropertyOp18
 70
     1
102
RTVSPropertyOp19
 70
     1
102
RTVSPropertyOp20
 70
     1
102
RTVSPropertyOp21
 70
     1
102
RTVSPropertyOp22
 70
     1
102
RTVSPropertyOp23
 70
     1
102
RTVSPropertyOp24
 70
     1
102
RTVSPropertyOp25
 70
     1
102
RTVSPropertyOp26
 70
     1
102
RTVSPropertyOp27
 70
     1
102
RTVSPropertyOp28
 70
     1
102
RTVSPropertyOp29
 70
     1
102
RTVSPropertyOp30
 70
     1
102
RTVSPropertyOp31
 70
     1
102
RTVSPropertyOp32
 70
     1
102
RTVSPropertyOp33
 70
     1
102
RTVSPropertyOp34
 70
     1
102
RTVSPropertyOp35
 70
     1
102
RTVSPropertyOp36
 70
     1
102
RTVSPropertyOp37
 70
     1
102
RTVSPropertyOp38
 70
     1
102
RTVSPropertyOp39
 70
     1
102
RTVSPropertyOp40
 70
     1
102
RTVSPropertyOp41
 70
     1
102
RTVSPropertyOp42
 70
     1
102
RTVSPropertyOp43
 70
     1
102
RTVSPropertyOp44
 70
     1
102
RTVSPropertyOp45
 70
     1
102
RTVSPropertyOp46
 70
     1
102
RTVSPropertyOp47
 70
     1
102
RTVSPropertyOp48
 70
     1
102
RTVSPropertyOp49
 70
     1
102
RTVSPropertyOp50
 70
     1
102
RTVSPropertyOp51
 70
     0
102
RTVSPropertyOp52
 70
     0
102
RTVSPropertyOp53
 70
     1
102
RTVSPropertyOp54
 70
     1
102
RTVSPropertyOp55
 70
     1
102
RTVSPropertyOp56
 70
     1
102
RTVSPropertyOp57
 70
     1
102
RTVSPost2010Prop28
280
     0
102
RTVSPost2010PropOp28
 70
     1
102
RTVSPost2010Prop29
280
     1
102
RTVSPost2010PropOp29
 70
     1
102
RTVSPost2010Prop30
280
     1
102
RTVSPost2010PropOp30
 70
     1
102
RTVSPost2010Prop31
280
     0
102
RTVSPost2010PropOp31
 70
     1
102
RTVSPost2010Prop32
280
     0
102
RTVSPost2010PropOp32
 70
     1
102
RTVSPost2010Prop33
280
     0
102
RTVSPost2010PropOp33
 70
     1
102
RTVSPost2010Prop34
280
     0
102
RTVSPost2010PropOp34
 70
     1
102
RTVSPost2010Prop35
280
     0
102
RTVSPost2010PropOp35
 70
     1
102
RTVSPost2010Prop36
280
     0
102
RTVSPost2010PropOp36
 70
     1
102
RTVSPost2010Prop37
 90
       50
102
RTVSPost2010PropOp37
 70
     1
102
RTVSPost2010Prop38
140
0.0
102
RTVSPost2010PropOp38
 70
     1
102
RTVSPost2010Prop39
140
1.0
102
RTVSPost2010PropOp39
 70
     1
102
RTVSPost2010Prop40
 90
        0
102
RTVSPost2010PropOp40
 70
     1
102
RTVSPost2010Prop41ColorIndex
 90
       18
102
RTVSPost2010Prop41ColorRGB
 90
        0
102
RTVSPost2010PropOp41
 70
     1
102
RTVSPost2010Prop42
 90
       50
102
RTVSPost2010PropOp42
 70
     1
102
RTVSPost2010Prop43
 90
        3
102
RTVSPost2010PropOp43
 70
     1
102
RTVSPost2010Prop44ColorIndex
 90
        5
102
RTVSPost2010Prop44ColorRGB
 90
      255
102
RTVSPost2010PropOp44
 70
     1
102
RTVSPost2010Prop45
280
     0
102
RTVSPost2010PropOp45
 70
     1
102
RTVSPost2010Prop46
 90
       50
102
RTVSPost2010PropOp46
 70
     1
102
RTVSPost2010Prop47
 90
       50
102
RTVSPost2010PropOp47
 70
     1
102
RTVSPost2010Prop48
 90
       50
102
RTVSPost2010PropOp48
 70
     1
102
RTVSPost2010Prop49
280
     0
102
RTVSPost2010PropOp49
 70
     1
102
RTVSPost2010Prop50
 90
       50
102
RTVSPost2010PropOp50
 70
     1
102
RTVSPost2010Prop51ColorIndex
 90
      256
102
RTVSPost2010Prop51ColorRGB
 90
-16777216
102
RTVSPost2010PropOp51
 70
     0
102
RTVSPost2010Prop52
140
1.0
102
RTVSPost2010PropOp52
 70
     0
102
RTVSPost2010Prop53
 90
        2
102
RTVSPost2010PropOp53
 70
     1
102
RTVSPost2010Prop54
  1
strokes_ogs.tif
102
RTVSPost2010PropOp54
 70
     1
102
RTVSPost2010Prop55
280
     0
102
RTVSPost2010PropOp55
 70
     1
102
RTVSPost2010Prop56
140
1.0
102
RTVSPost2010PropOp56
 70
     1
102
RTVSPost2010Prop57
140
1.0
102
RTVSPost2010PropOp57
 70
     1
  0
XRECORD
  5
6AF
102
{ACAD_REACTORS
330
6AE
102
}
330
6AE
100
AcDbXrecord
280
     1
102
RTVSPropertyOp0
 70
     1
102
RTVSPropertyOp1
 70
     1
102
RTVSPropertyOp2
 70
     1
102
RTVSPropertyOp3
 70
     1
102
RTVSPropertyOp4
 70
     1
102
RTVSPropertyOp5
 70
     1
102
RTVSPropertyOp6
 70
     1
102
RTVSPropertyOp7
 70
     1
102
RTVSPropertyOp8
 70
     1
102
RTVSPropertyOp9
 70
     1
102
RTVSPropertyOp10
 70
     1
102
RTVSPropertyOp11
 70
     1
102
RTVSPropertyOp12
 70
     1
102
RTVSPropertyOp13
 70
     1
102
RTVSPropertyOp14
 70
     1
102
RTVSPropertyOp15
 70
     1
102
RTVSPropertyOp16
 70
     1
102
RTVSPropertyOp17
 70
     1
102
RTVSPropertyOp18
 70
     1
102
RTVSPropertyOp19
 70
     1
102
RTVSPropertyOp20
 70
     1
102
RTVSPropertyOp21
 70
     1
102
RTVSPropertyOp22
 70
     1
102
RTVSPropertyOp23
 70
     1
102
RTVSPropertyOp24
 70
     1
102
RTVSPropertyOp25
 70
     1
102
RTVSPropertyOp26
 70
     1
102
RTVSPropertyOp27
 70
     1
102
RTVSPropertyOp28
 70
     1
102
RTVSPropertyOp29
 70
     1
102
RTVSPropertyOp30
 70
     1
102
RTVSPropertyOp31
 70
     1
102
RTVSPropertyOp32
 70
     1
102
RTVSPropertyOp33
 70
     1
102
RTVSPropertyOp34
 70
     1
102
RTVSPropertyOp35
 70
     1
102
RTVSPropertyOp36
 70
     1
102
RTVSPropertyOp37
 70
     1
102
RTVSPropertyOp38
 70
     1
102
RTVSPropertyOp39
 70
     1
102
RTVSPropertyOp40
 70
     1
102
RTVSPropertyOp41
 70
     1
102
RTVSPropertyOp42
 70
     1
102
RTVSPropertyOp43
 70
     1
102
RTVSPropertyOp44
 70
     1
102
RTVSPropertyOp45
 70
     1
102
RTVSPropertyOp46
 70
     1
102
RTVSPropertyOp47
 70
     1
102
RTVSPropertyOp48
 70
     1
102
RTVSPropertyOp49
 70
     1
102
RTVSPropertyOp50
 70
     1
102
RTVSPropertyOp51
 70
     0
102
RTVSPropertyOp52
 70
     0
102
RTVSPropertyOp53
 70
     1
102
RTVSPropertyOp54
 70
     1
102
RTVSPropertyOp55
 70
     1
102
RTVSPropertyOp56
 70
     1
102
RTVSPropertyOp57
 70
     1
102
RTVSPost2010Prop28
280
     0
102
RTVSPost2010PropOp28
 70
     1
102
RTVSPost2010Prop29
280
     1
102
RTVSPost2010PropOp29
 70
     1
102
RTVSPost2010Prop30
280
     1
102
RTVSPost2010PropOp30
 70
     1
102
RTVSPost2010Prop31
280
     0
102
RTVSPost2010PropOp31
 70
     1
102
RTVSPost2010Prop32
280
     0
102
RTVSPost2010PropOp32
 70
     1
102
RTVSPost2010Prop33
280
     0
102
RTVSPost2010PropOp33
 70
     1
102
RTVSPost2010Prop34
280
     0
102
RTVSPost2010PropOp34
 70
     1
102
RTVSPost2010Prop35
280
     0
102
RTVSPost2010PropOp35
 70
     1
102
RTVSPost2010Prop36
280
     0
102
RTVSPost2010PropOp36
 70
     1
102
RTVSPost2010Prop37
 90
       50
102
RTVSPost2010PropOp37
 70
     1
102
RTVSPost2010Prop38
140
0.0
102
RTVSPost2010PropOp38
 70
     1
102
RTVSPost2010Prop39
140
1.0
102
RTVSPost2010PropOp39
 70
     1
102
RTVSPost2010Prop40
 90
        0
102
RTVSPost2010PropOp40
 70
     1
102
RTVSPost2010Prop41ColorIndex
 90
       18
102
RTVSPost2010Prop41ColorRGB
 90
        0
102
RTVSPost2010PropOp41
 70
     1
102
RTVSPost2010Prop42
 90
       50
102
RTVSPost2010PropOp42
 70
     1
102
RTVSPost2010Prop43
 90
        3
102
RTVSPost2010PropOp43
 70
     1
102
RTVSPost2010Prop44ColorIndex
 90
        5
102
RTVSPost2010Prop44ColorRGB
 90
      255
102
RTVSPost2010PropOp44
 70
     1
102
RTVSPost2010Prop45
280
     0
102
RTVSPost2010PropOp45
 70
     1
102
RTVSPost2010Prop46
 90
       50
102
RTVSPost2010PropOp46
 70
     1
102
RTVSPost2010Prop47
 90
       50
102
RTVSPost2010PropOp47
 70
     1
102
RTVSPost2010Prop48
 90
       50
102
RTVSPost2010PropOp48
 70
     1
102
RTVSPost2010Prop49
280
     0
102
RTVSPost2010PropOp49
 70
     1
102
RTVSPost2010Prop50
 90
       50
102
RTVSPost2010PropOp50
 70
     1
102
RTVSPost2010Prop51ColorIndex
 90
      256
102
RTVSPost2010Prop51ColorRGB
 90
-16777216
102
RTVSPost2010PropOp51
 70
     0
102
RTVSPost2010Prop52
140
1.0
102
RTVSPost2010PropOp52
 70
     0
102
RTVSPost2010Prop53
 90
        2
102
RTVSPost2010PropOp53
 70
     1
102
RTVSPost2010Prop54
  1
strokes_ogs.tif
102
RTVSPost2010PropOp54
 70
     1
102
RTVSPost2010Prop55
280
     0
102
RTVSPost2010PropOp55
 70
     1
102
RTVSPost2010Prop56
140
1.0
102
RTVSPost2010PropOp56
 70
     1
102
RTVSPost2010Prop57
140
1.0
102
RTVSPost2010PropOp57
 70
     1
  0
XRECORD
  5
6A3
102
{ACAD_REACTORS
330
6A2
102
}
330
6A2
100
AcDbXrecord
280
     1
102
RTVSPropertyOp0
 70
     1
102
RTVSPropertyOp1
 70
     1
102
RTVSPropertyOp2
 70
     1
102
RTVSPropertyOp3
 70
     1
102
RTVSPropertyOp4
 70
     1
102
RTVSPropertyOp5
 70
     1
102
RTVSPropertyOp6
 70
     1
102
RTVSPropertyOp7
 70
     1
102
RTVSPropertyOp8
 70
     1
102
RTVSPropertyOp9
 70
     1
102
RTVSPropertyOp10
 70
     1
102
RTVSPropertyOp11
 70
     1
102
RTVSPropertyOp12
 70
     1
102
RTVSPropertyOp13
 70
     1
102
RTVSPropertyOp14
 70
     1
102
RTVSPropertyOp15
 70
     1
102
RTVSPropertyOp16
 70
     1
102
RTVSPropertyOp17
 70
     1
102
RTVSPropertyOp18
 70
     1
102
RTVSPropertyOp19
 70
     1
102
RTVSPropertyOp20
 70
     1
102
RTVSPropertyOp21
 70
     1
102
RTVSPropertyOp22
 70
     1
102
RTVSPropertyOp23
 70
     1
102
RTVSPropertyOp24
 70
     1
102
RTVSPropertyOp25
 70
     1
102
RTVSPropertyOp26
 70
     1
102
RTVSPropertyOp27
 70
     1
102
RTVSPropertyOp28
 70
     1
102
RTVSPropertyOp29
 70
     1
102
RTVSPropertyOp30
 70
     1
102
RTVSPropertyOp31
 70
     1
102
RTVSPropertyOp32
 70
     1
102
RTVSPropertyOp33
 70
     1
102
RTVSPropertyOp34
 70
     1
102
RTVSPropertyOp35
 70
     1
102
RTVSPropertyOp36
 70
     1
102
RTVSPropertyOp37
 70
     1
102
RTVSPropertyOp38
 70
     1
102
RTVSPropertyOp39
 70
     1
102
RTVSPropertyOp40
 70
     1
102
RTVSPropertyOp41
 70
     1
102
RTVSPropertyOp42
 70
     1
102
RTVSPropertyOp43
 70
     1
102
RTVSPropertyOp44
 70
     1
102
RTVSPropertyOp45
 70
     1
102
RTVSPropertyOp46
 70
     1
102
RTVSPropertyOp47
 70
     1
102
RTVSPropertyOp48
 70
     1
102
RTVSPropertyOp49
 70
     1
102
RTVSPropertyOp50
 70
     1
102
RTVSPropertyOp51
 70
     0
102
RTVSPropertyOp52
 70
     0
102
RTVSPropertyOp53
 70
     1
102
RTVSPropertyOp54
 70
     1
102
RTVSPropertyOp55
 70
     1
102
RTVSPropertyOp56
 70
     1
102
RTVSPropertyOp57
 70
     1
102
RTVSPost2010Prop28
280
     0
102
RTVSPost2010PropOp28
 70
     1
102
RTVSPost2010Prop29
280
     1
102
RTVSPost2010PropOp29
 70
     1
102
RTVSPost2010Prop30
280
     1
102
RTVSPost2010PropOp30
 70
     1
102
RTVSPost2010Prop31
280
     0
102
RTVSPost2010PropOp31
 70
     1
102
RTVSPost2010Prop32
280
     0
102
RTVSPost2010PropOp32
 70
     1
102
RTVSPost2010Prop33
280
     0
102
RTVSPost2010PropOp33
 70
     1
102
RTVSPost2010Prop34
280
     0
102
RTVSPost2010PropOp34
 70
     1
102
RTVSPost2010Prop35
280
     0
102
RTVSPost2010PropOp35
 70
     1
102
RTVSPost2010Prop36
280
     0
102
RTVSPost2010PropOp36
 70
     1
102
RTVSPost2010Prop37
 90
       50
102
RTVSPost2010PropOp37
 70
     1
102
RTVSPost2010Prop38
140
0.0
102
RTVSPost2010PropOp38
 70
     1
102
RTVSPost2010Prop39
140
1.0
102
RTVSPost2010PropOp39
 70
     1
102
RTVSPost2010Prop40
 90
        0
102
RTVSPost2010PropOp40
 70
     1
102
RTVSPost2010Prop41ColorIndex
 90
       18
102
RTVSPost2010Prop41ColorRGB
 90
        0
102
RTVSPost2010PropOp41
 70
     1
102
RTVSPost2010Prop42
 90
       50
102
RTVSPost2010PropOp42
 70
     1
102
RTVSPost2010Prop43
 90
        3
102
RTVSPost2010PropOp43
 70
     1
102
RTVSPost2010Prop44ColorIndex
 90
        5
102
RTVSPost2010Prop44ColorRGB
 90
      255
102
RTVSPost2010PropOp44
 70
     1
102
RTVSPost2010Prop45
280
     0
102
RTVSPost2010PropOp45
 70
     1
102
RTVSPost2010Prop46
 90
       50
102
RTVSPost2010PropOp46
 70
     1
102
RTVSPost2010Prop47
 90
       50
102
RTVSPost2010PropOp47
 70
     1
102
RTVSPost2010Prop48
 90
       50
102
RTVSPost2010PropOp48
 70
     1
102
RTVSPost2010Prop49
280
     0
102
RTVSPost2010PropOp49
 70
     1
102
RTVSPost2010Prop50
 90
       50
102
RTVSPost2010PropOp50
 70
     1
102
RTVSPost2010Prop51ColorIndex
 90
      256
102
RTVSPost2010Prop51ColorRGB
 90
-16777216
102
RTVSPost2010PropOp51
 70
     0
102
RTVSPost2010Prop52
140
1.0
102
RTVSPost2010PropOp52
 70
     0
102
RTVSPost2010Prop53
 90
        2
102
RTVSPost2010PropOp53
 70
     1
102
RTVSPost2010Prop54
  1
strokes_ogs.tif
102
RTVSPost2010PropOp54
 70
     1
102
RTVSPost2010Prop55
280
     0
102
RTVSPost2010PropOp55
 70
     1
102
RTVSPost2010Prop56
140
1.0
102
RTVSPost2010PropOp56
 70
     1
102
RTVSPost2010Prop57
140
1.0
102
RTVSPost2010PropOp57
 70
     1
  0
XRECORD
  5
6A5
102
{ACAD_REACTORS
330
6A4
102
}
330
6A4
100
AcDbXrecord
280
     1
102
RTVSPropertyOp0
 70
     1
102
RTVSPropertyOp1
 70
     1
102
RTVSPropertyOp2
 70
     1
102
RTVSPropertyOp3
 70
     1
102
RTVSPropertyOp4
 70
     1
102
RTVSPropertyOp5
 70
     1
102
RTVSPropertyOp6
 70
     1
102
RTVSPropertyOp7
 70
     1
102
RTVSPropertyOp8
 70
     1
102
RTVSPropertyOp9
 70
     1
102
RTVSPropertyOp10
 70
     1
102
RTVSPropertyOp11
 70
     1
102
RTVSPropertyOp12
 70
     1
102
RTVSPropertyOp13
 70
     1
102
RTVSPropertyOp14
 70
     1
102
RTVSPropertyOp15
 70
     1
102
RTVSPropertyOp16
 70
     1
102
RTVSPropertyOp17
 70
     1
102
RTVSPropertyOp18
 70
     1
102
RTVSPropertyOp19
 70
     1
102
RTVSPropertyOp20
 70
     1
102
RTVSPropertyOp21
 70
     1
102
RTVSPropertyOp22
 70
     1
102
RTVSPropertyOp23
 70
     1
102
RTVSPropertyOp24
 70
     1
102
RTVSPropertyOp25
 70
     1
102
RTVSPropertyOp26
 70
     1
102
RTVSPropertyOp27
 70
     1
102
RTVSPropertyOp28
 70
     1
102
RTVSPropertyOp29
 70
     1
102
RTVSPropertyOp30
 70
     1
102
RTVSPropertyOp31
 70
     1
102
RTVSPropertyOp32
 70
     1
102
RTVSPropertyOp33
 70
     1
102
RTVSPropertyOp34
 70
     1
102
RTVSPropertyOp35
 70
     1
102
RTVSPropertyOp36
 70
     1
102
RTVSPropertyOp37
 70
     1
102
RTVSPropertyOp38
 70
     1
102
RTVSPropertyOp39
 70
     1
102
RTVSPropertyOp40
 70
     1
102
RTVSPropertyOp41
 70
     1
102
RTVSPropertyOp42
 70
     1
102
RTVSPropertyOp43
 70
     1
102
RTVSPropertyOp44
 70
     1
102
RTVSPropertyOp45
 70
     1
102
RTVSPropertyOp46
 70
     1
102
RTVSPropertyOp47
 70
     1
102
RTVSPropertyOp48
 70
     1
102
RTVSPropertyOp49
 70
     1
102
RTVSPropertyOp50
 70
     1
102
RTVSPropertyOp51
 70
     0
102
RTVSPropertyOp52
 70
     0
102
RTVSPropertyOp53
 70
     1
102
RTVSPropertyOp54
 70
     1
102
RTVSPropertyOp55
 70
     1
102
RTVSPropertyOp56
 70
     1
102
RTVSPropertyOp57
 70
     1
102
RTVSPost2010Prop28
280
     0
102
RTVSPost2010PropOp28
 70
     1
102
RTVSPost2010Prop29
280
     1
102
RTVSPost2010PropOp29
 70
     1
102
RTVSPost2010Prop30
280
     1
102
RTVSPost2010PropOp30
 70
     1
102
RTVSPost2010Prop31
280
     0
102
RTVSPost2010PropOp31
 70
     1
102
RTVSPost2010Prop32
280
     0
102
RTVSPost2010PropOp32
 70
     1
102
RTVSPost2010Prop33
280
     0
102
RTVSPost2010PropOp33
 70
     1
102
RTVSPost2010Prop34
280
     0
102
RTVSPost2010PropOp34
 70
     1
102
RTVSPost2010Prop35
280
     0
102
RTVSPost2010PropOp35
 70
     1
102
RTVSPost2010Prop36
280
     0
102
RTVSPost2010PropOp36
 70
     1
102
RTVSPost2010Prop37
 90
       50
102
RTVSPost2010PropOp37
 70
     1
102
RTVSPost2010Prop38
140
0.0
102
RTVSPost2010PropOp38
 70
     1
102
RTVSPost2010Prop39
140
1.0
102
RTVSPost2010PropOp39
 70
     1
102
RTVSPost2010Prop40
 90
        0
102
RTVSPost2010PropOp40
 70
     1
102
RTVSPost2010Prop41ColorIndex
 90
       18
102
RTVSPost2010Prop41ColorRGB
 90
        0
102
RTVSPost2010PropOp41
 70
     1
102
RTVSPost2010Prop42
 90
       50
102
RTVSPost2010PropOp42
 70
     1
102
RTVSPost2010Prop43
 90
        3
102
RTVSPost2010PropOp43
 70
     1
102
RTVSPost2010Prop44ColorIndex
 90
        5
102
RTVSPost2010Prop44ColorRGB
 90
      255
102
RTVSPost2010PropOp44
 70
     1
102
RTVSPost2010Prop45
280
     0
102
RTVSPost2010PropOp45
 70
     1
102
RTVSPost2010Prop46
 90
       50
102
RTVSPost2010PropOp46
 70
     1
102
RTVSPost2010Prop47
 90
       50
102
RTVSPost2010PropOp47
 70
     1
102
RTVSPost2010Prop48
 90
       50
102
RTVSPost2010PropOp48
 70
     1
102
RTVSPost2010Prop49
280
     0
102
RTVSPost2010PropOp49
 70
     1
102
RTVSPost2010Prop50
 90
       50
102
RTVSPost2010PropOp50
 70
     1
102
RTVSPost2010Prop51ColorIndex
 90
      256
102
RTVSPost2010Prop51ColorRGB
 90
-16777216
102
RTVSPost2010PropOp51
 70
     0
102
RTVSPost2010Prop52
140
1.0
102
RTVSPost2010PropOp52
 70
     0
102
RTVSPost2010Prop53
 90
        2
102
RTVSPost2010PropOp53
 70
     1
102
RTVSPost2010Prop54
  1
strokes_ogs.tif
102
RTVSPost2010PropOp54
 70
     1
102
RTVSPost2010Prop55
280
     0
102
RTVSPost2010PropOp55
 70
     1
102
RTVSPost2010Prop56
140
1.0
102
RTVSPost2010PropOp56
 70
     1
102
RTVSPost2010Prop57
140
1.0
102
RTVSPost2010PropOp57
 70
     1
  0
XRECORD
  5
6B5
102
{ACAD_REACTORS
330
6B4
102
}
330
6B4
100
AcDbXrecord
280
     1
102
RTVSPropertyOp0
 70
     0
102
RTVSPropertyOp1
 70
     0
102
RTVSPropertyOp2
 70
     0
102
RTVSPropertyOp3
 70
     0
102
RTVSPropertyOp4
 70
     0
102
RTVSPropertyOp5
 70
     0
102
RTVSPropertyOp6
 70
     0
102
RTVSPropertyOp7
 70
     0
102
RTVSPropertyOp8
 70
     0
102
RTVSPropertyOp9
 70
     0
102
RTVSPropertyOp10
 70
     0
102
RTVSPropertyOp11
 70
     0
102
RTVSPropertyOp12
 70
     0
102
RTVSPropertyOp13
 70
     0
102
RTVSPropertyOp14
 70
     0
102
RTVSPropertyOp15
 70
     0
102
RTVSPropertyOp16
 70
     0
102
RTVSPropertyOp17
 70
     0
102
RTVSPropertyOp18
 70
     0
102
RTVSPropertyOp19
 70
     0
102
RTVSPropertyOp20
 70
     0
102
RTVSPropertyOp21
 70
     0
102
RTVSPropertyOp22
 70
     0
102
RTVSPropertyOp23
 70
     0
102
RTVSPropertyOp24
 70
     0
102
RTVSPropertyOp25
 70
     0
102
RTVSPropertyOp26
 70
     0
102
RTVSPropertyOp27
 70
     0
102
RTVSPropertyOp28
 70
     1
102
RTVSPropertyOp29
 70
     1
102
RTVSPropertyOp30
 70
     1
102
RTVSPropertyOp31
 70
     1
102
RTVSPropertyOp32
 70
     1
102
RTVSPropertyOp33
 70
     1
102
RTVSPropertyOp34
 70
     1
102
RTVSPropertyOp35
 70
     1
102
RTVSPropertyOp36
 70
     1
102
RTVSPropertyOp37
 70
     1
102
RTVSPropertyOp38
 70
     1
102
RTVSPropertyOp39
 70
     1
102
RTVSPropertyOp40
 70
     1
102
RTVSPropertyOp41
 70
     1
102
RTVSPropertyOp42
 70
     1
102
RTVSPropertyOp43
 70
     1
102
RTVSPropertyOp44
 70
     1
102
RTVSPropertyOp45
 70
     1
102
RTVSPropertyOp46
 70
     1
102
RTVSPropertyOp47
 70
     1
102
RTVSPropertyOp48
 70
     1
102
RTVSPropertyOp49
 70
     1
102
RTVSPropertyOp50
 70
     1
102
RTVSPropertyOp51
 70
     0
102
RTVSPropertyOp52
 70
     0
102
RTVSPropertyOp53
 70
     1
102
RTVSPropertyOp54
 70
     1
102
RTVSPropertyOp55
 70
     1
102
RTVSPropertyOp56
 70
     1
102
RTVSPropertyOp57
 70
     1
102
RTVSPost2010Prop28
280
     0
102
RTVSPost2010PropOp28
 70
     1
102
RTVSPost2010Prop29
280
     1
102
RTVSPost2010PropOp29
 70
     1
102
RTVSPost2010Prop30
280
     1
102
RTVSPost2010PropOp30
 70
     1
102
RTVSPost2010Prop31
280
     0
102
RTVSPost2010PropOp31
 70
     1
102
RTVSPost2010Prop32
280
     0
102
RTVSPost2010PropOp32
 70
     1
102
RTVSPost2010Prop33
280
     0
102
RTVSPost2010PropOp33
 70
     1
102
RTVSPost2010Prop34
280
     0
102
RTVSPost2010PropOp34
 70
     1
102
RTVSPost2010Prop35
280
     0
102
RTVSPost2010PropOp35
 70
     1
102
RTVSPost2010Prop36
280
     0
102
RTVSPost2010PropOp36
 70
     1
102
RTVSPost2010Prop37
 90
       50
102
RTVSPost2010PropOp37
 70
     1
102
RTVSPost2010Prop38
140
0.0
102
RTVSPost2010PropOp38
 70
     1
102
RTVSPost2010Prop39
140
1.0
102
RTVSPost2010PropOp39
 70
     1
102
RTVSPost2010Prop40
 90
        0
102
RTVSPost2010PropOp40
 70
     1
102
RTVSPost2010Prop41ColorIndex
 90
       18
102
RTVSPost2010Prop41ColorRGB
 90
        0
102
RTVSPost2010PropOp41
 70
     1
102
RTVSPost2010Prop42
 90
       50
102
RTVSPost2010PropOp42
 70
     1
102
RTVSPost2010Prop43
 90
        3
102
RTVSPost2010PropOp43
 70
     1
102
RTVSPost2010Prop44ColorIndex
 90
        5
102
RTVSPost2010Prop44ColorRGB
 90
      255
102
RTVSPost2010PropOp44
 70
     1
102
RTVSPost2010Prop45
280
     0
102
RTVSPost2010PropOp45
 70
     1
102
RTVSPost2010Prop46
 90
       50
102
RTVSPost2010PropOp46
 70
     1
102
RTVSPost2010Prop47
 90
       50
102
RTVSPost2010PropOp47
 70
     1
102
RTVSPost2010Prop48
 90
       50
102
RTVSPost2010PropOp48
 70
     1
102
RTVSPost2010Prop49
280
     0
102
RTVSPost2010PropOp49
 70
     1
102
RTVSPost2010Prop50
 90
       50
102
RTVSPost2010PropOp50
 70
     1
102
RTVSPost2010Prop51ColorIndex
 90
      256
102
RTVSPost2010Prop51ColorRGB
 90
-16777216
102
RTVSPost2010PropOp51
 70
     0
102
RTVSPost2010Prop52
140
1.0
102
RTVSPost2010PropOp52
 70
     0
102
RTVSPost2010Prop53
 90
        2
102
RTVSPost2010PropOp53
 70
     1
102
RTVSPost2010Prop54
  1
strokes_ogs.tif
102
RTVSPost2010PropOp54
 70
     1
102
RTVSPost2010Prop55
280
     0
102
RTVSPost2010PropOp55
 70
     1
102
RTVSPost2010Prop56
140
1.0
102
RTVSPost2010PropOp56
 70
     1
102
RTVSPost2010Prop57
140
1.0
102
RTVSPost2010PropOp57
 70
     1
  0
XRECORD
  5
6AD
102
{ACAD_REACTORS
330
6AC
102
}
330
6AC
100
AcDbXrecord
280
     1
102
RTVSPropertyOp0
 70
     1
102
RTVSPropertyOp1
 70
     1
102
RTVSPropertyOp2
 70
     1
102
RTVSPropertyOp3
 70
     1
102
RTVSPropertyOp4
 70
     1
102
RTVSPropertyOp5
 70
     1
102
RTVSPropertyOp6
 70
     1
102
RTVSPropertyOp7
 70
     1
102
RTVSPropertyOp8
 70
     1
102
RTVSPropertyOp9
 70
     1
102
RTVSPropertyOp10
 70
     1
102
RTVSPropertyOp11
 70
     1
102
RTVSPropertyOp12
 70
     1
102
RTVSPropertyOp13
 70
     1
102
RTVSPropertyOp14
 70
     1
102
RTVSPropertyOp15
 70
     1
102
RTVSPropertyOp16
 70
     1
102
RTVSPropertyOp17
 70
     1
102
RTVSPropertyOp18
 70
     1
102
RTVSPropertyOp19
 70
     1
102
RTVSPropertyOp20
 70
     1
102
RTVSPropertyOp21
 70
     1
102
RTVSPropertyOp22
 70
     1
102
RTVSPropertyOp23
 70
     1
102
RTVSPropertyOp24
 70
     1
102
RTVSPropertyOp25
 70
     1
102
RTVSPropertyOp26
 70
     1
102
RTVSPropertyOp27
 70
     1
102
RTVSPropertyOp28
 70
     1
102
RTVSPropertyOp29
 70
     1
102
RTVSPropertyOp30
 70
     1
102
RTVSPropertyOp31
 70
     1
102
RTVSPropertyOp32
 70
     1
102
RTVSPropertyOp33
 70
     1
102
RTVSPropertyOp34
 70
     1
102
RTVSPropertyOp35
 70
     1
102
RTVSPropertyOp36
 70
     1
102
RTVSPropertyOp37
 70
     1
102
RTVSPropertyOp38
 70
     1
102
RTVSPropertyOp39
 70
     1
102
RTVSPropertyOp40
 70
     1
102
RTVSPropertyOp41
 70
     1
102
RTVSPropertyOp42
 70
     1
102
RTVSPropertyOp43
 70
     1
102
RTVSPropertyOp44
 70
     1
102
RTVSPropertyOp45
 70
     1
102
RTVSPropertyOp46
 70
     1
102
RTVSPropertyOp47
 70
     1
102
RTVSPropertyOp48
 70
     1
102
RTVSPropertyOp49
 70
     1
102
RTVSPropertyOp50
 70
     1
102
RTVSPropertyOp51
 70
     0
102
RTVSPropertyOp52
 70
     0
102
RTVSPropertyOp53
 70
     1
102
RTVSPropertyOp54
 70
     1
102
RTVSPropertyOp55
 70
     1
102
RTVSPropertyOp56
 70
     1
102
RTVSPropertyOp57
 70
     1
102
RTVSPost2010Prop28
280
     0
102
RTVSPost2010PropOp28
 70
     1
102
RTVSPost2010Prop29
280
     1
102
RTVSPost2010PropOp29
 70
     1
102
RTVSPost2010Prop30
280
     1
102
RTVSPost2010PropOp30
 70
     1
102
RTVSPost2010Prop31
280
     0
102
RTVSPost2010PropOp31
 70
     1
102
RTVSPost2010Prop32
280
     0
102
RTVSPost2010PropOp32
 70
     1
102
RTVSPost2010Prop33
280
     0
102
RTVSPost2010PropOp33
 70
     1
102
RTVSPost2010Prop34
280
     0
102
RTVSPost2010PropOp34
 70
     1
102
RTVSPost2010Prop35
280
     0
102
RTVSPost2010PropOp35
 70
     1
102
RTVSPost2010Prop36
280
     0
102
RTVSPost2010PropOp36
 70
     1
102
RTVSPost2010Prop37
 90
       50
102
RTVSPost2010PropOp37
 70
     1
102
RTVSPost2010Prop38
140
0.0
102
RTVSPost2010PropOp38
 70
     1
102
RTVSPost2010Prop39
140
1.0
102
RTVSPost2010PropOp39
 70
     1
102
RTVSPost2010Prop40
 90
        0
102
RTVSPost2010PropOp40
 70
     1
102
RTVSPost2010Prop41ColorIndex
 90
       18
102
RTVSPost2010Prop41ColorRGB
 90
        0
102
RTVSPost2010PropOp41
 70
     1
102
RTVSPost2010Prop42
 90
       50
102
RTVSPost2010PropOp42
 70
     1
102
RTVSPost2010Prop43
 90
        3
102
RTVSPost2010PropOp43
 70
     1
102
RTVSPost2010Prop44ColorIndex
 90
        5
102
RTVSPost2010Prop44ColorRGB
 90
      255
102
RTVSPost2010PropOp44
 70
     1
102
RTVSPost2010Prop45
280
     0
102
RTVSPost2010PropOp45
 70
     1
102
RTVSPost2010Prop46
 90
       50
102
RTVSPost2010PropOp46
 70
     1
102
RTVSPost2010Prop47
 90
       50
102
RTVSPost2010PropOp47
 70
     1
102
RTVSPost2010Prop48
 90
       50
102
RTVSPost2010PropOp48
 70
     1
102
RTVSPost2010Prop49
280
     0
102
RTVSPost2010PropOp49
 70
     1
102
RTVSPost2010Prop50
 90
       50
102
RTVSPost2010PropOp50
 70
     1
102
RTVSPost2010Prop51ColorIndex
 90
      256
102
RTVSPost2010Prop51ColorRGB
 90
-16777216
102
RTVSPost2010PropOp51
 70
     0
102
RTVSPost2010Prop52
140
1.0
102
RTVSPost2010PropOp52
 70
     0
102
RTVSPost2010Prop53
 90
        2
102
RTVSPost2010PropOp53
 70
     1
102
RTVSPost2010Prop54
  1
strokes_ogs.tif
102
RTVSPost2010PropOp54
 70
     1
102
RTVSPost2010Prop55
280
     0
102
RTVSPost2010PropOp55
 70
     1
102
RTVSPost2010Prop56
140
1.0
102
RTVSPost2010PropOp56
 70
     1
102
RTVSPost2010Prop57
140
1.0
102
RTVSPost2010PropOp57
 70
     1
  0
XRECORD
  5
691
102
{ACAD_REACTORS
330
690
102
}
330
690
100
AcDbXrecord
280
     1
102
RTVSPropertyOp0
 70
     1
102
RTVSPropertyOp1
 70
     1
102
RTVSPropertyOp2
 70
     1
102
RTVSPropertyOp3
 70
     1
102
RTVSPropertyOp4
 70
     1
102
RTVSPropertyOp5
 70
     1
102
RTVSPropertyOp6
 70
     1
102
RTVSPropertyOp7
 70
     1
102
RTVSPropertyOp8
 70
     1
102
RTVSPropertyOp9
 70
     1
102
RTVSPropertyOp10
 70
     1
102
RTVSPropertyOp11
 70
     1
102
RTVSPropertyOp12
 70
     1
102
RTVSPropertyOp13
 70
     1
102
RTVSPropertyOp14
 70
     1
102
RTVSPropertyOp15
 70
     1
102
RTVSPropertyOp16
 70
     1
102
RTVSPropertyOp17
 70
     1
102
RTVSPropertyOp18
 70
     1
102
RTVSPropertyOp19
 70
     1
102
RTVSPropertyOp20
 70
     1
102
RTVSPropertyOp21
 70
     1
102
RTVSPropertyOp22
 70
     1
102
RTVSPropertyOp23
 70
     1
102
RTVSPropertyOp24
 70
     1
102
RTVSPropertyOp25
 70
     1
102
RTVSPropertyOp26
 70
     1
102
RTVSPropertyOp27
 70
     1
102
RTVSPropertyOp28
 70
     1
102
RTVSPropertyOp29
 70
     1
102
RTVSPropertyOp30
 70
     1
102
RTVSPropertyOp31
 70
     1
102
RTVSPropertyOp32
 70
     1
102
RTVSPropertyOp33
 70
     1
102
RTVSPropertyOp34
 70
     1
102
RTVSPropertyOp35
 70
     1
102
RTVSPropertyOp36
 70
     1
102
RTVSPropertyOp37
 70
     1
102
RTVSPropertyOp38
 70
     1
102
RTVSPropertyOp39
 70
     1
102
RTVSPropertyOp40
 70
     1
102
RTVSPropertyOp41
 70
     1
102
RTVSPropertyOp42
 70
     1
102
RTVSPropertyOp43
 70
     1
102
RTVSPropertyOp44
 70
     1
102
RTVSPropertyOp45
 70
     1
102
RTVSPropertyOp46
 70
     1
102
RTVSPropertyOp47
 70
     1
102
RTVSPropertyOp48
 70
     1
102
RTVSPropertyOp49
 70
     1
102
RTVSPropertyOp50
 70
     1
102
RTVSPropertyOp51
 70
     0
102
RTVSPropertyOp52
 70
     0
102
RTVSPropertyOp53
 70
     1
102
RTVSPropertyOp54
 70
     1
102
RTVSPropertyOp55
 70
     1
102
RTVSPropertyOp56
 70
     1
102
RTVSPropertyOp57
 70
     1
102
RTVSPost2010Prop28
280
     0
102
RTVSPost2010PropOp28
 70
     1
102
RTVSPost2010Prop29
280
     1
102
RTVSPost2010PropOp29
 70
     1
102
RTVSPost2010Prop30
280
     1
102
RTVSPost2010PropOp30
 70
     1
102
RTVSPost2010Prop31
280
     0
102
RTVSPost2010PropOp31
 70
     1
102
RTVSPost2010Prop32
280
     0
102
RTVSPost2010PropOp32
 70
     1
102
RTVSPost2010Prop33
280
     0
102
RTVSPost2010PropOp33
 70
     1
102
RTVSPost2010Prop34
280
     0
102
RTVSPost2010PropOp34
 70
     1
102
RTVSPost2010Prop35
280
     0
102
RTVSPost2010PropOp35
 70
     1
102
RTVSPost2010Prop36
280
     0
102
RTVSPost2010PropOp36
 70
     1
102
RTVSPost2010Prop37
 90
       50
102
RTVSPost2010PropOp37
 70
     1
102
RTVSPost2010Prop38
140
0.0
102
RTVSPost2010PropOp38
 70
     1
102
RTVSPost2010Prop39
140
1.0
102
RTVSPost2010PropOp39
 70
     1
102
RTVSPost2010Prop40
 90
        0
102
RTVSPost2010PropOp40
 70
     1
102
RTVSPost2010Prop41ColorIndex
 90
       18
102
RTVSPost2010Prop41ColorRGB
 90
        0
102
RTVSPost2010PropOp41
 70
     1
102
RTVSPost2010Prop42
 90
       50
102
RTVSPost2010PropOp42
 70
     1
102
RTVSPost2010Prop43
 90
        3
102
RTVSPost2010PropOp43
 70
     1
102
RTVSPost2010Prop44ColorIndex
 90
        5
102
RTVSPost2010Prop44ColorRGB
 90
      255
102
RTVSPost2010PropOp44
 70
     1
102
RTVSPost2010Prop45
280
     0
102
RTVSPost2010PropOp45
 70
     1
102
RTVSPost2010Prop46
 90
       50
102
RTVSPost2010PropOp46
 70
     1
102
RTVSPost2010Prop47
 90
       50
102
RTVSPost2010PropOp47
 70
     1
102
RTVSPost2010Prop48
 90
       50
102
RTVSPost2010PropOp48
 70
     1
102
RTVSPost2010Prop49
280
     0
102
RTVSPost2010PropOp49
 70
     1
102
RTVSPost2010Prop50
 90
       50
102
RTVSPost2010PropOp50
 70
     1
102
RTVSPost2010Prop51ColorIndex
 90
      256
102
RTVSPost2010Prop51ColorRGB
 90
-16777216
102
RTVSPost2010PropOp51
 70
     0
102
RTVSPost2010Prop52
140
1.0
102
RTVSPost2010PropOp52
 70
     0
102
RTVSPost2010Prop53
 90
        2
102
RTVSPost2010PropOp53
 70
     1
102
RTVSPost2010Prop54
  1
strokes_ogs.tif
102
RTVSPost2010PropOp54
 70
     1
102
RTVSPost2010Prop55
280
     0
102
RTVSPost2010PropOp55
 70
     1
102
RTVSPost2010Prop56
140
1.0
102
RTVSPost2010PropOp56
 70
     1
102
RTVSPost2010Prop57
140
1.0
102
RTVSPost2010PropOp57
 70
     1
  0
XRECORD
  5
693
102
{ACAD_REACTORS
330
692
102
}
330
692
100
AcDbXrecord
280
     1
102
RTVSPropertyOp0
 70
     1
102
RTVSPropertyOp1
 70
     1
102
RTVSPropertyOp2
 70
     1
102
RTVSPropertyOp3
 70
     1
102
RTVSPropertyOp4
 70
     1
102
RTVSPropertyOp5
 70
     1
102
RTVSPropertyOp6
 70
     1
102
RTVSPropertyOp7
 70
     1
102
RTVSPropertyOp8
 70
     1
102
RTVSPropertyOp9
 70
     1
102
RTVSPropertyOp10
 70
     1
102
RTVSPropertyOp11
 70
     1
102
RTVSPropertyOp12
 70
     1
102
RTVSPropertyOp13
 70
     1
102
RTVSPropertyOp14
 70
     1
102
RTVSPropertyOp15
 70
     1
102
RTVSPropertyOp16
 70
     1
102
RTVSPropertyOp17
 70
     1
102
RTVSPropertyOp18
 70
     1
102
RTVSPropertyOp19
 70
     1
102
RTVSPropertyOp20
 70
     1
102
RTVSPropertyOp21
 70
     1
102
RTVSPropertyOp22
 70
     1
102
RTVSPropertyOp23
 70
     1
102
RTVSPropertyOp24
 70
     1
102
RTVSPropertyOp25
 70
     1
102
RTVSPropertyOp26
 70
     1
102
RTVSPropertyOp27
 70
     1
102
RTVSPropertyOp28
 70
     1
102
RTVSPropertyOp29
 70
     1
102
RTVSPropertyOp30
 70
     1
102
RTVSPropertyOp31
 70
     1
102
RTVSPropertyOp32
 70
     1
102
RTVSPropertyOp33
 70
     1
102
RTVSPropertyOp34
 70
     1
102
RTVSPropertyOp35
 70
     1
102
RTVSPropertyOp36
 70
     1
102
RTVSPropertyOp37
 70
     1
102
RTVSPropertyOp38
 70
     1
102
RTVSPropertyOp39
 70
     1
102
RTVSPropertyOp40
 70
     1
102
RTVSPropertyOp41
 70
     1
102
RTVSPropertyOp42
 70
     1
102
RTVSPropertyOp43
 70
     1
102
RTVSPropertyOp44
 70
     1
102
RTVSPropertyOp45
 70
     1
102
RTVSPropertyOp46
 70
     1
102
RTVSPropertyOp47
 70
     1
102
RTVSPropertyOp48
 70
     1
102
RTVSPropertyOp49
 70
     1
102
RTVSPropertyOp50
 70
     1
102
RTVSPropertyOp51
 70
     0
102
RTVSPropertyOp52
 70
     0
102
RTVSPropertyOp53
 70
     1
102
RTVSPropertyOp54
 70
     1
102
RTVSPropertyOp55
 70
     1
102
RTVSPropertyOp56
 70
     1
102
RTVSPropertyOp57
 70
     1
102
RTVSPost2010Prop28
280
     0
102
RTVSPost2010PropOp28
 70
     1
102
RTVSPost2010Prop29
280
     1
102
RTVSPost2010PropOp29
 70
     1
102
RTVSPost2010Prop30
280
     1
102
RTVSPost2010PropOp30
 70
     1
102
RTVSPost2010Prop31
280
     0
102
RTVSPost2010PropOp31
 70
     1
102
RTVSPost2010Prop32
280
     0
102
RTVSPost2010PropOp32
 70
     1
102
RTVSPost2010Prop33
280
     0
102
RTVSPost2010PropOp33
 70
     1
102
RTVSPost2010Prop34
280
     0
102
RTVSPost2010PropOp34
 70
     1
102
RTVSPost2010Prop35
280
     0
102
RTVSPost2010PropOp35
 70
     1
102
RTVSPost2010Prop36
280
     0
102
RTVSPost2010PropOp36
 70
     1
102
RTVSPost2010Prop37
 90
       50
102
RTVSPost2010PropOp37
 70
     1
102
RTVSPost2010Prop38
140
0.0
102
RTVSPost2010PropOp38
 70
     1
102
RTVSPost2010Prop39
140
1.0
102
RTVSPost2010PropOp39
 70
     1
102
RTVSPost2010Prop40
 90
        0
102
RTVSPost2010PropOp40
 70
     1
102
RTVSPost2010Prop41ColorIndex
 90
       18
102
RTVSPost2010Prop41ColorRGB
 90
        0
102
RTVSPost2010PropOp41
 70
     1
102
RTVSPost2010Prop42
 90
       50
102
RTVSPost2010PropOp42
 70
     1
102
RTVSPost2010Prop43
 90
        3
102
RTVSPost2010PropOp43
 70
     1
102
RTVSPost2010Prop44ColorIndex
 90
        5
102
RTVSPost2010Prop44ColorRGB
 90
      255
102
RTVSPost2010PropOp44
 70
     1
102
RTVSPost2010Prop45
280
     0
102
RTVSPost2010PropOp45
 70
     1
102
RTVSPost2010Prop46
 90
       50
102
RTVSPost2010PropOp46
 70
     1
102
RTVSPost2010Prop47
 90
       50
102
RTVSPost2010PropOp47
 70
     1
102
RTVSPost2010Prop48
 90
       50
102
RTVSPost2010PropOp48
 70
     1
102
RTVSPost2010Prop49
280
     0
102
RTVSPost2010PropOp49
 70
     1
102
RTVSPost2010Prop50
 90
       50
102
RTVSPost2010PropOp50
 70
     1
102
RTVSPost2010Prop51ColorIndex
 90
      256
102
RTVSPost2010Prop51ColorRGB
 90
-16777216
102
RTVSPost2010PropOp51
 70
     0
102
RTVSPost2010Prop52
140
1.0
102
RTVSPost2010PropOp52
 70
     0
102
RTVSPost2010Prop53
 90
        2
102
RTVSPost2010PropOp53
 70
     1
102
RTVSPost2010Prop54
  1
strokes_ogs.tif
102
RTVSPost2010PropOp54
 70
     1
102
RTVSPost2010Prop55
280
     0
102
RTVSPost2010PropOp55
 70
     1
102
RTVSPost2010Prop56
140
1.0
102
RTVSPost2010PropOp56
 70
     1
102
RTVSPost2010Prop57
140
1.0
102
RTVSPost2010PropOp57
 70
     1
  0
XRECORD
  5
695
102
{ACAD_REACTORS
330
694
102
}
330
694
100
AcDbXrecord
280
     1
102
RTVSPropertyOp0
 70
     1
102
RTVSPropertyOp1
 70
     1
102
RTVSPropertyOp2
 70
     1
102
RTVSPropertyOp3
 70
     1
102
RTVSPropertyOp4
 70
     1
102
RTVSPropertyOp5
 70
     1
102
RTVSPropertyOp6
 70
     1
102
RTVSPropertyOp7
 70
     1
102
RTVSPropertyOp8
 70
     1
102
RTVSPropertyOp9
 70
     1
102
RTVSPropertyOp10
 70
     1
102
RTVSPropertyOp11
 70
     1
102
RTVSPropertyOp12
 70
     1
102
RTVSPropertyOp13
 70
     1
102
RTVSPropertyOp14
 70
     1
102
RTVSPropertyOp15
 70
     1
102
RTVSPropertyOp16
 70
     1
102
RTVSPropertyOp17
 70
     1
102
RTVSPropertyOp18
 70
     1
102
RTVSPropertyOp19
 70
     1
102
RTVSPropertyOp20
 70
     1
102
RTVSPropertyOp21
 70
     1
102
RTVSPropertyOp22
 70
     1
102
RTVSPropertyOp23
 70
     1
102
RTVSPropertyOp24
 70
     1
102
RTVSPropertyOp25
 70
     1
102
RTVSPropertyOp26
 70
     1
102
RTVSPropertyOp27
 70
     1
102
RTVSPropertyOp28
 70
     1
102
RTVSPropertyOp29
 70
     1
102
RTVSPropertyOp30
 70
     1
102
RTVSPropertyOp31
 70
     1
102
RTVSPropertyOp32
 70
     1
102
RTVSPropertyOp33
 70
     1
102
RTVSPropertyOp34
 70
     1
102
RTVSPropertyOp35
 70
     1
102
RTVSPropertyOp36
 70
     1
102
RTVSPropertyOp37
 70
     1
102
RTVSPropertyOp38
 70
     1
102
RTVSPropertyOp39
 70
     1
102
RTVSPropertyOp40
 70
     1
102
RTVSPropertyOp41
 70
     1
102
RTVSPropertyOp42
 70
     1
102
RTVSPropertyOp43
 70
     1
102
RTVSPropertyOp44
 70
     1
102
RTVSPropertyOp45
 70
     1
102
RTVSPropertyOp46
 70
     1
102
RTVSPropertyOp47
 70
     1
102
RTVSPropertyOp48
 70
     1
102
RTVSPropertyOp49
 70
     1
102
RTVSPropertyOp50
 70
     1
102
RTVSPropertyOp51
 70
     0
102
RTVSPropertyOp52
 70
     0
102
RTVSPropertyOp53
 70
     1
102
RTVSPropertyOp54
 70
     1
102
RTVSPropertyOp55
 70
     1
102
RTVSPropertyOp56
 70
     1
102
RTVSPropertyOp57
 70
     1
102
RTVSPost2010Prop28
280
     0
102
RTVSPost2010PropOp28
 70
     1
102
RTVSPost2010Prop29
280
     1
102
RTVSPost2010PropOp29
 70
     1
102
RTVSPost2010Prop30
280
     1
102
RTVSPost2010PropOp30
 70
     1
102
RTVSPost2010Prop31
280
     0
102
RTVSPost2010PropOp31
 70
     1
102
RTVSPost2010Prop32
280
     0
102
RTVSPost2010PropOp32
 70
     1
102
RTVSPost2010Prop33
280
     0
102
RTVSPost2010PropOp33
 70
     1
102
RTVSPost2010Prop34
280
     0
102
RTVSPost2010PropOp34
 70
     1
102
RTVSPost2010Prop35
280
     0
102
RTVSPost2010PropOp35
 70
     1
102
RTVSPost2010Prop36
280
     0
102
RTVSPost2010PropOp36
 70
     1
102
RTVSPost2010Prop37
 90
       50
102
RTVSPost2010PropOp37
 70
     1
102
RTVSPost2010Prop38
140
0.0
102
RTVSPost2010PropOp38
 70
     1
102
RTVSPost2010Prop39
140
1.0
102
RTVSPost2010PropOp39
 70
     1
102
RTVSPost2010Prop40
 90
        0
102
RTVSPost2010PropOp40
 70
     1
102
RTVSPost2010Prop41ColorIndex
 90
       18
102
RTVSPost2010Prop41ColorRGB
 90
        0
102
RTVSPost2010PropOp41
 70
     1
102
RTVSPost2010Prop42
 90
       50
102
RTVSPost2010PropOp42
 70
     1
102
RTVSPost2010Prop43
 90
        3
102
RTVSPost2010PropOp43
 70
     1
102
RTVSPost2010Prop44ColorIndex
 90
        5
102
RTVSPost2010Prop44ColorRGB
 90
      255
102
RTVSPost2010PropOp44
 70
     1
102
RTVSPost2010Prop45
280
     0
102
RTVSPost2010PropOp45
 70
     1
102
RTVSPost2010Prop46
 90
       50
102
RTVSPost2010PropOp46
 70
     1
102
RTVSPost2010Prop47
 90
       50
102
RTVSPost2010PropOp47
 70
     1
102
RTVSPost2010Prop48
 90
       50
102
RTVSPost2010PropOp48
 70
     1
102
RTVSPost2010Prop49
280
     0
102
RTVSPost2010PropOp49
 70
     1
102
RTVSPost2010Prop50
 90
       50
102
RTVSPost2010PropOp50
 70
     1
102
RTVSPost2010Prop51ColorIndex
 90
      256
102
RTVSPost2010Prop51ColorRGB
 90
-16777216
102
RTVSPost2010PropOp51
 70
     0
102
RTVSPost2010Prop52
140
1.0
102
RTVSPost2010PropOp52
 70
     0
102
RTVSPost2010Prop53
 90
        2
102
RTVSPost2010PropOp53
 70
     1
102
RTVSPost2010Prop54
  1
strokes_ogs.tif
102
RTVSPost2010PropOp54
 70
     1
102
RTVSPost2010Prop55
280
     0
102
RTVSPost2010PropOp55
 70
     1
102
RTVSPost2010Prop56
140
1.0
102
RTVSPost2010PropOp56
 70
     1
102
RTVSPost2010Prop57
140
1.0
102
RTVSPost2010PropOp57
 70
     1
  0
XRECORD
  5
697
102
{ACAD_REACTORS
330
696
102
}
330
696
100
AcDbXrecord
280
     1
102
RTVSPropertyOp0
 70
     1
102
RTVSPropertyOp1
 70
     1
102
RTVSPropertyOp2
 70
     1
102
RTVSPropertyOp3
 70
     1
102
RTVSPropertyOp4
 70
     1
102
RTVSPropertyOp5
 70
     1
102
RTVSPropertyOp6
 70
     1
102
RTVSPropertyOp7
 70
     1
102
RTVSPropertyOp8
 70
     1
102
RTVSPropertyOp9
 70
     1
102
RTVSPropertyOp10
 70
     1
102
RTVSPropertyOp11
 70
     1
102
RTVSPropertyOp12
 70
     1
102
RTVSPropertyOp13
 70
     1
102
RTVSPropertyOp14
 70
     1
102
RTVSPropertyOp15
 70
     1
102
RTVSPropertyOp16
 70
     1
102
RTVSPropertyOp17
 70
     1
102
RTVSPropertyOp18
 70
     1
102
RTVSPropertyOp19
 70
     1
102
RTVSPropertyOp20
 70
     1
102
RTVSPropertyOp21
 70
     1
102
RTVSPropertyOp22
 70
     1
102
RTVSPropertyOp23
 70
     1
102
RTVSPropertyOp24
 70
     1
102
RTVSPropertyOp25
 70
     1
102
RTVSPropertyOp26
 70
     1
102
RTVSPropertyOp27
 70
     1
102
RTVSPropertyOp28
 70
     1
102
RTVSPropertyOp29
 70
     1
102
RTVSPropertyOp30
 70
     1
102
RTVSPropertyOp31
 70
     1
102
RTVSPropertyOp32
 70
     1
102
RTVSPropertyOp33
 70
     1
102
RTVSPropertyOp34
 70
     1
102
RTVSPropertyOp35
 70
     1
102
RTVSPropertyOp36
 70
     1
102
RTVSPropertyOp37
 70
     1
102
RTVSPropertyOp38
 70
     1
102
RTVSPropertyOp39
 70
     1
102
RTVSPropertyOp40
 70
     1
102
RTVSPropertyOp41
 70
     1
102
RTVSPropertyOp42
 70
     1
102
RTVSPropertyOp43
 70
     1
102
RTVSPropertyOp44
 70
     1
102
RTVSPropertyOp45
 70
     1
102
RTVSPropertyOp46
 70
     1
102
RTVSPropertyOp47
 70
     1
102
RTVSPropertyOp48
 70
     1
102
RTVSPropertyOp49
 70
     1
102
RTVSPropertyOp50
 70
     1
102
RTVSPropertyOp51
 70
     0
102
RTVSPropertyOp52
 70
     0
102
RTVSPropertyOp53
 70
     1
102
RTVSPropertyOp54
 70
     1
102
RTVSPropertyOp55
 70
     1
102
RTVSPropertyOp56
 70
     1
102
RTVSPropertyOp57
 70
     1
102
RTVSPost2010Prop28
280
     0
102
RTVSPost2010PropOp28
 70
     1
102
RTVSPost2010Prop29
280
     1
102
RTVSPost2010PropOp29
 70
     1
102
RTVSPost2010Prop30
280
     1
102
RTVSPost2010PropOp30
 70
     1
102
RTVSPost2010Prop31
280
     0
102
RTVSPost2010PropOp31
 70
     1
102
RTVSPost2010Prop32
280
     0
102
RTVSPost2010PropOp32
 70
     1
102
RTVSPost2010Prop33
280
     0
102
RTVSPost2010PropOp33
 70
     1
102
RTVSPost2010Prop34
280
     0
102
RTVSPost2010PropOp34
 70
     1
102
RTVSPost2010Prop35
280
     0
102
RTVSPost2010PropOp35
 70
     1
102
RTVSPost2010Prop36
280
     0
102
RTVSPost2010PropOp36
 70
     1
102
RTVSPost2010Prop37
 90
       50
102
RTVSPost2010PropOp37
 70
     1
102
RTVSPost2010Prop38
140
0.0
102
RTVSPost2010PropOp38
 70
     1
102
RTVSPost2010Prop39
140
1.0
102
RTVSPost2010PropOp39
 70
     1
102
RTVSPost2010Prop40
 90
        0
102
RTVSPost2010PropOp40
 70
     1
102
RTVSPost2010Prop41ColorIndex
 90
       18
102
RTVSPost2010Prop41ColorRGB
 90
        0
102
RTVSPost2010PropOp41
 70
     1
102
RTVSPost2010Prop42
 90
       50
102
RTVSPost2010PropOp42
 70
     1
102
RTVSPost2010Prop43
 90
        3
102
RTVSPost2010PropOp43
 70
     1
102
RTVSPost2010Prop44ColorIndex
 90
        5
102
RTVSPost2010Prop44ColorRGB
 90
      255
102
RTVSPost2010PropOp44
 70
     1
102
RTVSPost2010Prop45
280
     0
102
RTVSPost2010PropOp45
 70
     1
102
RTVSPost2010Prop46
 90
       50
102
RTVSPost2010PropOp46
 70
     1
102
RTVSPost2010Prop47
 90
       50
102
RTVSPost2010PropOp47
 70
     1
102
RTVSPost2010Prop48
 90
       50
102
RTVSPost2010PropOp48
 70
     1
102
RTVSPost2010Prop49
280
     0
102
RTVSPost2010PropOp49
 70
     1
102
RTVSPost2010Prop50
 90
       50
102
RTVSPost2010PropOp50
 70
     1
102
RTVSPost2010Prop51ColorIndex
 90
      256
102
RTVSPost2010Prop51ColorRGB
 90
-16777216
102
RTVSPost2010PropOp51
 70
     0
102
RTVSPost2010Prop52
140
1.0
102
RTVSPost2010PropOp52
 70
     0
102
RTVSPost2010Prop53
 90
        2
102
RTVSPost2010PropOp53
 70
     1
102
RTVSPost2010Prop54
  1
strokes_ogs.tif
102
RTVSPost2010PropOp54
 70
     1
102
RTVSPost2010Prop55
280
     0
102
RTVSPost2010PropOp55
 70
     1
102
RTVSPost2010Prop56
140
1.0
102
RTVSPost2010PropOp56
 70
     1
102
RTVSPost2010Prop57
140
1.0
102
RTVSPost2010PropOp57
 70
     1
  0
XRECORD
  5
69D
102
{ACAD_REACTORS
330
69C
102
}
330
69C
100
AcDbXrecord
280
     1
102
RTVSPropertyOp0
 70
     1
102
RTVSPropertyOp1
 70
     1
102
RTVSPropertyOp2
 70
     1
102
RTVSPropertyOp3
 70
     1
102
RTVSPropertyOp4
 70
     1
102
RTVSPropertyOp5
 70
     1
102
RTVSPropertyOp6
 70
     1
102
RTVSPropertyOp7
 70
     1
102
RTVSPropertyOp8
 70
     1
102
RTVSPropertyOp9
 70
     1
102
RTVSPropertyOp10
 70
     1
102
RTVSPropertyOp11
 70
     1
102
RTVSPropertyOp12
 70
     1
102
RTVSPropertyOp13
 70
     1
102
RTVSPropertyOp14
 70
     1
102
RTVSPropertyOp15
 70
     1
102
RTVSPropertyOp16
 70
     1
102
RTVSPropertyOp17
 70
     1
102
RTVSPropertyOp18
 70
     1
102
RTVSPropertyOp19
 70
     1
102
RTVSPropertyOp20
 70
     1
102
RTVSPropertyOp21
 70
     1
102
RTVSPropertyOp22
 70
     1
102
RTVSPropertyOp23
 70
     1
102
RTVSPropertyOp24
 70
     1
102
RTVSPropertyOp25
 70
     1
102
RTVSPropertyOp26
 70
     1
102
RTVSPropertyOp27
 70
     1
102
RTVSPropertyOp28
 70
     1
102
RTVSPropertyOp29
 70
     1
102
RTVSPropertyOp30
 70
     1
102
RTVSPropertyOp31
 70
     1
102
RTVSPropertyOp32
 70
     1
102
RTVSPropertyOp33
 70
     1
102
RTVSPropertyOp34
 70
     1
102
RTVSPropertyOp35
 70
     1
102
RTVSPropertyOp36
 70
     1
102
RTVSPropertyOp37
 70
     1
102
RTVSPropertyOp38
 70
     1
102
RTVSPropertyOp39
 70
     1
102
RTVSPropertyOp40
 70
     1
102
RTVSPropertyOp41
 70
     1
102
RTVSPropertyOp42
 70
     1
102
RTVSPropertyOp43
 70
     1
102
RTVSPropertyOp44
 70
     1
102
RTVSPropertyOp45
 70
     1
102
RTVSPropertyOp46
 70
     1
102
RTVSPropertyOp47
 70
     1
102
RTVSPropertyOp48
 70
     1
102
RTVSPropertyOp49
 70
     1
102
RTVSPropertyOp50
 70
     1
102
RTVSPropertyOp51
 70
     0
102
RTVSPropertyOp52
 70
     0
102
RTVSPropertyOp53
 70
     1
102
RTVSPropertyOp54
 70
     1
102
RTVSPropertyOp55
 70
     1
102
RTVSPropertyOp56
 70
     1
102
RTVSPropertyOp57
 70
     1
102
RTVSPost2010Prop28
280
     0
102
RTVSPost2010PropOp28
 70
     1
102
RTVSPost2010Prop29
280
     1
102
RTVSPost2010PropOp29
 70
     1
102
RTVSPost2010Prop30
280
     1
102
RTVSPost2010PropOp30
 70
     1
102
RTVSPost2010Prop31
280
     0
102
RTVSPost2010PropOp31
 70
     1
102
RTVSPost2010Prop32
280
     0
102
RTVSPost2010PropOp32
 70
     1
102
RTVSPost2010Prop33
280
     0
102
RTVSPost2010PropOp33
 70
     1
102
RTVSPost2010Prop34
280
     0
102
RTVSPost2010PropOp34
 70
     1
102
RTVSPost2010Prop35
280
     0
102
RTVSPost2010PropOp35
 70
     1
102
RTVSPost2010Prop36
280
     0
102
RTVSPost2010PropOp36
 70
     1
102
RTVSPost2010Prop37
 90
       50
102
RTVSPost2010PropOp37
 70
     1
102
RTVSPost2010Prop38
140
0.0
102
RTVSPost2010PropOp38
 70
     1
102
RTVSPost2010Prop39
140
1.0
102
RTVSPost2010PropOp39
 70
     1
102
RTVSPost2010Prop40
 90
        0
102
RTVSPost2010PropOp40
 70
     1
102
RTVSPost2010Prop41ColorIndex
 90
       18
102
RTVSPost2010Prop41ColorRGB
 90
        0
102
RTVSPost2010PropOp41
 70
     1
102
RTVSPost2010Prop42
 90
       50
102
RTVSPost2010PropOp42
 70
     1
102
RTVSPost2010Prop43
 90
        3
102
RTVSPost2010PropOp43
 70
     1
102
RTVSPost2010Prop44ColorIndex
 90
        5
102
RTVSPost2010Prop44ColorRGB
 90
      255
102
RTVSPost2010PropOp44
 70
     1
102
RTVSPost2010Prop45
280
     0
102
RTVSPost2010PropOp45
 70
     1
102
RTVSPost2010Prop46
 90
       50
102
RTVSPost2010PropOp46
 70
     1
102
RTVSPost2010Prop47
 90
       50
102
RTVSPost2010PropOp47
 70
     1
102
RTVSPost2010Prop48
 90
       50
102
RTVSPost2010PropOp48
 70
     1
102
RTVSPost2010Prop49
280
     0
102
RTVSPost2010PropOp49
 70
     1
102
RTVSPost2010Prop50
 90
       50
102
RTVSPost2010PropOp50
 70
     1
102
RTVSPost2010Prop51ColorIndex
 90
      256
102
RTVSPost2010Prop51ColorRGB
 90
-16777216
102
RTVSPost2010PropOp51
 70
     0
102
RTVSPost2010Prop52
140
1.0
102
RTVSPost2010PropOp52
 70
     0
102
RTVSPost2010Prop53
 90
        2
102
RTVSPost2010PropOp53
 70
     1
102
RTVSPost2010Prop54
  1
strokes_ogs.tif
102
RTVSPost2010PropOp54
 70
     1
102
RTVSPost2010Prop55
280
     0
102
RTVSPost2010PropOp55
 70
     1
102
RTVSPost2010Prop56
140
1.0
102
RTVSPost2010PropOp56
 70
     1
102
RTVSPost2010Prop57
140
1.0
102
RTVSPost2010PropOp57
 70
     1
  0
XRECORD
  5
6B1
102
{ACAD_REACTORS
330
6B0
102
}
330
6B0
100
AcDbXrecord
280
     1
102
RTVSPropertyOp0
 70
     0
102
RTVSPropertyOp1
 70
     0
102
RTVSPropertyOp2
 70
     0
102
RTVSPropertyOp3
 70
     0
102
RTVSPropertyOp4
 70
     0
102
RTVSPropertyOp5
 70
     0
102
RTVSPropertyOp6
 70
     0
102
RTVSPropertyOp7
 70
     0
102
RTVSPropertyOp8
 70
     0
102
RTVSPropertyOp9
 70
     0
102
RTVSPropertyOp10
 70
     0
102
RTVSPropertyOp11
 70
     0
102
RTVSPropertyOp12
 70
     0
102
RTVSPropertyOp13
 70
     0
102
RTVSPropertyOp14
 70
     0
102
RTVSPropertyOp15
 70
     0
102
RTVSPropertyOp16
 70
     0
102
RTVSPropertyOp17
 70
     0
102
RTVSPropertyOp18
 70
     0
102
RTVSPropertyOp19
 70
     0
102
RTVSPropertyOp20
 70
     0
102
RTVSPropertyOp21
 70
     0
102
RTVSPropertyOp22
 70
     0
102
RTVSPropertyOp23
 70
     0
102
RTVSPropertyOp24
 70
     0
102
RTVSPropertyOp25
 70
     0
102
RTVSPropertyOp26
 70
     0
102
RTVSPropertyOp27
 70
     0
102
RTVSPropertyOp28
 70
     1
102
RTVSPropertyOp29
 70
     1
102
RTVSPropertyOp30
 70
     1
102
RTVSPropertyOp31
 70
     1
102
RTVSPropertyOp32
 70
     1
102
RTVSPropertyOp33
 70
     1
102
RTVSPropertyOp34
 70
     1
102
RTVSPropertyOp35
 70
     1
102
RTVSPropertyOp36
 70
     1
102
RTVSPropertyOp37
 70
     1
102
RTVSPropertyOp38
 70
     1
102
RTVSPropertyOp39
 70
     1
102
RTVSPropertyOp40
 70
     1
102
RTVSPropertyOp41
 70
     1
102
RTVSPropertyOp42
 70
     1
102
RTVSPropertyOp43
 70
     1
102
RTVSPropertyOp44
 70
     1
102
RTVSPropertyOp45
 70
     1
102
RTVSPropertyOp46
 70
     1
102
RTVSPropertyOp47
 70
     1
102
RTVSPropertyOp48
 70
     1
102
RTVSPropertyOp49
 70
     1
102
RTVSPropertyOp50
 70
     1
102
RTVSPropertyOp51
 70
     0
102
RTVSPropertyOp52
 70
     0
102
RTVSPropertyOp53
 70
     1
102
RTVSPropertyOp54
 70
     1
102
RTVSPropertyOp55
 70
     1
102
RTVSPropertyOp56
 70
     1
102
RTVSPropertyOp57
 70
     1
102
RTVSPost2010Prop28
280
     0
102
RTVSPost2010PropOp28
 70
     1
102
RTVSPost2010Prop29
280
     1
102
RTVSPost2010PropOp29
 70
     1
102
RTVSPost2010Prop30
280
     1
102
RTVSPost2010PropOp30
 70
     1
102
RTVSPost2010Prop31
280
     0
102
RTVSPost2010PropOp31
 70
     1
102
RTVSPost2010Prop32
280
     0
102
RTVSPost2010PropOp32
 70
     1
102
RTVSPost2010Prop33
280
     0
102
RTVSPost2010PropOp33
 70
     1
102
RTVSPost2010Prop34
280
     0
102
RTVSPost2010PropOp34
 70
     1
102
RTVSPost2010Prop35
280
     0
102
RTVSPost2010PropOp35
 70
     1
102
RTVSPost2010Prop36
280
     0
102
RTVSPost2010PropOp36
 70
     1
102
RTVSPost2010Prop37
 90
       50
102
RTVSPost2010PropOp37
 70
     1
102
RTVSPost2010Prop38
140
0.0
102
RTVSPost2010PropOp38
 70
     1
102
RTVSPost2010Prop39
140
1.0
102
RTVSPost2010PropOp39
 70
     1
102
RTVSPost2010Prop40
 90
        0
102
RTVSPost2010PropOp40
 70
     1
102
RTVSPost2010Prop41ColorIndex
 90
       18
102
RTVSPost2010Prop41ColorRGB
 90
        0
102
RTVSPost2010PropOp41
 70
     1
102
RTVSPost2010Prop42
 90
       50
102
RTVSPost2010PropOp42
 70
     1
102
RTVSPost2010Prop43
 90
        3
102
RTVSPost2010PropOp43
 70
     1
102
RTVSPost2010Prop44ColorIndex
 90
        5
102
RTVSPost2010Prop44ColorRGB
 90
      255
102
RTVSPost2010PropOp44
 70
     1
102
RTVSPost2010Prop45
280
     0
102
RTVSPost2010PropOp45
 70
     1
102
RTVSPost2010Prop46
 90
       50
102
RTVSPost2010PropOp46
 70
     1
102
RTVSPost2010Prop47
 90
       50
102
RTVSPost2010PropOp47
 70
     1
102
RTVSPost2010Prop48
 90
       50
102
RTVSPost2010PropOp48
 70
     1
102
RTVSPost2010Prop49
280
     0
102
RTVSPost2010PropOp49
 70
     1
102
RTVSPost2010Prop50
 90
       50
102
RTVSPost2010PropOp50
 70
     1
102
RTVSPost2010Prop51ColorIndex
 90
      256
102
RTVSPost2010Prop51ColorRGB
 90
-16777216
102
RTVSPost2010PropOp51
 70
     0
102
RTVSPost2010Prop52
140
1.0
102
RTVSPost2010PropOp52
 70
     0
102
RTVSPost2010Prop53
 90
        2
102
RTVSPost2010PropOp53
 70
     1
102
RTVSPost2010Prop54
  1
strokes_ogs.tif
102
RTVSPost2010PropOp54
 70
     1
102
RTVSPost2010Prop55
280
     0
102
RTVSPost2010PropOp55
 70
     1
102
RTVSPost2010Prop56
140
1.0
102
RTVSPost2010PropOp56
 70
     1
102
RTVSPost2010Prop57
140
1.0
102
RTVSPost2010PropOp57
 70
     1
  0
XRECORD
  5
6AB
102
{ACAD_REACTORS
330
6AA
102
}
330
6AA
100
AcDbXrecord
280
     1
102
RTVSPropertyOp0
 70
     1
102
RTVSPropertyOp1
 70
     1
102
RTVSPropertyOp2
 70
     1
102
RTVSPropertyOp3
 70
     1
102
RTVSPropertyOp4
 70
     1
102
RTVSPropertyOp5
 70
     1
102
RTVSPropertyOp6
 70
     1
102
RTVSPropertyOp7
 70
     1
102
RTVSPropertyOp8
 70
     1
102
RTVSPropertyOp9
 70
     1
102
RTVSPropertyOp10
 70
     1
102
RTVSPropertyOp11
 70
     1
102
RTVSPropertyOp12
 70
     1
102
RTVSPropertyOp13
 70
     1
102
RTVSPropertyOp14
 70
     1
102
RTVSPropertyOp15
 70
     1
102
RTVSPropertyOp16
 70
     1
102
RTVSPropertyOp17
 70
     1
102
RTVSPropertyOp18
 70
     1
102
RTVSPropertyOp19
 70
     1
102
RTVSPropertyOp20
 70
     1
102
RTVSPropertyOp21
 70
     1
102
RTVSPropertyOp22
 70
     1
102
RTVSPropertyOp23
 70
     1
102
RTVSPropertyOp24
 70
     1
102
RTVSPropertyOp25
 70
     1
102
RTVSPropertyOp26
 70
     1
102
RTVSPropertyOp27
 70
     1
102
RTVSPropertyOp28
 70
     1
102
RTVSPropertyOp29
 70
     1
102
RTVSPropertyOp30
 70
     1
102
RTVSPropertyOp31
 70
     1
102
RTVSPropertyOp32
 70
     1
102
RTVSPropertyOp33
 70
     1
102
RTVSPropertyOp34
 70
     1
102
RTVSPropertyOp35
 70
     1
102
RTVSPropertyOp36
 70
     1
102
RTVSPropertyOp37
 70
     1
102
RTVSPropertyOp38
 70
     1
102
RTVSPropertyOp39
 70
     1
102
RTVSPropertyOp40
 70
     1
102
RTVSPropertyOp41
 70
     1
102
RTVSPropertyOp42
 70
     1
102
RTVSPropertyOp43
 70
     1
102
RTVSPropertyOp44
 70
     1
102
RTVSPropertyOp45
 70
     1
102
RTVSPropertyOp46
 70
     1
102
RTVSPropertyOp47
 70
     1
102
RTVSPropertyOp48
 70
     1
102
RTVSPropertyOp49
 70
     1
102
RTVSPropertyOp50
 70
     1
102
RTVSPropertyOp51
 70
     0
102
RTVSPropertyOp52
 70
     0
102
RTVSPropertyOp53
 70
     1
102
RTVSPropertyOp54
 70
     1
102
RTVSPropertyOp55
 70
     1
102
RTVSPropertyOp56
 70
     1
102
RTVSPropertyOp57
 70
     1
102
RTVSPost2010Prop28
280
     0
102
RTVSPost2010PropOp28
 70
     1
102
RTVSPost2010Prop29
280
     1
102
RTVSPost2010PropOp29
 70
     1
102
RTVSPost2010Prop30
280
     1
102
RTVSPost2010PropOp30
 70
     1
102
RTVSPost2010Prop31
280
     0
102
RTVSPost2010PropOp31
 70
     1
102
RTVSPost2010Prop32
280
     0
102
RTVSPost2010PropOp32
 70
     1
102
RTVSPost2010Prop33
280
     0
102
RTVSPost2010PropOp33
 70
     1
102
RTVSPost2010Prop34
280
     0
102
RTVSPost2010PropOp34
 70
     1
102
RTVSPost2010Prop35
280
     0
102
RTVSPost2010PropOp35
 70
     1
102
RTVSPost2010Prop36
280
     0
102
RTVSPost2010PropOp36
 70
     1
102
RTVSPost2010Prop37
 90
       50
102
RTVSPost2010PropOp37
 70
     1
102
RTVSPost2010Prop38
140
0.0
102
RTVSPost2010PropOp38
 70
     1
102
RTVSPost2010Prop39
140
1.0
102
RTVSPost2010PropOp39
 70
     1
102
RTVSPost2010Prop40
 90
        0
102
RTVSPost2010PropOp40
 70
     1
102
RTVSPost2010Prop41ColorIndex
 90
       18
102
RTVSPost2010Prop41ColorRGB
 90
        0
102
RTVSPost2010PropOp41
 70
     1
102
RTVSPost2010Prop42
 90
       50
102
RTVSPost2010PropOp42
 70
     1
102
RTVSPost2010Prop43
 90
        3
102
RTVSPost2010PropOp43
 70
     1
102
RTVSPost2010Prop44ColorIndex
 90
        5
102
RTVSPost2010Prop44ColorRGB
 90
      255
102
RTVSPost2010PropOp44
 70
     1
102
RTVSPost2010Prop45
280
     0
102
RTVSPost2010PropOp45
 70
     1
102
RTVSPost2010Prop46
 90
       50
102
RTVSPost2010PropOp46
 70
     1
102
RTVSPost2010Prop47
 90
       50
102
RTVSPost2010PropOp47
 70
     1
102
RTVSPost2010Prop48
 90
       50
102
RTVSPost2010PropOp48
 70
     1
102
RTVSPost2010Prop49
280
     0
102
RTVSPost2010PropOp49
 70
     1
102
RTVSPost2010Prop50
 90
       50
102
RTVSPost2010PropOp50
 70
     1
102
RTVSPost2010Prop51ColorIndex
 90
      256
102
RTVSPost2010Prop51ColorRGB
 90
-16777216
102
RTVSPost2010PropOp51
 70
     0
102
RTVSPost2010Prop52
140
1.0
102
RTVSPost2010PropOp52
 70
     0
102
RTVSPost2010Prop53
 90
        2
102
RTVSPost2010PropOp53
 70
     1
102
RTVSPost2010Prop54
  1
strokes_ogs.tif
102
RTVSPost2010PropOp54
 70
     1
102
RTVSPost2010Prop55
280
     0
102
RTVSPost2010PropOp55
 70
     1
102
RTVSPost2010Prop56
140
1.0
102
RTVSPost2010PropOp56
 70
     1
102
RTVSPost2010Prop57
140
1.0
102
RTVSPost2010PropOp57
 70
     1
  0
XRECORD
  5
6B3
102
{ACAD_REACTORS
330
6B2
102
}
330
6B2
100
AcDbXrecord
280
     1
102
RTVSPropertyOp0
 70
     0
102
RTVSPropertyOp1
 70
     0
102
RTVSPropertyOp2
 70
     0
102
RTVSPropertyOp3
 70
     0
102
RTVSPropertyOp4
 70
     0
102
RTVSPropertyOp5
 70
     0
102
RTVSPropertyOp6
 70
     0
102
RTVSPropertyOp7
 70
     0
102
RTVSPropertyOp8
 70
     0
102
RTVSPropertyOp9
 70
     0
102
RTVSPropertyOp10
 70
     0
102
RTVSPropertyOp11
 70
     0
102
RTVSPropertyOp12
 70
     0
102
RTVSPropertyOp13
 70
     0
102
RTVSPropertyOp14
 70
     0
102
RTVSPropertyOp15
 70
     0
102
RTVSPropertyOp16
 70
     0
102
RTVSPropertyOp17
 70
     0
102
RTVSPropertyOp18
 70
     0
102
RTVSPropertyOp19
 70
     0
102
RTVSPropertyOp20
 70
     0
102
RTVSPropertyOp21
 70
     0
102
RTVSPropertyOp22
 70
     0
102
RTVSPropertyOp23
 70
     0
102
RTVSPropertyOp24
 70
     0
102
RTVSPropertyOp25
 70
     0
102
RTVSPropertyOp26
 70
     0
102
RTVSPropertyOp27
 70
     0
102
RTVSPropertyOp28
 70
     1
102
RTVSPropertyOp29
 70
     1
102
RTVSPropertyOp30
 70
     1
102
RTVSPropertyOp31
 70
     1
102
RTVSPropertyOp32
 70
     1
102
RTVSPropertyOp33
 70
     1
102
RTVSPropertyOp34
 70
     1
102
RTVSPropertyOp35
 70
     1
102
RTVSPropertyOp36
 70
     1
102
RTVSPropertyOp37
 70
     1
102
RTVSPropertyOp38
 70
     1
102
RTVSPropertyOp39
 70
     1
102
RTVSPropertyOp40
 70
     1
102
RTVSPropertyOp41
 70
     1
102
RTVSPropertyOp42
 70
     1
102
RTVSPropertyOp43
 70
     1
102
RTVSPropertyOp44
 70
     1
102
RTVSPropertyOp45
 70
     1
102
RTVSPropertyOp46
 70
     1
102
RTVSPropertyOp47
 70
     1
102
RTVSPropertyOp48
 70
     1
102
RTVSPropertyOp49
 70
     1
102
RTVSPropertyOp50
 70
     1
102
RTVSPropertyOp51
 70
     0
102
RTVSPropertyOp52
 70
     0
102
RTVSPropertyOp53
 70
     1
102
RTVSPropertyOp54
 70
     1
102
RTVSPropertyOp55
 70
     1
102
RTVSPropertyOp56
 70
     1
102
RTVSPropertyOp57
 70
     1
102
RTVSPost2010Prop28
280
     0
102
RTVSPost2010PropOp28
 70
     1
102
RTVSPost2010Prop29
280
     1
102
RTVSPost2010PropOp29
 70
     1
102
RTVSPost2010Prop30
280
     1
102
RTVSPost2010PropOp30
 70
     1
102
RTVSPost2010Prop31
280
     0
102
RTVSPost2010PropOp31
 70
     1
102
RTVSPost2010Prop32
280
     0
102
RTVSPost2010PropOp32
 70
     1
102
RTVSPost2010Prop33
280
     0
102
RTVSPost2010PropOp33
 70
     1
102
RTVSPost2010Prop34
280
     0
102
RTVSPost2010PropOp34
 70
     1
102
RTVSPost2010Prop35
280
     0
102
RTVSPost2010PropOp35
 70
     1
102
RTVSPost2010Prop36
280
     0
102
RTVSPost2010PropOp36
 70
     1
102
RTVSPost2010Prop37
 90
       50
102
RTVSPost2010PropOp37
 70
     1
102
RTVSPost2010Prop38
140
0.0
102
RTVSPost2010PropOp38
 70
     1
102
RTVSPost2010Prop39
140
1.0
102
RTVSPost2010PropOp39
 70
     1
102
RTVSPost2010Prop40
 90
        0
102
RTVSPost2010PropOp40
 70
     1
102
RTVSPost2010Prop41ColorIndex
 90
       18
102
RTVSPost2010Prop41ColorRGB
 90
        0
102
RTVSPost2010PropOp41
 70
     1
102
RTVSPost2010Prop42
 90
       50
102
RTVSPost2010PropOp42
 70
     1
102
RTVSPost2010Prop43
 90
        3
102
RTVSPost2010PropOp43
 70
     1
102
RTVSPost2010Prop44ColorIndex
 90
        5
102
RTVSPost2010Prop44ColorRGB
 90
      255
102
RTVSPost2010PropOp44
 70
     1
102
RTVSPost2010Prop45
280
     0
102
RTVSPost2010PropOp45
 70
     1
102
RTVSPost2010Prop46
 90
       50
102
RTVSPost2010PropOp46
 70
     1
102
RTVSPost2010Prop47
 90
       50
102
RTVSPost2010PropOp47
 70
     1
102
RTVSPost2010Prop48
 90
       50
102
RTVSPost2010PropOp48
 70
     1
102
RTVSPost2010Prop49
280
     0
102
RTVSPost2010PropOp49
 70
     1
102
RTVSPost2010Prop50
 90
       50
102
RTVSPost2010PropOp50
 70
     1
102
RTVSPost2010Prop51ColorIndex
 90
      256
102
RTVSPost2010Prop51ColorRGB
 90
-16777216
102
RTVSPost2010PropOp51
 70
     0
102
RTVSPost2010Prop52
140
1.0
102
RTVSPost2010PropOp52
 70
     0
102
RTVSPost2010Prop53
 90
        2
102
RTVSPost2010PropOp53
 70
     1
102
RTVSPost2010Prop54
  1
strokes_ogs.tif
102
RTVSPost2010PropOp54
 70
     1
102
RTVSPost2010Prop55
280
     0
102
RTVSPost2010PropOp55
 70
     1
102
RTVSPost2010Prop56
140
1.0
102
RTVSPost2010PropOp56
 70
     1
102
RTVSPost2010Prop57
140
1.0
102
RTVSPost2010PropOp57
 70
     1
  0
XRECORD
  5
6A1
102
{ACAD_REACTORS
330
6A0
102
}
330
6A0
100
AcDbXrecord
280
     1
102
RTVSPropertyOp0
 70
     1
102
RTVSPropertyOp1
 70
     1
102
RTVSPropertyOp2
 70
     1
102
RTVSPropertyOp3
 70
     1
102
RTVSPropertyOp4
 70
     1
102
RTVSPropertyOp5
 70
     1
102
RTVSPropertyOp6
 70
     1
102
RTVSPropertyOp7
 70
     1
102
RTVSPropertyOp8
 70
     1
102
RTVSPropertyOp9
 70
     1
102
RTVSPropertyOp10
 70
     1
102
RTVSPropertyOp11
 70
     1
102
RTVSPropertyOp12
 70
     1
102
RTVSPropertyOp13
 70
     1
102
RTVSPropertyOp14
 70
     1
102
RTVSPropertyOp15
 70
     1
102
RTVSPropertyOp16
 70
     1
102
RTVSPropertyOp17
 70
     1
102
RTVSPropertyOp18
 70
     1
102
RTVSPropertyOp19
 70
     1
102
RTVSPropertyOp20
 70
     1
102
RTVSPropertyOp21
 70
     1
102
RTVSPropertyOp22
 70
     1
102
RTVSPropertyOp23
 70
     1
102
RTVSPropertyOp24
 70
     1
102
RTVSPropertyOp25
 70
     1
102
RTVSPropertyOp26
 70
     1
102
RTVSPropertyOp27
 70
     1
102
RTVSPropertyOp28
 70
     1
102
RTVSPropertyOp29
 70
     1
102
RTVSPropertyOp30
 70
     1
102
RTVSPropertyOp31
 70
     1
102
RTVSPropertyOp32
 70
     1
102
RTVSPropertyOp33
 70
     1
102
RTVSPropertyOp34
 70
     1
102
RTVSPropertyOp35
 70
     1
102
RTVSPropertyOp36
 70
     1
102
RTVSPropertyOp37
 70
     1
102
RTVSPropertyOp38
 70
     1
102
RTVSPropertyOp39
 70
     1
102
RTVSPropertyOp40
 70
     1
102
RTVSPropertyOp41
 70
     1
102
RTVSPropertyOp42
 70
     1
102
RTVSPropertyOp43
 70
     1
102
RTVSPropertyOp44
 70
     1
102
RTVSPropertyOp45
 70
     1
102
RTVSPropertyOp46
 70
     1
102
RTVSPropertyOp47
 70
     1
102
RTVSPropertyOp48
 70
     1
102
RTVSPropertyOp49
 70
     1
102
RTVSPropertyOp50
 70
     1
102
RTVSPropertyOp51
 70
     0
102
RTVSPropertyOp52
 70
     0
102
RTVSPropertyOp53
 70
     1
102
RTVSPropertyOp54
 70
     1
102
RTVSPropertyOp55
 70
     1
102
RTVSPropertyOp56
 70
     1
102
RTVSPropertyOp57
 70
     1
102
RTVSPost2010Prop28
280
     0
102
RTVSPost2010PropOp28
 70
     1
102
RTVSPost2010Prop29
280
     1
102
RTVSPost2010PropOp29
 70
     1
102
RTVSPost2010Prop30
280
     1
102
RTVSPost2010PropOp30
 70
     1
102
RTVSPost2010Prop31
280
     0
102
RTVSPost2010PropOp31
 70
     1
102
RTVSPost2010Prop32
280
     0
102
RTVSPost2010PropOp32
 70
     1
102
RTVSPost2010Prop33
280
     0
102
RTVSPost2010PropOp33
 70
     1
102
RTVSPost2010Prop34
280
     0
102
RTVSPost2010PropOp34
 70
     1
102
RTVSPost2010Prop35
280
     0
102
RTVSPost2010PropOp35
 70
     1
102
RTVSPost2010Prop36
280
     0
102
RTVSPost2010PropOp36
 70
     1
102
RTVSPost2010Prop37
 90
       50
102
RTVSPost2010PropOp37
 70
     1
102
RTVSPost2010Prop38
140
0.0
102
RTVSPost2010PropOp38
 70
     1
102
RTVSPost2010Prop39
140
1.0
102
RTVSPost2010PropOp39
 70
     1
102
RTVSPost2010Prop40
 90
        0
102
RTVSPost2010PropOp40
 70
     1
102
RTVSPost2010Prop41ColorIndex
 90
       18
102
RTVSPost2010Prop41ColorRGB
 90
        0
102
RTVSPost2010PropOp41
 70
     1
102
RTVSPost2010Prop42
 90
       50
102
RTVSPost2010PropOp42
 70
     1
102
RTVSPost2010Prop43
 90
        3
102
RTVSPost2010PropOp43
 70
     1
102
RTVSPost2010Prop44ColorIndex
 90
        5
102
RTVSPost2010Prop44ColorRGB
 90
      255
102
RTVSPost2010PropOp44
 70
     1
102
RTVSPost2010Prop45
280
     0
102
RTVSPost2010PropOp45
 70
     1
102
RTVSPost2010Prop46
 90
       50
102
RTVSPost2010PropOp46
 70
     1
102
RTVSPost2010Prop47
 90
       50
102
RTVSPost2010PropOp47
 70
     1
102
RTVSPost2010Prop48
 90
       50
102
RTVSPost2010PropOp48
 70
     1
102
RTVSPost2010Prop49
280
     0
102
RTVSPost2010PropOp49
 70
     1
102
RTVSPost2010Prop50
 90
       50
102
RTVSPost2010PropOp50
 70
     1
102
RTVSPost2010Prop51ColorIndex
 90
      256
102
RTVSPost2010Prop51ColorRGB
 90
-16777216
102
RTVSPost2010PropOp51
 70
     0
102
RTVSPost2010Prop52
140
1.0
102
RTVSPost2010PropOp52
 70
     0
102
RTVSPost2010Prop53
 90
        2
102
RTVSPost2010PropOp53
 70
     1
102
RTVSPost2010Prop54
  1
strokes_ogs.tif
102
RTVSPost2010PropOp54
 70
     1
102
RTVSPost2010Prop55
280
     0
102
RTVSPost2010PropOp55
 70
     1
102
RTVSPost2010Prop56
140
1.0
102
RTVSPost2010PropOp56
 70
     1
102
RTVSPost2010Prop57
140
1.0
102
RTVSPost2010PropOp57
 70
     1
  0
XRECORD
  5
6BF
102
{ACAD_REACTORS
330
6BE
102
}
330
6BE
100
AcDbXrecord
280
     1
102
RTVSPropertyOp0
 70
     1
102
RTVSPropertyOp1
 70
     1
102
RTVSPropertyOp2
 70
     1
102
RTVSPropertyOp3
 70
     1
102
RTVSPropertyOp4
 70
     1
102
RTVSPropertyOp5
 70
     1
102
RTVSPropertyOp6
 70
     1
102
RTVSPropertyOp7
 70
     1
102
RTVSPropertyOp8
 70
     1
102
RTVSPropertyOp9
 70
     1
102
RTVSPropertyOp10
 70
     1
102
RTVSPropertyOp11
 70
     1
102
RTVSPropertyOp12
 70
     1
102
RTVSPropertyOp13
 70
     1
102
RTVSPropertyOp14
 70
     1
102
RTVSPropertyOp15
 70
     1
102
RTVSPropertyOp16
 70
     1
102
RTVSPropertyOp17
 70
     1
102
RTVSPropertyOp18
 70
     1
102
RTVSPropertyOp19
 70
     1
102
RTVSPropertyOp20
 70
     1
102
RTVSPropertyOp21
 70
     1
102
RTVSPropertyOp22
 70
     1
102
RTVSPropertyOp23
 70
     1
102
RTVSPropertyOp24
 70
     1
102
RTVSPropertyOp25
 70
     1
102
RTVSPropertyOp26
 70
     1
102
RTVSPropertyOp27
 70
     1
102
RTVSPropertyOp28
 70
     1
102
RTVSPropertyOp29
 70
     1
102
RTVSPropertyOp30
 70
     1
102
RTVSPropertyOp31
 70
     1
102
RTVSPropertyOp32
 70
     1
102
RTVSPropertyOp33
 70
     1
102
RTVSPropertyOp34
 70
     1
102
RTVSPropertyOp35
 70
     1
102
RTVSPropertyOp36
 70
     1
102
RTVSPropertyOp37
 70
     1
102
RTVSPropertyOp38
 70
     1
102
RTVSPropertyOp39
 70
     1
102
RTVSPropertyOp40
 70
     1
102
RTVSPropertyOp41
 70
     1
102
RTVSPropertyOp42
 70
     1
102
RTVSPropertyOp43
 70
     1
102
RTVSPropertyOp44
 70
     1
102
RTVSPropertyOp45
 70
     1
102
RTVSPropertyOp46
 70
     1
102
RTVSPropertyOp47
 70
     1
102
RTVSPropertyOp48
 70
     1
102
RTVSPropertyOp49
 70
     1
102
RTVSPropertyOp50
 70
     1
102
RTVSPropertyOp51
 70
     0
102
RTVSPropertyOp52
 70
     0
102
RTVSPropertyOp53
 70
     1
102
RTVSPropertyOp54
 70
     1
102
RTVSPropertyOp55
 70
     1
102
RTVSPropertyOp56
 70
     1
102
RTVSPropertyOp57
 70
     1
102
RTVSPost2010Prop28
280
     0
102
RTVSPost2010PropOp28
 70
     1
102
RTVSPost2010Prop29
280
     1
102
RTVSPost2010PropOp29
 70
     1
102
RTVSPost2010Prop30
280
     1
102
RTVSPost2010PropOp30
 70
     1
102
RTVSPost2010Prop31
280
     0
102
RTVSPost2010PropOp31
 70
     1
102
RTVSPost2010Prop32
280
     0
102
RTVSPost2010PropOp32
 70
     1
102
RTVSPost2010Prop33
280
     0
102
RTVSPost2010PropOp33
 70
     1
102
RTVSPost2010Prop34
280
     0
102
RTVSPost2010PropOp34
 70
     1
102
RTVSPost2010Prop35
280
     0
102
RTVSPost2010PropOp35
 70
     1
102
RTVSPost2010Prop36
280
     0
102
RTVSPost2010PropOp36
 70
     1
102
RTVSPost2010Prop37
 90
       50
102
RTVSPost2010PropOp37
 70
     1
102
RTVSPost2010Prop38
140
0.0
102
RTVSPost2010PropOp38
 70
     1
102
RTVSPost2010Prop39
140
1.0
102
RTVSPost2010PropOp39
 70
     1
102
RTVSPost2010Prop40
 90
        0
102
RTVSPost2010PropOp40
 70
     1
102
RTVSPost2010Prop41ColorIndex
 90
       18
102
RTVSPost2010Prop41ColorRGB
 90
        0
102
RTVSPost2010PropOp41
 70
     1
102
RTVSPost2010Prop42
 90
       50
102
RTVSPost2010PropOp42
 70
     1
102
RTVSPost2010Prop43
 90
        3
102
RTVSPost2010PropOp43
 70
     1
102
RTVSPost2010Prop44ColorIndex
 90
        5
102
RTVSPost2010Prop44ColorRGB
 90
      255
102
RTVSPost2010PropOp44
 70
     1
102
RTVSPost2010Prop45
280
     0
102
RTVSPost2010PropOp45
 70
     1
102
RTVSPost2010Prop46
 90
       50
102
RTVSPost2010PropOp46
 70
     1
102
RTVSPost2010Prop47
 90
       50
102
RTVSPost2010PropOp47
 70
     1
102
RTVSPost2010Prop48
 90
       50
102
RTVSPost2010PropOp48
 70
     1
102
RTVSPost2010Prop49
280
     0
102
RTVSPost2010PropOp49
 70
     1
102
RTVSPost2010Prop50
 90
       50
102
RTVSPost2010PropOp50
 70
     1
102
RTVSPost2010Prop51ColorIndex
 90
      256
102
RTVSPost2010Prop51ColorRGB
 90
-16777216
102
RTVSPost2010PropOp51
 70
     0
102
RTVSPost2010Prop52
140
1.0
102
RTVSPost2010PropOp52
 70
     0
102
RTVSPost2010Prop53
 90
        2
102
RTVSPost2010PropOp53
 70
     1
102
RTVSPost2010Prop54
  1
strokes_ogs.tif
102
RTVSPost2010PropOp54
 70
     1
102
RTVSPost2010Prop55
280
     0
102
RTVSPost2010PropOp55
 70
     1
102
RTVSPost2010Prop56
140
1.0
102
RTVSPost2010PropOp56
 70
     1
102
RTVSPost2010Prop57
140
1.0
102
RTVSPost2010PropOp57
 70
     1
  0
XRECORD
  5
6BD
102
{ACAD_REACTORS
330
6BC
102
}
330
6BC
100
AcDbXrecord
280
     1
102
RTVSPropertyOp0
 70
     1
102
RTVSPropertyOp1
 70
     1
102
RTVSPropertyOp2
 70
     1
102
RTVSPropertyOp3
 70
     1
102
RTVSPropertyOp4
 70
     1
102
RTVSPropertyOp5
 70
     1
102
RTVSPropertyOp6
 70
     1
102
RTVSPropertyOp7
 70
     1
102
RTVSPropertyOp8
 70
     1
102
RTVSPropertyOp9
 70
     1
102
RTVSPropertyOp10
 70
     1
102
RTVSPropertyOp11
 70
     1
102
RTVSPropertyOp12
 70
     1
102
RTVSPropertyOp13
 70
     1
102
RTVSPropertyOp14
 70
     1
102
RTVSPropertyOp15
 70
     1
102
RTVSPropertyOp16
 70
     1
102
RTVSPropertyOp17
 70
     1
102
RTVSPropertyOp18
 70
     1
102
RTVSPropertyOp19
 70
     1
102
RTVSPropertyOp20
 70
     1
102
RTVSPropertyOp21
 70
     1
102
RTVSPropertyOp22
 70
     1
102
RTVSPropertyOp23
 70
     1
102
RTVSPropertyOp24
 70
     1
102
RTVSPropertyOp25
 70
     1
102
RTVSPropertyOp26
 70
     1
102
RTVSPropertyOp27
 70
     1
102
RTVSPropertyOp28
 70
     1
102
RTVSPropertyOp29
 70
     1
102
RTVSPropertyOp30
 70
     1
102
RTVSPropertyOp31
 70
     1
102
RTVSPropertyOp32
 70
     1
102
RTVSPropertyOp33
 70
     1
102
RTVSPropertyOp34
 70
     1
102
RTVSPropertyOp35
 70
     1
102
RTVSPropertyOp36
 70
     1
102
RTVSPropertyOp37
 70
     1
102
RTVSPropertyOp38
 70
     1
102
RTVSPropertyOp39
 70
     1
102
RTVSPropertyOp40
 70
     1
102
RTVSPropertyOp41
 70
     1
102
RTVSPropertyOp42
 70
     1
102
RTVSPropertyOp43
 70
     1
102
RTVSPropertyOp44
 70
     1
102
RTVSPropertyOp45
 70
     1
102
RTVSPropertyOp46
 70
     1
102
RTVSPropertyOp47
 70
     1
102
RTVSPropertyOp48
 70
     1
102
RTVSPropertyOp49
 70
     1
102
RTVSPropertyOp50
 70
     1
102
RTVSPropertyOp51
 70
     0
102
RTVSPropertyOp52
 70
     0
102
RTVSPropertyOp53
 70
     1
102
RTVSPropertyOp54
 70
     1
102
RTVSPropertyOp55
 70
     1
102
RTVSPropertyOp56
 70
     1
102
RTVSPropertyOp57
 70
     1
102
RTVSPost2010Prop28
280
     0
102
RTVSPost2010PropOp28
 70
     1
102
RTVSPost2010Prop29
280
     1
102
RTVSPost2010PropOp29
 70
     1
102
RTVSPost2010Prop30
280
     1
102
RTVSPost2010PropOp30
 70
     1
102
RTVSPost2010Prop31
280
     0
102
RTVSPost2010PropOp31
 70
     1
102
RTVSPost2010Prop32
280
     0
102
RTVSPost2010PropOp32
 70
     1
102
RTVSPost2010Prop33
280
     0
102
RTVSPost2010PropOp33
 70
     1
102
RTVSPost2010Prop34
280
     0
102
RTVSPost2010PropOp34
 70
     1
102
RTVSPost2010Prop35
280
     0
102
RTVSPost2010PropOp35
 70
     1
102
RTVSPost2010Prop36
280
     0
102
RTVSPost2010PropOp36
 70
     1
102
RTVSPost2010Prop37
 90
       50
102
RTVSPost2010PropOp37
 70
     1
102
RTVSPost2010Prop38
140
0.0
102
RTVSPost2010PropOp38
 70
     1
102
RTVSPost2010Prop39
140
1.0
102
RTVSPost2010PropOp39
 70
     1
102
RTVSPost2010Prop40
 90
        0
102
RTVSPost2010PropOp40
 70
     1
102
RTVSPost2010Prop41ColorIndex
 90
       18
102
RTVSPost2010Prop41ColorRGB
 90
        0
102
RTVSPost2010PropOp41
 70
     1
102
RTVSPost2010Prop42
 90
       50
102
RTVSPost2010PropOp42
 70
     1
102
RTVSPost2010Prop43
 90
        3
102
RTVSPost2010PropOp43
 70
     1
102
RTVSPost2010Prop44ColorIndex
 90
        5
102
RTVSPost2010Prop44ColorRGB
 90
      255
102
RTVSPost2010PropOp44
 70
     1
102
RTVSPost2010Prop45
280
     0
102
RTVSPost2010PropOp45
 70
     1
102
RTVSPost2010Prop46
 90
       50
102
RTVSPost2010PropOp46
 70
     1
102
RTVSPost2010Prop47
 90
       50
102
RTVSPost2010PropOp47
 70
     1
102
RTVSPost2010Prop48
 90
       50
102
RTVSPost2010PropOp48
 70
     1
102
RTVSPost2010Prop49
280
     0
102
RTVSPost2010PropOp49
 70
     1
102
RTVSPost2010Prop50
 90
       50
102
RTVSPost2010PropOp50
 70
     1
102
RTVSPost2010Prop51ColorIndex
 90
      256
102
RTVSPost2010Prop51ColorRGB
 90
-16777216
102
RTVSPost2010PropOp51
 70
     0
102
RTVSPost2010Prop52
140
1.0
102
RTVSPost2010PropOp52
 70
     0
102
RTVSPost2010Prop53
 90
        2
102
RTVSPost2010PropOp53
 70
     1
102
RTVSPost2010Prop54
  1
strokes_ogs.tif
102
RTVSPost2010PropOp54
 70
     1
102
RTVSPost2010Prop55
280
     0
102
RTVSPost2010PropOp55
 70
     1
102
RTVSPost2010Prop56
140
1.0
102
RTVSPost2010PropOp56
 70
     1
102
RTVSPost2010Prop57
140
1.0
102
RTVSPost2010PropOp57
 70
     1
  0
XRECORD
  5
6B7
102
{ACAD_REACTORS
330
6B6
102
}
330
6B6
100
AcDbXrecord
280
     1
102
RTVSPropertyOp0
 70
     1
102
RTVSPropertyOp1
 70
     1
102
RTVSPropertyOp2
 70
     1
102
RTVSPropertyOp3
 70
     1
102
RTVSPropertyOp4
 70
     1
102
RTVSPropertyOp5
 70
     1
102
RTVSPropertyOp6
 70
     1
102
RTVSPropertyOp7
 70
     1
102
RTVSPropertyOp8
 70
     1
102
RTVSPropertyOp9
 70
     1
102
RTVSPropertyOp10
 70
     1
102
RTVSPropertyOp11
 70
     1
102
RTVSPropertyOp12
 70
     1
102
RTVSPropertyOp13
 70
     1
102
RTVSPropertyOp14
 70
     1
102
RTVSPropertyOp15
 70
     1
102
RTVSPropertyOp16
 70
     1
102
RTVSPropertyOp17
 70
     1
102
RTVSPropertyOp18
 70
     1
102
RTVSPropertyOp19
 70
     1
102
RTVSPropertyOp20
 70
     1
102
RTVSPropertyOp21
 70
     1
102
RTVSPropertyOp22
 70
     1
102
RTVSPropertyOp23
 70
     1
102
RTVSPropertyOp24
 70
     1
102
RTVSPropertyOp25
 70
     1
102
RTVSPropertyOp26
 70
     1
102
RTVSPropertyOp27
 70
     1
102
RTVSPropertyOp28
 70
     1
102
RTVSPropertyOp29
 70
     1
102
RTVSPropertyOp30
 70
     1
102
RTVSPropertyOp31
 70
     1
102
RTVSPropertyOp32
 70
     1
102
RTVSPropertyOp33
 70
     1
102
RTVSPropertyOp34
 70
     1
102
RTVSPropertyOp35
 70
     1
102
RTVSPropertyOp36
 70
     1
102
RTVSPropertyOp37
 70
     1
102
RTVSPropertyOp38
 70
     1
102
RTVSPropertyOp39
 70
     1
102
RTVSPropertyOp40
 70
     1
102
RTVSPropertyOp41
 70
     1
102
RTVSPropertyOp42
 70
     1
102
RTVSPropertyOp43
 70
     1
102
RTVSPropertyOp44
 70
     1
102
RTVSPropertyOp45
 70
     1
102
RTVSPropertyOp46
 70
     1
102
RTVSPropertyOp47
 70
     1
102
RTVSPropertyOp48
 70
     1
102
RTVSPropertyOp49
 70
     1
102
RTVSPropertyOp50
 70
     1
102
RTVSPropertyOp51
 70
     0
102
RTVSPropertyOp52
 70
     0
102
RTVSPropertyOp53
 70
     1
102
RTVSPropertyOp54
 70
     1
102
RTVSPropertyOp55
 70
     1
102
RTVSPropertyOp56
 70
     1
102
RTVSPropertyOp57
 70
     1
102
RTVSPost2010Prop28
280
     0
102
RTVSPost2010PropOp28
 70
     1
102
RTVSPost2010Prop29
280
     1
102
RTVSPost2010PropOp29
 70
     1
102
RTVSPost2010Prop30
280
     1
102
RTVSPost2010PropOp30
 70
     1
102
RTVSPost2010Prop31
280
     0
102
RTVSPost2010PropOp31
 70
     1
102
RTVSPost2010Prop32
280
     0
102
RTVSPost2010PropOp32
 70
     1
102
RTVSPost2010Prop33
280
     0
102
RTVSPost2010PropOp33
 70
     1
102
RTVSPost2010Prop34
280
     0
102
RTVSPost2010PropOp34
 70
     1
102
RTVSPost2010Prop35
280
     0
102
RTVSPost2010PropOp35
 70
     1
102
RTVSPost2010Prop36
280
     0
102
RTVSPost2010PropOp36
 70
     1
102
RTVSPost2010Prop37
 90
       50
102
RTVSPost2010PropOp37
 70
     1
102
RTVSPost2010Prop38
140
0.0
102
RTVSPost2010PropOp38
 70
     1
102
RTVSPost2010Prop39
140
1.0
102
RTVSPost2010PropOp39
 70
     1
102
RTVSPost2010Prop40
 90
        0
102
RTVSPost2010PropOp40
 70
     1
102
RTVSPost2010Prop41ColorIndex
 90
       18
102
RTVSPost2010Prop41ColorRGB
 90
        0
102
RTVSPost2010PropOp41
 70
     1
102
RTVSPost2010Prop42
 90
       50
102
RTVSPost2010PropOp42
 70
     1
102
RTVSPost2010Prop43
 90
        3
102
RTVSPost2010PropOp43
 70
     1
102
RTVSPost2010Prop44ColorIndex
 90
        5
102
RTVSPost2010Prop44ColorRGB
 90
      255
102
RTVSPost2010PropOp44
 70
     1
102
RTVSPost2010Prop45
280
     0
102
RTVSPost2010PropOp45
 70
     1
102
RTVSPost2010Prop46
 90
       50
102
RTVSPost2010PropOp46
 70
     1
102
RTVSPost2010Prop47
 90
       50
102
RTVSPost2010PropOp47
 70
     1
102
RTVSPost2010Prop48
 90
       50
102
RTVSPost2010PropOp48
 70
     1
102
RTVSPost2010Prop49
280
     0
102
RTVSPost2010PropOp49
 70
     1
102
RTVSPost2010Prop50
 90
       50
102
RTVSPost2010PropOp50
 70
     1
102
RTVSPost2010Prop51ColorIndex
 90
      256
102
RTVSPost2010Prop51ColorRGB
 90
-16777216
102
RTVSPost2010PropOp51
 70
     0
102
RTVSPost2010Prop52
140
1.0
102
RTVSPost2010PropOp52
 70
     0
102
RTVSPost2010Prop53
 90
        2
102
RTVSPost2010PropOp53
 70
     1
102
RTVSPost2010Prop54
  1
strokes_ogs.tif
102
RTVSPost2010PropOp54
 70
     1
102
RTVSPost2010Prop55
280
     0
102
RTVSPost2010PropOp55
 70
     1
102
RTVSPost2010Prop56
140
1.0
102
RTVSPost2010PropOp56
 70
     1
102
RTVSPost2010Prop57
140
1.0
102
RTVSPost2010PropOp57
 70
     1
  0
XRECORD
  5
6B9
102
{ACAD_REACTORS
330
6B8
102
}
330
6B8
100
AcDbXrecord
280
     1
102
RTVSPropertyOp0
 70
     1
102
RTVSPropertyOp1
 70
     1
102
RTVSPropertyOp2
 70
     1
102
RTVSPropertyOp3
 70
     1
102
RTVSPropertyOp4
 70
     1
102
RTVSPropertyOp5
 70
     1
102
RTVSPropertyOp6
 70
     1
102
RTVSPropertyOp7
 70
     1
102
RTVSPropertyOp8
 70
     1
102
RTVSPropertyOp9
 70
     1
102
RTVSPropertyOp10
 70
     1
102
RTVSPropertyOp11
 70
     1
102
RTVSPropertyOp12
 70
     1
102
RTVSPropertyOp13
 70
     1
102
RTVSPropertyOp14
 70
     1
102
RTVSPropertyOp15
 70
     1
102
RTVSPropertyOp16
 70
     1
102
RTVSPropertyOp17
 70
     1
102
RTVSPropertyOp18
 70
     1
102
RTVSPropertyOp19
 70
     1
102
RTVSPropertyOp20
 70
     1
102
RTVSPropertyOp21
 70
     1
102
RTVSPropertyOp22
 70
     1
102
RTVSPropertyOp23
 70
     1
102
RTVSPropertyOp24
 70
     1
102
RTVSPropertyOp25
 70
     1
102
RTVSPropertyOp26
 70
     1
102
RTVSPropertyOp27
 70
     1
102
RTVSPropertyOp28
 70
     1
102
RTVSPropertyOp29
 70
     1
102
RTVSPropertyOp30
 70
     1
102
RTVSPropertyOp31
 70
     1
102
RTVSPropertyOp32
 70
     1
102
RTVSPropertyOp33
 70
     1
102
RTVSPropertyOp34
 70
     1
102
RTVSPropertyOp35
 70
     1
102
RTVSPropertyOp36
 70
     1
102
RTVSPropertyOp37
 70
     1
102
RTVSPropertyOp38
 70
     1
102
RTVSPropertyOp39
 70
     1
102
RTVSPropertyOp40
 70
     1
102
RTVSPropertyOp41
 70
     1
102
RTVSPropertyOp42
 70
     1
102
RTVSPropertyOp43
 70
     1
102
RTVSPropertyOp44
 70
     1
102
RTVSPropertyOp45
 70
     1
102
RTVSPropertyOp46
 70
     1
102
RTVSPropertyOp47
 70
     1
102
RTVSPropertyOp48
 70
     1
102
RTVSPropertyOp49
 70
     1
102
RTVSPropertyOp50
 70
     1
102
RTVSPropertyOp51
 70
     0
102
RTVSPropertyOp52
 70
     0
102
RTVSPropertyOp53
 70
     1
102
RTVSPropertyOp54
 70
     1
102
RTVSPropertyOp55
 70
     1
102
RTVSPropertyOp56
 70
     1
102
RTVSPropertyOp57
 70
     1
102
RTVSPost2010Prop28
280
     0
102
RTVSPost2010PropOp28
 70
     1
102
RTVSPost2010Prop29
280
     1
102
RTVSPost2010PropOp29
 70
     1
102
RTVSPost2010Prop30
280
     1
102
RTVSPost2010PropOp30
 70
     1
102
RTVSPost2010Prop31
280
     0
102
RTVSPost2010PropOp31
 70
     1
102
RTVSPost2010Prop32
280
     0
102
RTVSPost2010PropOp32
 70
     1
102
RTVSPost2010Prop33
280
     0
102
RTVSPost2010PropOp33
 70
     1
102
RTVSPost2010Prop34
280
     0
102
RTVSPost2010PropOp34
 70
     1
102
RTVSPost2010Prop35
280
     0
102
RTVSPost2010PropOp35
 70
     1
102
RTVSPost2010Prop36
280
     0
102
RTVSPost2010PropOp36
 70
     1
102
RTVSPost2010Prop37
 90
       50
102
RTVSPost2010PropOp37
 70
     1
102
RTVSPost2010Prop38
140
0.0
102
RTVSPost2010PropOp38
 70
     1
102
RTVSPost2010Prop39
140
1.0
102
RTVSPost2010PropOp39
 70
     1
102
RTVSPost2010Prop40
 90
        0
102
RTVSPost2010PropOp40
 70
     1
102
RTVSPost2010Prop41ColorIndex
 90
       18
102
RTVSPost2010Prop41ColorRGB
 90
        0
102
RTVSPost2010PropOp41
 70
     1
102
RTVSPost2010Prop42
 90
       50
102
RTVSPost2010PropOp42
 70
     1
102
RTVSPost2010Prop43
 90
        3
102
RTVSPost2010PropOp43
 70
     1
102
RTVSPost2010Prop44ColorIndex
 90
        5
102
RTVSPost2010Prop44ColorRGB
 90
      255
102
RTVSPost2010PropOp44
 70
     1
102
RTVSPost2010Prop45
280
     0
102
RTVSPost2010PropOp45
 70
     1
102
RTVSPost2010Prop46
 90
       50
102
RTVSPost2010PropOp46
 70
     1
102
RTVSPost2010Prop47
 90
       50
102
RTVSPost2010PropOp47
 70
     1
102
RTVSPost2010Prop48
 90
       50
102
RTVSPost2010PropOp48
 70
     1
102
RTVSPost2010Prop49
280
     0
102
RTVSPost2010PropOp49
 70
     1
102
RTVSPost2010Prop50
 90
       50
102
RTVSPost2010PropOp50
 70
     1
102
RTVSPost2010Prop51ColorIndex
 90
      256
102
RTVSPost2010Prop51ColorRGB
 90
-16777216
102
RTVSPost2010PropOp51
 70
     0
102
RTVSPost2010Prop52
140
1.0
102
RTVSPost2010PropOp52
 70
     0
102
RTVSPost2010Prop53
 90
        2
102
RTVSPost2010PropOp53
 70
     1
102
RTVSPost2010Prop54
  1
strokes_ogs.tif
102
RTVSPost2010PropOp54
 70
     1
102
RTVSPost2010Prop55
280
     0
102
RTVSPost2010PropOp55
 70
     1
102
RTVSPost2010Prop56
140
1.0
102
RTVSPost2010PropOp56
 70
     1
102
RTVSPost2010Prop57
140
1.0
102
RTVSPost2010PropOp57
 70
     1
  0
XRECORD
  5
6A9
102
{ACAD_REACTORS
330
6A8
102
}
330
6A8
100
AcDbXrecord
280
     1
102
RTVSPropertyOp0
 70
     1
102
RTVSPropertyOp1
 70
     1
102
RTVSPropertyOp2
 70
     1
102
RTVSPropertyOp3
 70
     1
102
RTVSPropertyOp4
 70
     1
102
RTVSPropertyOp5
 70
     1
102
RTVSPropertyOp6
 70
     1
102
RTVSPropertyOp7
 70
     1
102
RTVSPropertyOp8
 70
     1
102
RTVSPropertyOp9
 70
     1
102
RTVSPropertyOp10
 70
     1
102
RTVSPropertyOp11
 70
     1
102
RTVSPropertyOp12
 70
     1
102
RTVSPropertyOp13
 70
     1
102
RTVSPropertyOp14
 70
     1
102
RTVSPropertyOp15
 70
     1
102
RTVSPropertyOp16
 70
     1
102
RTVSPropertyOp17
 70
     1
102
RTVSPropertyOp18
 70
     1
102
RTVSPropertyOp19
 70
     1
102
RTVSPropertyOp20
 70
     1
102
RTVSPropertyOp21
 70
     1
102
RTVSPropertyOp22
 70
     1
102
RTVSPropertyOp23
 70
     1
102
RTVSPropertyOp24
 70
     1
102
RTVSPropertyOp25
 70
     1
102
RTVSPropertyOp26
 70
     1
102
RTVSPropertyOp27
 70
     1
102
RTVSPropertyOp28
 70
     1
102
RTVSPropertyOp29
 70
     1
102
RTVSPropertyOp30
 70
     1
102
RTVSPropertyOp31
 70
     1
102
RTVSPropertyOp32
 70
     1
102
RTVSPropertyOp33
 70
     1
102
RTVSPropertyOp34
 70
     1
102
RTVSPropertyOp35
 70
     1
102
RTVSPropertyOp36
 70
     1
102
RTVSPropertyOp37
 70
     1
102
RTVSPropertyOp38
 70
     1
102
RTVSPropertyOp39
 70
     1
102
RTVSPropertyOp40
 70
     1
102
RTVSPropertyOp41
 70
     1
102
RTVSPropertyOp42
 70
     1
102
RTVSPropertyOp43
 70
     1
102
RTVSPropertyOp44
 70
     1
102
RTVSPropertyOp45
 70
     1
102
RTVSPropertyOp46
 70
     1
102
RTVSPropertyOp47
 70
     1
102
RTVSPropertyOp48
 70
     1
102
RTVSPropertyOp49
 70
     1
102
RTVSPropertyOp50
 70
     1
102
RTVSPropertyOp51
 70
     0
102
RTVSPropertyOp52
 70
     0
102
RTVSPropertyOp53
 70
     1
102
RTVSPropertyOp54
 70
     1
102
RTVSPropertyOp55
 70
     1
102
RTVSPropertyOp56
 70
     1
102
RTVSPropertyOp57
 70
     1
102
RTVSPost2010Prop28
280
     0
102
RTVSPost2010PropOp28
 70
     1
102
RTVSPost2010Prop29
280
     1
102
RTVSPost2010PropOp29
 70
     1
102
RTVSPost2010Prop30
280
     1
102
RTVSPost2010PropOp30
 70
     1
102
RTVSPost2010Prop31
280
     0
102
RTVSPost2010PropOp31
 70
     1
102
RTVSPost2010Prop32
280
     0
102
RTVSPost2010PropOp32
 70
     1
102
RTVSPost2010Prop33
280
     0
102
RTVSPost2010PropOp33
 70
     1
102
RTVSPost2010Prop34
280
     0
102
RTVSPost2010PropOp34
 70
     1
102
RTVSPost2010Prop35
280
     0
102
RTVSPost2010PropOp35
 70
     1
102
RTVSPost2010Prop36
280
     0
102
RTVSPost2010PropOp36
 70
     1
102
RTVSPost2010Prop37
 90
       50
102
RTVSPost2010PropOp37
 70
     1
102
RTVSPost2010Prop38
140
0.0
102
RTVSPost2010PropOp38
 70
     1
102
RTVSPost2010Prop39
140
1.0
102
RTVSPost2010PropOp39
 70
     1
102
RTVSPost2010Prop40
 90
        0
102
RTVSPost2010PropOp40
 70
     1
102
RTVSPost2010Prop41ColorIndex
 90
       18
102
RTVSPost2010Prop41ColorRGB
 90
        0
102
RTVSPost2010PropOp41
 70
     1
102
RTVSPost2010Prop42
 90
       50
102
RTVSPost2010PropOp42
 70
     1
102
RTVSPost2010Prop43
 90
        3
102
RTVSPost2010PropOp43
 70
     1
102
RTVSPost2010Prop44ColorIndex
 90
        5
102
RTVSPost2010Prop44ColorRGB
 90
      255
102
RTVSPost2010PropOp44
 70
     1
102
RTVSPost2010Prop45
280
     0
102
RTVSPost2010PropOp45
 70
     1
102
RTVSPost2010Prop46
 90
       50
102
RTVSPost2010PropOp46
 70
     1
102
RTVSPost2010Prop47
 90
       50
102
RTVSPost2010PropOp47
 70
     1
102
RTVSPost2010Prop48
 90
       50
102
RTVSPost2010PropOp48
 70
     1
102
RTVSPost2010Prop49
280
     0
102
RTVSPost2010PropOp49
 70
     1
102
RTVSPost2010Prop50
 90
       50
102
RTVSPost2010PropOp50
 70
     1
102
RTVSPost2010Prop51ColorIndex
 90
      256
102
RTVSPost2010Prop51ColorRGB
 90
-16777216
102
RTVSPost2010PropOp51
 70
     0
102
RTVSPost2010Prop52
140
1.0
102
RTVSPost2010PropOp52
 70
     0
102
RTVSPost2010Prop53
 90
        2
102
RTVSPost2010PropOp53
 70
     1
102
RTVSPost2010Prop54
  1
strokes_ogs.tif
102
RTVSPost2010PropOp54
 70
     1
102
RTVSPost2010Prop55
280
     0
102
RTVSPost2010PropOp55
 70
     1
102
RTVSPost2010Prop56
140
1.0
102
RTVSPost2010PropOp56
 70
     1
102
RTVSPost2010Prop57
140
1.0
102
RTVSPost2010PropOp57
 70
     1
  0
XRECORD
  5
69B
102
{ACAD_REACTORS
330
69A
102
}
330
69A
100
AcDbXrecord
280
     1
102
RTVSPropertyOp0
 70
     1
102
RTVSPropertyOp1
 70
     1
102
RTVSPropertyOp2
 70
     1
102
RTVSPropertyOp3
 70
     1
102
RTVSPropertyOp4
 70
     1
102
RTVSPropertyOp5
 70
     1
102
RTVSPropertyOp6
 70
     1
102
RTVSPropertyOp7
 70
     1
102
RTVSPropertyOp8
 70
     1
102
RTVSPropertyOp9
 70
     1
102
RTVSPropertyOp10
 70
     1
102
RTVSPropertyOp11
 70
     1
102
RTVSPropertyOp12
 70
     1
102
RTVSPropertyOp13
 70
     1
102
RTVSPropertyOp14
 70
     1
102
RTVSPropertyOp15
 70
     1
102
RTVSPropertyOp16
 70
     1
102
RTVSPropertyOp17
 70
     1
102
RTVSPropertyOp18
 70
     1
102
RTVSPropertyOp19
 70
     1
102
RTVSPropertyOp20
 70
     1
102
RTVSPropertyOp21
 70
     1
102
RTVSPropertyOp22
 70
     1
102
RTVSPropertyOp23
 70
     1
102
RTVSPropertyOp24
 70
     1
102
RTVSPropertyOp25
 70
     1
102
RTVSPropertyOp26
 70
     1
102
RTVSPropertyOp27
 70
     1
102
RTVSPropertyOp28
 70
     1
102
RTVSPropertyOp29
 70
     1
102
RTVSPropertyOp30
 70
     1
102
RTVSPropertyOp31
 70
     1
102
RTVSPropertyOp32
 70
     1
102
RTVSPropertyOp33
 70
     1
102
RTVSPropertyOp34
 70
     1
102
RTVSPropertyOp35
 70
     1
102
RTVSPropertyOp36
 70
     1
102
RTVSPropertyOp37
 70
     1
102
RTVSPropertyOp38
 70
     1
102
RTVSPropertyOp39
 70
     1
102
RTVSPropertyOp40
 70
     1
102
RTVSPropertyOp41
 70
     1
102
RTVSPropertyOp42
 70
     1
102
RTVSPropertyOp43
 70
     1
102
RTVSPropertyOp44
 70
     1
102
RTVSPropertyOp45
 70
     1
102
RTVSPropertyOp46
 70
     1
102
RTVSPropertyOp47
 70
     1
102
RTVSPropertyOp48
 70
     1
102
RTVSPropertyOp49
 70
     1
102
RTVSPropertyOp50
 70
     1
102
RTVSPropertyOp51
 70
     0
102
RTVSPropertyOp52
 70
     0
102
RTVSPropertyOp53
 70
     1
102
RTVSPropertyOp54
 70
     1
102
RTVSPropertyOp55
 70
     1
102
RTVSPropertyOp56
 70
     1
102
RTVSPropertyOp57
 70
     1
102
RTVSPost2010Prop28
280
     0
102
RTVSPost2010PropOp28
 70
     1
102
RTVSPost2010Prop29
280
     1
102
RTVSPost2010PropOp29
 70
     1
102
RTVSPost2010Prop30
280
     1
102
RTVSPost2010PropOp30
 70
     1
102
RTVSPost2010Prop31
280
     0
102
RTVSPost2010PropOp31
 70
     1
102
RTVSPost2010Prop32
280
     0
102
RTVSPost2010PropOp32
 70
     1
102
RTVSPost2010Prop33
280
     0
102
RTVSPost2010PropOp33
 70
     1
102
RTVSPost2010Prop34
280
     0
102
RTVSPost2010PropOp34
 70
     1
102
RTVSPost2010Prop35
280
     0
102
RTVSPost2010PropOp35
 70
     1
102
RTVSPost2010Prop36
280
     0
102
RTVSPost2010PropOp36
 70
     1
102
RTVSPost2010Prop37
 90
       50
102
RTVSPost2010PropOp37
 70
     1
102
RTVSPost2010Prop38
140
0.0
102
RTVSPost2010PropOp38
 70
     1
102
RTVSPost2010Prop39
140
1.0
102
RTVSPost2010PropOp39
 70
     1
102
RTVSPost2010Prop40
 90
        0
102
RTVSPost2010PropOp40
 70
     1
102
RTVSPost2010Prop41ColorIndex
 90
       18
102
RTVSPost2010Prop41ColorRGB
 90
        0
102
RTVSPost2010PropOp41
 70
     1
102
RTVSPost2010Prop42
 90
       50
102
RTVSPost2010PropOp42
 70
     1
102
RTVSPost2010Prop43
 90
        3
102
RTVSPost2010PropOp43
 70
     1
102
RTVSPost2010Prop44ColorIndex
 90
        5
102
RTVSPost2010Prop44ColorRGB
 90
      255
102
RTVSPost2010PropOp44
 70
     1
102
RTVSPost2010Prop45
280
     0
102
RTVSPost2010PropOp45
 70
     1
102
RTVSPost2010Prop46
 90
       50
102
RTVSPost2010PropOp46
 70
     1
102
RTVSPost2010Prop47
 90
       50
102
RTVSPost2010PropOp47
 70
     1
102
RTVSPost2010Prop48
 90
       50
102
RTVSPost2010PropOp48
 70
     1
102
RTVSPost2010Prop49
280
     0
102
RTVSPost2010PropOp49
 70
     1
102
RTVSPost2010Prop50
 90
       50
102
RTVSPost2010PropOp50
 70
     1
102
RTVSPost2010Prop51ColorIndex
 90
      256
102
RTVSPost2010Prop51ColorRGB
 90
-16777216
102
RTVSPost2010PropOp51
 70
     0
102
RTVSPost2010Prop52
140
1.0
102
RTVSPost2010PropOp52
 70
     0
102
RTVSPost2010Prop53
 90
        2
102
RTVSPost2010PropOp53
 70
     1
102
RTVSPost2010Prop54
  1
strokes_ogs.tif
102
RTVSPost2010PropOp54
 70
     1
102
RTVSPost2010Prop55
280
     0
102
RTVSPost2010PropOp55
 70
     1
102
RTVSPost2010Prop56
140
1.0
102
RTVSPost2010PropOp56
 70
     1
102
RTVSPost2010Prop57
140
1.0
102
RTVSPost2010PropOp57
 70
     1
  0
XRECORD
  5
6BB
102
{ACAD_REACTORS
330
6BA
102
}
330
6BA
100
AcDbXrecord
280
     1
102
RTVSPropertyOp0
 70
     1
102
RTVSPropertyOp1
 70
     1
102
RTVSPropertyOp2
 70
     1
102
RTVSPropertyOp3
 70
     1
102
RTVSPropertyOp4
 70
     1
102
RTVSPropertyOp5
 70
     1
102
RTVSPropertyOp6
 70
     1
102
RTVSPropertyOp7
 70
     1
102
RTVSPropertyOp8
 70
     1
102
RTVSPropertyOp9
 70
     1
102
RTVSPropertyOp10
 70
     1
102
RTVSPropertyOp11
 70
     1
102
RTVSPropertyOp12
 70
     1
102
RTVSPropertyOp13
 70
     1
102
RTVSPropertyOp14
 70
     1
102
RTVSPropertyOp15
 70
     1
102
RTVSPropertyOp16
 70
     1
102
RTVSPropertyOp17
 70
     1
102
RTVSPropertyOp18
 70
     1
102
RTVSPropertyOp19
 70
     1
102
RTVSPropertyOp20
 70
     1
102
RTVSPropertyOp21
 70
     1
102
RTVSPropertyOp22
 70
     1
102
RTVSPropertyOp23
 70
     1
102
RTVSPropertyOp24
 70
     1
102
RTVSPropertyOp25
 70
     1
102
RTVSPropertyOp26
 70
     1
102
RTVSPropertyOp27
 70
     1
102
RTVSPropertyOp28
 70
     1
102
RTVSPropertyOp29
 70
     1
102
RTVSPropertyOp30
 70
     1
102
RTVSPropertyOp31
 70
     1
102
RTVSPropertyOp32
 70
     1
102
RTVSPropertyOp33
 70
     1
102
RTVSPropertyOp34
 70
     1
102
RTVSPropertyOp35
 70
     1
102
RTVSPropertyOp36
 70
     1
102
RTVSPropertyOp37
 70
     1
102
RTVSPropertyOp38
 70
     1
102
RTVSPropertyOp39
 70
     1
102
RTVSPropertyOp40
 70
     1
102
RTVSPropertyOp41
 70
     1
102
RTVSPropertyOp42
 70
     1
102
RTVSPropertyOp43
 70
     1
102
RTVSPropertyOp44
 70
     1
102
RTVSPropertyOp45
 70
     1
102
RTVSPropertyOp46
 70
     1
102
RTVSPropertyOp47
 70
     1
102
RTVSPropertyOp48
 70
     1
102
RTVSPropertyOp49
 70
     1
102
RTVSPropertyOp50
 70
     1
102
RTVSPropertyOp51
 70
     0
102
RTVSPropertyOp52
 70
     0
102
RTVSPropertyOp53
 70
     1
102
RTVSPropertyOp54
 70
     1
102
RTVSPropertyOp55
 70
     1
102
RTVSPropertyOp56
 70
     1
102
RTVSPropertyOp57
 70
     1
102
RTVSPost2010Prop28
280
     0
102
RTVSPost2010PropOp28
 70
     1
102
RTVSPost2010Prop29
280
     1
102
RTVSPost2010PropOp29
 70
     1
102
RTVSPost2010Prop30
280
     1
102
RTVSPost2010PropOp30
 70
     1
102
RTVSPost2010Prop31
280
     0
102
RTVSPost2010PropOp31
 70
     1
102
RTVSPost2010Prop32
280
     0
102
RTVSPost2010PropOp32
 70
     1
102
RTVSPost2010Prop33
280
     0
102
RTVSPost2010PropOp33
 70
     1
102
RTVSPost2010Prop34
280
     0
102
RTVSPost2010PropOp34
 70
     1
102
RTVSPost2010Prop35
280
     0
102
RTVSPost2010PropOp35
 70
     1
102
RTVSPost2010Prop36
280
     0
102
RTVSPost2010PropOp36
 70
     1
102
RTVSPost2010Prop37
 90
       50
102
RTVSPost2010PropOp37
 70
     1
102
RTVSPost2010Prop38
140
0.0
102
RTVSPost2010PropOp38
 70
     1
102
RTVSPost2010Prop39
140
1.0
102
RTVSPost2010PropOp39
 70
     1
102
RTVSPost2010Prop40
 90
        0
102
RTVSPost2010PropOp40
 70
     1
102
RTVSPost2010Prop41ColorIndex
 90
       18
102
RTVSPost2010Prop41ColorRGB
 90
        0
102
RTVSPost2010PropOp41
 70
     1
102
RTVSPost2010Prop42
 90
       50
102
RTVSPost2010PropOp42
 70
     1
102
RTVSPost2010Prop43
 90
        3
102
RTVSPost2010PropOp43
 70
     1
102
RTVSPost2010Prop44ColorIndex
 90
        5
102
RTVSPost2010Prop44ColorRGB
 90
      255
102
RTVSPost2010PropOp44
 70
     1
102
RTVSPost2010Prop45
280
     0
102
RTVSPost2010PropOp45
 70
     1
102
RTVSPost2010Prop46
 90
       50
102
RTVSPost2010PropOp46
 70
     1
102
RTVSPost2010Prop47
 90
       50
102
RTVSPost2010PropOp47
 70
     1
102
RTVSPost2010Prop48
 90
       50
102
RTVSPost2010PropOp48
 70
     1
102
RTVSPost2010Prop49
280
     0
102
RTVSPost2010PropOp49
 70
     1
102
RTVSPost2010Prop50
 90
       50
102
RTVSPost2010PropOp50
 70
     1
102
RTVSPost2010Prop51ColorIndex
 90
      256
102
RTVSPost2010Prop51ColorRGB
 90
-16777216
102
RTVSPost2010PropOp51
 70
     0
102
RTVSPost2010Prop52
140
1.0
102
RTVSPost2010PropOp52
 70
     0
102
RTVSPost2010Prop53
 90
        2
102
RTVSPost2010PropOp53
 70
     1
102
RTVSPost2010Prop54
  1
strokes_ogs.tif
102
RTVSPost2010PropOp54
 70
     1
102
RTVSPost2010Prop55
280
     0
102
RTVSPost2010PropOp55
 70
     1
102
RTVSPost2010Prop56
140
1.0
102
RTVSPost2010PropOp56
 70
     1
102
RTVSPost2010Prop57
140
1.0
102
RTVSPost2010PropOp57
 70
     1
  0
ENDSEC
  0
EOF
