  0
SECTION
  2
HEADER
  9
$ACADVER
  1
AC1015
  9
$ACADMAINTVER
 70
     6
  9
$DWGCODEPAGE
  3
ANSI_932
  9
$INSBASE
 10
1020.192162937447
 20
427.4538871533031
 30
0.0
  9
$EXTMIN
 10
75.89291172141589
 20
31.33069255062037
 30
0.0
  9
$EXTMAX
 10
1361.648539471442
 20
1217.442772365965
 30
0.0
  9
$LIMMIN
 10
-210.0
 20
-148.5
  9
$LIMMAX
 10
210.0
 20
148.5
  9
$ORTHOMODE
 70
     1
  9
$REGENMODE
 70
     1
  9
$FILLMODE
 70
     1
  9
$QTEXTMODE
 70
     0
  9
$MIRRTEXT
 70
     1
  9
$LTSCALE
 40
3.0
  9
$ATTMODE
 70
     1
  9
$TEXTSIZE
 40
12.0
  9
$TRACEWID
 40
0.05
  9
$TEXTSTYLE
  7
KANJI
  9
$CLAYER
  8
2
  9
$CELTYPE
  6
BYLAYER
  9
$CECOLOR
 62
   256
  9
$CELTSCALE
 40
1.0
  9
$DISPSILH
 70
     0
  9
$DIMSCALE
 40
4.0
  9
$DIMASZ
 40
2.0
  9
$DIMEXO
 40
0.5
  9
$DIMDLI
 40
10.0
  9
$DIMRND
 40
0.0
  9
$DIMDLE
 40
0.0
  9
$DIMEXE
 40
1.0
  9
$DIMTP
 40
0.0
  9
$DIMTM
 40
0.0
  9
$DIMTXT
 40
3.0
  9
$DIMCEN
 40
0.09
  9
$DIMTSZ
 40
0.0
  9
$DIMTOL
 70
     0
  9
$DIMLIM
 70
     0
  9
$DIMTIH
 70
     0
  9
$DIMTOH
 70
     0
  9
$DIMSE1
 70
     0
  9
$DIMSE2
 70
     0
  9
$DIMTAD
 70
     0
  9
$DIMZIN
 70
     8
  9
$DIMBLK
  1

  9
$DIMASO
 70
     0
  9
$DIMSHO
 70
     0
  9
$DIMPOST
  1

  9
$DIMAPOST
  1

  9
$DIMALT
 70
     0
  9
$DIMALTD
 70
     2
  9
$DIMALTF
 40
25.4
  9
$DIMLFAC
 40
1.0
  9
$DIMTOFL
 70
     1
  9
$DIMTVP
 40
1.0
  9
$DIMTIX
 70
     1
  9
$DIMSOXD
 70
     1
  9
$DIMSAH
 70
     0
  9
$DIMBLK1
  1

  9
$DIMBLK2
  1

  9
$DIMSTYLE
  2
STANDARD
  9
$DIMCLRD
 70
   256
  9
$DIMCLRE
 70
   256
  9
$DIMCLRT
 70
   256
  9
$DIMTFAC
 40
1.0
  9
$DIMGAP
 40
0.09
  9
$DIMJUST
 70
     0
  9
$DIMSD1
 70
     0
  9
$DIMSD2
 70
     0
  9
$DIMTOLJ
 70
     1
  9
$DIMTZIN
 70
     0
  9
$DIMALTZ
 70
     0
  9
$DIMALTTZ
 70
     0
  9
$DIMUPT
 70
     0
  9
$DIMDEC
 70
     4
  9
$DIMTDEC
 70
     4
  9
$DIMALTU
 70
     2
  9
$DIMALTTD
 70
     2
  9
$DIMTXSTY
  7
STANDARD
  9
$DIMAUNIT
 70
     0
  9
$DIMADEC
 70
     0
  9
$DIMALTRND
 40
0.0
  9
$DIMAZIN
 70
     0
  9
$DIMDSEP
 70
    46
  9
$DIMATFIT
 70
     3
  9
$DIMFRAC
 70
     0
  9
$DIMLDRBLK
  1

  9
$DIMLUNIT
 70
     2
  9
$DIMLWD
 70
    -2
  9
$DIMLWE
 70
    -2
  9
$DIMTMOVE
 70
     0
  9
$LUNITS
 70
     2
  9
$LUPREC
 70
     4
  9
$SKETCHINC
 40
0.1
  9
$FILLETRAD
 40
1.0
  9
$AUNITS
 70
     0
  9
$AUPREC
 70
     0
  9
$MENU
  1
.
  9
$ELEVATION
 40
0.0
  9
$PELEVATION
 40
0.0
  9
$THICKNESS
 40
0.0
  9
$LIMCHECK
 70
     0
  9
$CHAMFERA
 40
0.0
  9
$CHAMFERB
 40
0.0
  9
$CHAMFERC
 40
0.0
  9
$CHAMFERD
 40
0.0
  9
$SKPOLY
 70
     0
  9
$TDCREATE
 40
2457541.534460521
  9
$TDUCREATE
 40
2457541.159460521
  9
$TDUPDATE
 40
2457870.61971228
  9
$TDUUPDATE
 40
2457870.24471228
  9
$TDINDWG
 40
0.0541381019
  9
$TDUSRTIMER
 40
0.0541371181
  9
$USRTIMER
 70
     1
  9
$ANGBASE
 50
0.0
  9
$ANGDIR
 70
     0
  9
$PDMODE
 70
     0
  9
$PDSIZE
 40
0.0
  9
$PLINEWID
 40
0.0
  9
$SPLFRAME
 70
     0
  9
$SPLINETYPE
 70
     6
  9
$SPLINESEGS
 70
     8
  9
$HANDSEED
  5
659
  9
$SURFTAB1
 70
     6
  9
$SURFTAB2
 70
     6
  9
$SURFTYPE
 70
     6
  9
$SURFU
 70
     6
  9
$SURFV
 70
     6
  9
$UCSBASE
  2

  9
$UCSNAME
  2

  9
$UCSORG
 10
0.0
 20
0.0
 30
0.0
  9
$UCSXDIR
 10
1.0
 20
0.0
 30
0.0
  9
$UCSYDIR
 10
0.0
 20
1.0
 30
0.0
  9
$UCSORTHOREF
  2

  9
$UCSORTHOVIEW
 70
     0
  9
$UCSORGTOP
 10
0.0
 20
0.0
 30
0.0
  9
$UCSORGBOTTOM
 10
0.0
 20
0.0
 30
0.0
  9
$UCSORGLEFT
 10
0.0
 20
0.0
 30
0.0
  9
$UCSORGRIGHT
 10
0.0
 20
0.0
 30
0.0
  9
$UCSORGFRONT
 10
0.0
 20
0.0
 30
0.0
  9
$UCSORGBACK
 10
0.0
 20
0.0
 30
0.0
  9
$PUCSBASE
  2

  9
$PUCSNAME
  2

  9
$PUCSORG
 10
0.0
 20
0.0
 30
0.0
  9
$PUCSXDIR
 10
1.0
 20
0.0
 30
0.0
  9
$PUCSYDIR
 10
0.0
 20
1.0
 30
0.0
  9
$PUCSORTHOREF
  2

  9
$PUCSORTHOVIEW
 70
     0
  9
$PUCSORGTOP
 10
0.0
 20
0.0
 30
0.0
  9
$PUCSORGBOTTOM
 10
0.0
 20
0.0
 30
0.0
  9
$PUCSORGLEFT
 10
0.0
 20
0.0
 30
0.0
  9
$PUCSORGRIGHT
 10
0.0
 20
0.0
 30
0.0
  9
$PUCSORGFRONT
 10
0.0
 20
0.0
 30
0.0
  9
$PUCSORGBACK
 10
0.0
 20
0.0
 30
0.0
  9
$USERI1
 70
     0
  9
$USERI2
 70
     0
  9
$USERI3
 70
     0
  9
$USERI4
 70
     0
  9
$USERI5
 70
     0
  9
$USERR1
 40
0.0
  9
$USERR2
 40
0.0
  9
$USERR3
 40
0.0
  9
$USERR4
 40
0.0
  9
$USERR5
 40
0.0
  9
$WORLDVIEW
 70
     1
  9
$SHADEDGE
 70
     3
  9
$SHADEDIF
 70
    70
  9
$TILEMODE
 70
     1
  9
$MAXACTVP
 70
    16
  9
$PINSBASE
 10
0.0
 20
0.0
 30
0.0
  9
$PLIMCHECK
 70
     0
  9
$PEXTMIN
 10
1.000000000000000E+20
 20
1.000000000000000E+20
 30
1.000000000000000E+20
  9
$PEXTMAX
 10
-1.000000000000000E+20
 20
-1.000000000000000E+20
 30
-1.000000000000000E+20
  9
$PLIMMIN
 10
0.0
 20
0.0
  9
$PLIMMAX
 10
12.0
 20
9.0
  9
$UNITMODE
 70
     0
  9
$VISRETAIN
 70
     0
  9
$PLINEGEN
 70
     0
  9
$PSLTSCALE
 70
     1
  9
$TREEDEPTH
 70
  3020
  9
$CMLSTYLE
  2
STANDARD
  9
$CMLJUST
 70
     0
  9
$CMLSCALE
 40
1.0
  9
$PROXYGRAPHICS
 70
     1
  9
$MEASUREMENT
 70
     0
  9
$CELWEIGHT
370
    -1
  9
$ENDCAPS
280
     0
  9
$JOINSTYLE
280
     0
  9
$LWDISPLAY
290
     0
  9
$INSUNITS
 70
     0
  9
$HYPERLINKBASE
  1

  9
$STYLESHEET
  1

  9
$XEDIT
290
     1
  9
$CEPSNTYPE
380
     0
  9
$PSTYLEMODE
290
     1
  9
$FINGERPRINTGUID
  2
{7FE347E6-6584-4068-9BE8-BB09FFF26CB9}
  9
$VERSIONGUID
  2
{B44DC1C1-3E50-4188-A24D-38C8AED6C681}
  9
$EXTNAMES
290
     1
  9
$PSVPSCALE
 40
0.0
  9
$OLESTARTUP
290
     0
  0
ENDSEC
  0
SECTION
  2
CLASSES
  0
CLASS
  1
ACDBDICTIONARYWDFLT
  2
AcDbDictionaryWithDefault
  3
ObjectDBX Classes
 90
        0
280
     0
281
     0
  0
CLASS
  1
MATERIAL
  2
AcDbMaterial
  3
ObjectDBX Classes
 90
     1153
280
     0
281
     0
  0
CLASS
  1
SORTENTSTABLE
  2
AcDbSortentsTable
  3
ObjectDBX Classes
 90
        0
280
     0
281
     0
  0
CLASS
  1
VISUALSTYLE
  2
AcDbVisualStyle
  3
ObjectDBX Classes
 90
     4095
280
     0
281
     0
  0
CLASS
  1
SCALE
  2
AcDbScale
  3
ObjectDBX Classes
 90
     1153
280
     0
281
     0
  0
CLASS
  1
DICTIONARYVAR
  2
AcDbDictionaryVar
  3
ObjectDBX Classes
 90
        0
280
     0
281
     0
  0
CLASS
  1
MLEADERSTYLE
  2
AcDbMLeaderStyle
  3
ACDB_MLEADERSTYLE_CLASS
 90
     4095
280
     0
281
     0
  0
CLASS
  1
TABLESTYLE
  2
AcDbTableStyle
  3
ObjectDBX Classes
 90
     4095
280
     0
281
     0
  0
CLASS
  1
ACDBPLACEHOLDER
  2
AcDbPlaceHolder
  3
ObjectDBX Classes
 90
        0
280
     0
281
     0
  0
CLASS
  1
LAYOUT
  2
AcDbLayout
  3
ObjectDBX Classes
 90
        0
280
     0
281
     0
  0
ENDSEC
  0
SECTION
  2
TABLES
  0
TABLE
  2
VPORT
  5
26
102
{ACAD_XDICTIONARY
360
61E
102
}
330
0
100
AcDbSymbolTable
 70
     1
  0
VPORT
  5
2D
330
26
100
AcDbSymbolTableRecord
100
AcDbViewportTableRecord
  2
*Active
 70
     0
 10
0.0
 20
0.0
 11
1.0
 21
1.0
 12
1244.855050491267
 22
600.9206881392788
 13
0.0
 23
0.0
 14
1.0
 24
1.0
 15
0.0
 25
0.0
 16
0.0
 26
0.0
 36
1.0
 17
0.0
 27
0.0
 37
0.0
 40
1220.702462777986
 41
2.174107142857143
 42
50.0
 43
0.0
 44
0.0
 50
0.0
 51
0.0
 71
     0
 72
 20000
 73
     1
 74
     0
 75
     0
 76
     0
 77
     0
 78
     0
281
     0
 65
     1
110
0.0
120
0.0
130
0.0
111
1.0
121
0.0
131
0.0
112
0.0
122
1.0
132
0.0
 79
     0
146
0.0
1001
ACAD_NAV_VCDISPLAY
1070
     3
  0
ENDTAB
  0
TABLE
  2
LTYPE
  5
B
330
0
100
AcDbSymbolTable
 70
     4
  0
LTYPE
  5
C
330
B
100
AcDbSymbolTableRecord
100
AcDbLinetypeTableRecord
  2
BYBLOCK
 70
     0
  3

 72
    65
 73
     0
 40
0.0
  0
LTYPE
  5
D
330
B
100
AcDbSymbolTableRecord
100
AcDbLinetypeTableRecord
  2
BYLAYER
 70
     0
  3

 72
    65
 73
     0
 40
0.0
  0
LTYPE
  5
A
330
B
100
AcDbSymbolTableRecord
100
AcDbLinetypeTableRecord
  2
CONTINUOUS
 70
     0
  3
Solid line
 72
    65
 73
     0
 40
0.0
  0
LTYPE
  5
56
330
B
100
AcDbSymbolTableRecord
100
AcDbLinetypeTableRecord
  2
CENTER
 70
     0
  3
Center ____ _ ____ _ ____ _ ____ _ ____ _ ____
 72
    65
 73
     4
 40
2.0
 49
1.25
 74
     0
 49
-0.25
 74
     0
 49
0.25
 74
     0
 49
-0.25
 74
     0
  0
LTYPE
  5
1D8
330
B
100
AcDbSymbolTableRecord
100
AcDbLinetypeTableRecord
  2
DASHED
 70
     0
  3
__ __ __ __ __ __ __ __ __ __ __ __ __ __ __ __
 72
    65
 73
     2
 40
0.75
 49
0.5
 74
     0
 49
-0.25
 74
     0
  0
ENDTAB
  0
TABLE
  2
LAYER
  5
2
330
0
100
AcDbSymbolTable
 70
     8
  0
LAYER
  5
1B
330
2
100
AcDbSymbolTableRecord
100
AcDbLayerTableRecord
  2
0
 70
     0
 62
     7
  6
CONTINUOUS
370
    -3
390
3
  0
LAYER
  5
B9
330
2
100
AcDbSymbolTableRecord
100
AcDbLayerTableRecord
  2
1
 70
     0
 62
     7
  6
CONTINUOUS
370
    -3
390
3
  0
LAYER
  5
1
330
2
100
AcDbSymbolTableRecord
100
AcDbLayerTableRecord
  2
2
 70
     0
 62
     4
  6
CONTINUOUS
370
    -3
390
3
  0
LAYER
  5
79
330
2
100
AcDbSymbolTableRecord
100
AcDbLayerTableRecord
  2
4
 70
     0
 62
     3
  6
CONTINUOUS
370
    -3
390
3
  0
LAYER
  5
55
330
2
100
AcDbSymbolTableRecord
100
AcDbLayerTableRecord
  2
L-CENTER
 70
     0
 62
     1
  6
CENTER
370
    -3
390
3
  0
LAYER
  5
62
330
2
100
AcDbSymbolTableRecord
100
AcDbLayerTableRecord
  2
3
 70
     0
 62
     2
  6
CONTINUOUS
370
    -3
390
3
  0
LAYER
  5
B3
330
2
100
AcDbSymbolTableRecord
100
AcDbLayerTableRecord
  2
5
 70
     0
 62
     6
  6
CONTINUOUS
370
    -3
390
3
  0
LAYER
  5
573
330
2
100
AcDbSymbolTableRecord
100
AcDbLayerTableRecord
  2
Defpoints
 70
     0
 62
     7
  6
CONTINUOUS
290
     0
370
    -3
390
3
  0
ENDTAB
  0
TABLE
  2
STYLE
  5
F
330
0
100
AcDbSymbolTable
 70
     2
  0
STYLE
  5
13
330
F
100
AcDbSymbolTableRecord
100
AcDbTextStyleTableRecord
  2
STANDARD
 70
     0
 40
0.0
 41
1.0
 50
0.0
 71
     0
 42
7.2
  3
txt
  4

  0
STYLE
  5
E
330
F
100
AcDbSymbolTableRecord
100
AcDbTextStyleTableRecord
  2
KANJI
 70
     0
 40
0.0
 41
1.0
 50
0.0
 71
     0
 42
12.0
  3
TXT
  4
BIGFONT
  0
ENDTAB
  0
TABLE
  2
VIEW
  5
24
330
0
100
AcDbSymbolTable
 70
     0
  0
ENDTAB
  0
TABLE
  2
UCS
  5
25
330
0
100
AcDbSymbolTable
 70
     0
  0
ENDTAB
  0
TABLE
  2
APPID
  5
9
330
0
100
AcDbSymbolTable
 70
     5
  0
APPID
  5
8
330
9
100
AcDbSymbolTableRecord
100
AcDbRegAppTableRecord
  2
ACAD
 70
     0
  0
APPID
  5
2E
330
9
100
AcDbSymbolTableRecord
100
AcDbRegAppTableRecord
  2
ACAD_NAV_VCDISPLAY
 70
     0
  0
APPID
  5
1F
330
9
100
AcDbSymbolTableRecord
100
AcDbRegAppTableRecord
  2
ACAD_PSEXT
 70
     0
  0
APPID
  5
54A
330
9
100
AcDbSymbolTableRecord
100
AcDbRegAppTableRecord
  2
ACAD_MLEADERVER
 70
     0
  0
ENDTAB
  0
TABLE
  2
DIMSTYLE
  5
12
330
0
100
AcDbSymbolTable
 70
     1
100
AcDbDimStyleTable
  0
DIMSTYLE
105
11
330
12
100
AcDbSymbolTableRecord
100
AcDbDimStyleTableRecord
  2
STANDARD
 70
     0
178
     0
340
13
  0
ENDTAB
  0
TABLE
  2
BLOCK_RECORD
  5
16
330
0
100
AcDbSymbolTable
 70
     0
  0
BLOCK_RECORD
  5
17
102
{ACAD_XDICTIONARY
360
18
102
}
330
16
100
AcDbSymbolTableRecord
100
AcDbBlockTableRecord
  2
*MODEL_SPACE
340
1D
  0
BLOCK_RECORD
  5
20
330
16
100
AcDbSymbolTableRecord
100
AcDbBlockTableRecord
  2
*PAPER_SPACE
340
23
  0
ENDTAB
  0
ENDSEC
  0
SECTION
  2
BLOCKS
  0
BLOCK
  5
1A
330
17
100
AcDbEntity
  8
0
100
AcDbBlockBegin
  2
*MODEL_SPACE
 70
     0
 10
0.0
 20
0.0
 30
0.0
  3
*MODEL_SPACE
  1

  0
ENDBLK
  5
1C
330
17
100
AcDbEntity
  8
0
100
AcDbBlockEnd
  0
BLOCK
  5
21
330
20
100
AcDbEntity
 67
     1
  8
0
100
AcDbBlockBegin
  2
*PAPER_SPACE
 70
     0
 10
0.0
 20
0.0
 30
0.0
  3
*PAPER_SPACE
  1

  0
ENDBLK
  5
22
330
20
100
AcDbEntity
 67
     1
  8
0
100
AcDbBlockEnd
  0
ENDSEC
  0
SECTION
  2
ENTITIES
  0
CIRCLE
  5
1D7
330
17
100
AcDbEntity
  8
2
  6
DASHED
 48
4.0
100
AcDbCircle
 10
635.4351216783193
 20
883.1937712562062
 30
0.0
 40
10.0
  0
CIRCLE
  5
1D9
330
17
100
AcDbEntity
  8
2
  6
DASHED
 48
4.0
100
AcDbCircle
 10
285.4351216783193
 20
883.1937712562062
 30
0.0
 40
10.0
  0
LINE
  5
1DA
330
17
100
AcDbEntity
  8
4
100
AcDbLine
 10
445.4351216783193
 20
1213.693771256205
 30
0.0
 11
445.4351216783193
 21
1208.693771256205
 31
0.0
  0
LINE
  5
1DB
330
17
100
AcDbEntity
  8
4
100
AcDbLine
 10
475.4351216783193
 20
1213.693771256205
 30
0.0
 11
475.4351216783193
 21
1208.693771256205
 31
0.0
  0
LINE
  5
1DC
330
17
100
AcDbEntity
  8
4
100
AcDbLine
 10
442.4351216783202
 20
1206.693771256205
 30
0.0
 11
442.4351216783202
 21
1208.693771256205
 31
0.0
  0
LINE
  5
1DD
330
17
100
AcDbEntity
  8
4
100
AcDbLine
 10
443.4351216783202
 20
1206.693771256205
 30
0.0
 11
443.4351216783202
 21
1205.193771256205
 31
0.0
  0
LINE
  5
1DE
330
17
100
AcDbEntity
  8
4
100
AcDbLine
 10
478.4351216783202
 20
1206.693771256205
 30
0.0
 11
478.4351216783202
 21
1208.693771256205
 31
0.0
  0
LINE
  5
1DF
330
17
100
AcDbEntity
  8
4
100
AcDbLine
 10
477.4351216783202
 20
1205.193771256205
 30
0.0
 11
477.4351216783202
 21
1206.693771256205
 31
0.0
  0
LINE
  5
1E0
330
17
100
AcDbEntity
  8
4
100
AcDbLine
 10
442.4351216783202
 20
1206.693771256205
 30
0.0
 11
478.4351216783202
 21
1206.693771256205
 31
0.0
  0
LINE
  5
1E1
330
17
100
AcDbEntity
  8
4
100
AcDbLine
 10
442.4351216783202
 20
1208.693771256205
 30
0.0
 11
478.4351216783202
 21
1208.693771256205
 31
0.0
  0
LINE
  5
1E2
330
17
100
AcDbEntity
  8
4
100
AcDbLine
 10
445.4351216783193
 20
1213.693771256205
 30
0.0
 11
475.4351216783193
 21
1213.693771256205
 31
0.0
  0
LINE
  5
1E3
330
17
100
AcDbEntity
  8
L-CENTER
 48
8.0
100
AcDbLine
 10
1310.192162937447
 20
290.7496274587519
 30
0.0
 11
1310.192162937447
 21
235.7496274587519
 31
0.0
  0
LINE
  5
1E4
330
17
100
AcDbEntity
  8
L-CENTER
 48
8.0
100
AcDbLine
 10
1020.192162937447
 20
290.7496274587519
 30
0.0
 11
1020.192162937447
 21
235.7496274587519
 31
0.0
  0
ARC
  5
212
330
17
100
AcDbEntity
  8
4
100
AcDbCircle
 10
1335.192162937447
 20
480.1495314587518
 30
0.0
 40
2.0
100
AcDbArc
 50
0.0
 51
90.0
  0
LINE
  5
213
330
17
100
AcDbEntity
  8
4
100
AcDbLine
 10
1337.192162937447
 20
467.7496274587519
 30
0.0
 11
1337.192162937447
 21
469.7496274587519
 31
0.0
  0
LINE
  5
214
330
17
100
AcDbEntity
  8
4
100
AcDbLine
 10
1337.192162937447
 20
480.1495314587518
 30
0.0
 11
1337.192162937447
 21
469.7496274587519
 31
0.0
  0
LINE
  5
215
330
17
100
AcDbEntity
  8
4
100
AcDbLine
 10
1310.192162937447
 20
491.6495314587518
 30
0.0
 11
1310.192162937447
 21
495.7496274587519
 31
0.0
  0
LINE
  5
216
330
17
100
AcDbEntity
  8
4
100
AcDbLine
 10
1314.437207522965
 20
490.7460045128995
 30
0.0
 11
1314.437207522965
 21
482.1495314587518
 31
0.0
  0
ARC
  5
217
330
17
100
AcDbEntity
  8
4
100
AcDbCircle
 10
1311.983468878909
 20
487.8659175296924
 30
0.0
 40
3.783613929059507
100
AcDbArc
 50
49.57010315516856
 51
130.4298968448315
  0
LINE
  5
218
330
17
100
AcDbEntity
  8
4
100
AcDbLine
 10
1299.71477565863
 20
490.7460045128995
 30
0.0
 11
1299.71477565863
 21
484.6495314587518
 31
0.0
  0
LINE
  5
219
330
17
100
AcDbEntity
  8
4
100
AcDbLine
 10
1309.529730234853
 20
490.7460045128995
 30
0.0
 11
1309.529730234853
 21
484.6495314587518
 31
0.0
  0
ARC
  5
21A
330
17
100
AcDbEntity
  8
4
100
AcDbCircle
 10
1304.622252946741
 20
477.8703661612921
 30
0.0
 40
13.77916529745958
100
AcDbArc
 50
69.13593563608057
 51
110.8640643639194
  0
LINE
  5
21B
330
17
100
AcDbEntity
  8
L-CENTER
 48
8.0
100
AcDbLine
 10
1304.622252946741
 20
458.4135520891182
 30
0.0
 11
1304.622252946741
 21
494.5175097133318
 31
0.0
  0
ARC
  5
21C
330
17
100
AcDbEntity
  8
4
100
AcDbCircle
 10
1306.419779798967
 20
497.7149764108232
 30
0.0
 40
4.0
100
AcDbArc
 50
124.0262726602211
 51
189.4623222080256
  0
LINE
  5
21D
330
17
100
AcDbEntity
  8
4
100
AcDbLine
 10
1301.192162937446
 20
504.7496274587519
 30
0.0
 11
1302.692162937447
 21
495.7496274587519
 31
0.0
  0
LINE
  5
21E
330
17
100
AcDbEntity
  8
4
100
AcDbLine
 10
1279.192162937447
 20
504.7496274587519
 30
0.0
 11
1290.192162937447
 21
506.7496274587519
 31
0.0
  0
LINE
  5
220
330
17
100
AcDbEntity
  8
4
100
AcDbLine
 10
1294.807298370517
 20
482.1495314587518
 30
0.0
 11
1294.807298370517
 21
490.7460045128995
 31
0.0
  0
LINE
  5
221
330
17
100
AcDbEntity
  8
4
100
AcDbLine
 10
1270.192162937447
 20
493.4398154587519
 30
0.0
 11
1270.192162937447
 21
495.7496274587519
 31
0.0
  0
LINE
  5
222
330
17
100
AcDbEntity
  8
L-CENTER
 48
8.0
100
AcDbLine
 10
1290.192162937447
 20
474.0147634587519
 30
0.0
 11
1290.192162937447
 21
554.8708066048356
 31
0.0
  0
LINE
  5
223
330
17
100
AcDbEntity
  8
4
100
AcDbLine
 10
1279.192162937447
 20
504.7496274587519
 30
0.0
 11
1277.692162937447
 21
495.7496274587519
 31
0.0
  0
ARC
  5
224
330
17
100
AcDbEntity
  8
4
100
AcDbCircle
 10
1273.964546075927
 20
497.7149764108229
 30
0.0
 40
4.0
100
AcDbArc
 50
350.5376777919744
 51
55.97372733978618
  0
LINE
  5
225
330
17
100
AcDbEntity
  8
4
100
AcDbLine
 10
1310.192162937447
 20
495.7496274587519
 30
0.0
 11
1270.192162937447
 21
495.7496274587519
 31
0.0
  0
LINE
  5
226
330
17
100
AcDbEntity
  8
4
100
AcDbLine
 10
1279.192162937447
 20
504.7496274587519
 30
0.0
 11
1301.192162937446
 21
504.7496274587519
 31
0.0
  0
CIRCLE
  5
227
330
17
100
AcDbEntity
  8
4
100
AcDbCircle
 10
1290.192162937447
 20
521.7496274587519
 30
0.0
 40
15.0
  0
ARC
  5
228
330
17
100
AcDbEntity
  8
4
100
AcDbCircle
 10
1290.192162937447
 20
521.7496274587519
 30
0.0
 40
25.0
100
AcDbArc
 50
304.026272660216
 51
235.973727339784
  0
LINE
  5
229
330
17
100
AcDbEntity
  8
L-CENTER
 48
8.0
100
AcDbLine
 10
1257.070983791363
 20
521.7496274587519
 30
0.0
 11
1323.313342083531
 21
521.7496274587519
 31
0.0
  0
LINE
  5
22A
330
17
100
AcDbEntity
  8
4
100
AcDbLine
 10
1290.192162937447
 20
506.7496274587519
 30
0.0
 11
1301.192162937447
 21
504.7496274587519
 31
0.0
  0
LINE
  5
22B
330
17
100
AcDbEntity
  8
4
100
AcDbLine
 10
1314.437207522965
 20
482.1495314587518
 30
0.0
 11
1294.807298370517
 21
482.1495314587518
 31
0.0
  0
LINE
  5
22C
330
17
100
AcDbEntity
  8
4
100
AcDbLine
 10
1314.437207522965
 20
484.6495314587518
 30
0.0
 11
1294.807298370517
 21
484.6495314587518
 31
0.0
  0
LINE
  5
22D
330
17
100
AcDbEntity
  8
4
100
AcDbLine
 10
1297.261037014574
 20
491.6495314587518
 30
0.0
 11
1311.983468878909
 21
491.6495314587518
 31
0.0
  0
ARC
  5
22E
330
17
100
AcDbEntity
  8
4
100
AcDbCircle
 10
1297.261037014574
 20
487.8659175296924
 30
0.0
 40
3.783613929059507
100
AcDbArc
 50
49.57010315517714
 51
130.4298968448228
  0
LINE
  5
22F
330
17
100
AcDbEntity
  8
4
100
AcDbLine
 10
1343.692162937447
 20
393.7496274587519
 30
0.0
 11
1342.192162937447
 21
393.7496274587519
 31
0.0
  0
LINE
  5
230
330
17
100
AcDbEntity
  8
4
100
AcDbLine
 10
1339.192162937447
 20
396.7496274587519
 30
0.0
 11
1342.192162937447
 21
396.7496274587519
 31
0.0
  0
LINE
  5
231
330
17
100
AcDbEntity
  8
4
100
AcDbLine
 10
1343.692162937447
 20
394.7496274587519
 30
0.0
 11
1350.692162937447
 21
394.7496274587519
 31
0.0
  0
LINE
  5
232
330
17
100
AcDbEntity
  8
4
100
AcDbLine
 10
1342.192162937447
 20
359.7496274587519
 30
0.0
 11
1343.692162937447
 21
359.7496274587519
 31
0.0
  0
LINE
  5
233
330
17
100
AcDbEntity
  8
4
100
AcDbLine
 10
1343.692162937447
 20
358.7496274587519
 30
0.0
 11
1350.692162937447
 21
358.7496274587519
 31
0.0
  0
LINE
  5
234
330
17
100
AcDbEntity
  8
4
100
AcDbLine
 10
1345.692162937447
 20
385.7496274587519
 30
0.0
 11
1350.692162937447
 21
385.7496274587519
 31
0.0
  0
LINE
  5
235
330
17
100
AcDbEntity
  8
4
100
AcDbLine
 10
1345.692162937447
 20
367.7496274587519
 30
0.0
 11
1350.692162937447
 21
367.7496274587519
 31
0.0
  0
LINE
  5
236
330
17
100
AcDbEntity
  8
4
100
AcDbLine
 10
1350.692162937447
 20
394.7496274587519
 30
0.0
 11
1350.692162937447
 21
358.7496274587519
 31
0.0
  0
LINE
  5
237
330
17
100
AcDbEntity
  8
4
100
AcDbLine
 10
1345.692162937447
 20
394.7496274587519
 30
0.0
 11
1345.692162937447
 21
358.7496274587519
 31
0.0
  0
LINE
  5
238
330
17
100
AcDbEntity
  8
4
100
AcDbLine
 10
1343.692162937447
 20
394.7496274587519
 30
0.0
 11
1343.692162937447
 21
358.7496274587519
 31
0.0
  0
LINE
  5
239
330
17
100
AcDbEntity
  8
L-CENTER
 48
8.0
100
AcDbLine
 10
1356.758814937447
 20
376.7496274587519
 30
0.0
 11
1328.326682937447
 21
376.7496274587519
 31
0.0
  0
LINE
  5
23A
330
17
100
AcDbEntity
  8
4
100
AcDbLine
 10
1340.692162937447
 20
356.7496274587519
 30
0.0
 11
1342.192162937447
 21
356.7496274587519
 31
0.0
  0
LINE
  5
23B
330
17
100
AcDbEntity
  8
4
100
AcDbLine
 10
1343.192066937447
 20
314.2784354587519
 30
0.0
 11
1340.692162937447
 21
314.081171458752
 31
0.0
  0
LINE
  5
23C
330
17
100
AcDbEntity
  8
4
100
AcDbLine
 10
1343.192066937447
 20
297.220575458752
 30
0.0
 11
1340.692162937447
 21
297.4178394587519
 31
0.0
  0
LINE
  5
23D
330
17
100
AcDbEntity
  8
4
100
AcDbLine
 10
1343.192066937447
 20
314.2784354587519
 30
0.0
 11
1343.192066937447
 21
297.220575458752
 31
0.0
  0
LINE
  5
23E
330
17
100
AcDbEntity
  8
4
100
AcDbLine
 10
1340.192162937447
 20
290.7496274587519
 30
0.0
 11
1340.692162937447
 21
290.7496274587519
 31
0.0
  0
LINE
  5
23F
330
17
100
AcDbEntity
  8
L-CENTER
 48
8.0
100
AcDbLine
 10
1345.708118937447
 20
305.7496274587519
 30
0.0
 11
1335.560326937447
 21
305.7496274587519
 31
0.0
  0
LINE
  5
240
330
17
100
AcDbEntity
  8
4
100
AcDbLine
 10
1342.192162937447
 20
356.7496274587519
 30
0.0
 11
1342.192162937447
 21
396.7496274587519
 31
0.0
  0
LINE
  5
241
330
17
100
AcDbEntity
  8
4
100
AcDbLine
 10
1340.692162937447
 20
290.7496274587519
 30
0.0
 11
1340.692162937447
 21
376.7496274587519
 31
0.0
  0
ARC
  5
242
330
17
100
AcDbEntity
  8
4
100
AcDbCircle
 10
1302.692162937447
 20
345.4876634587521
 30
0.0
 40
9.999932000000001
100
AcDbArc
 50
25.26061199999979
 51
154.7393910000001
  0
LINE
  5
243
330
17
100
AcDbEntity
  8
4
100
AcDbLine
 10
1339.192162937447
 20
396.7496274587519
 30
0.0
 11
1339.192162937447
 21
467.7496274587519
 31
0.0
  0
ARC
  5
249
330
17
100
AcDbEntity
  8
4
100
AcDbCircle
 10
1337.192162937447
 20
277.7496274587519
 30
0.0
 40
3.0
100
AcDbArc
 50
0.0
 51
90.0
  0
ARC
  5
24D
330
17
100
AcDbEntity
  8
4
100
AcDbCircle
 10
1268.192162937447
 20
277.7496274587519
 30
0.0
 40
3.0
100
AcDbArc
 50
90.0
 51
180.0
  0
ARC
  5
24E
330
17
100
AcDbEntity
  8
4
100
AcDbCircle
 10
1250.192162937447
 20
258.6783394587518
 30
0.0
 40
4.999992
100
AcDbArc
 50
0.0
 51
44.99803100000422
  0
ARC
  5
24F
330
17
100
AcDbEntity
  8
4
100
AcDbCircle
 10
1258.192162937447
 20
277.7496274587519
 30
0.0
 40
3.0
100
AcDbArc
 50
90.0
 51
180.0
  0
LINE
  5
250
330
17
100
AcDbEntity
  8
4
100
AcDbLine
 10
1253.727806937447
 20
262.213739458752
 30
0.0
 11
1231.070582937447
 21
284.870963458752
 31
0.0
  0
LINE
  5
251
330
17
100
AcDbEntity
  8
4
100
AcDbLine
 10
1255.192162937447
 20
277.7496274587519
 30
0.0
 11
1255.192162937447
 21
245.7496274587519
 31
0.0
  0
LINE
  5
252
330
17
100
AcDbEntity
  8
4
100
AcDbLine
 10
1258.192162937447
 20
280.7496274587519
 30
0.0
 11
1337.192162937447
 21
280.7496274587519
 31
0.0
  0
LINE
  5
253
330
17
100
AcDbEntity
  8
4
100
AcDbLine
 10
1255.192162937447
 20
245.7496274587519
 30
0.0
 11
1340.192162937447
 21
245.7496274587519
 31
0.0
  0
ARC
  5
256
330
17
100
AcDbEntity
  8
4
100
AcDbCircle
 10
1474.523218937447
 20
264.4068554587519
 30
0.0
 40
200.000072
100
AcDbArc
 50
154.739661
 51
175.313266
  0
LINE
  5
257
330
17
100
AcDbEntity
  8
4
100
AcDbLine
 10
1275.192162937447
 20
327.749383458752
 30
0.0
 11
1275.192162937447
 21
280.7496274587519
 31
0.0
  0
ARC
  5
258
330
17
100
AcDbEntity
  8
4
100
AcDbCircle
 10
1130.861106937447
 20
264.4068554587519
 30
0.0
 40
199.999924
100
AcDbArc
 50
4.687087999999972
 51
25.260901
  0
LINE
  5
259
330
17
100
AcDbEntity
  8
4
100
AcDbLine
 10
1330.192162937447
 20
467.7496274587519
 30
0.0
 11
1330.192162937447
 21
280.7496274587519
 31
0.0
  0
LINE
  5
25A
330
17
100
AcDbEntity
  8
4
100
AcDbLine
 10
1265.192162937447
 20
327.749383458752
 30
0.0
 11
1265.192162937447
 21
245.7496274587519
 31
0.0
  0
LINE
  5
25B
330
17
100
AcDbEntity
  8
4
100
AcDbLine
 10
1265.192162937447
 20
327.749383458752
 30
0.0
 11
1265.192162937447
 21
245.7496274587519
 31
0.0
  0
LINE
  5
25C
330
17
100
AcDbEntity
  8
4
100
AcDbLine
 10
1340.192162937447
 20
290.7496274587519
 30
0.0
 11
1340.192162937447
 21
245.7496274587519
 31
0.0
  0
ARC
  5
25D
330
17
100
AcDbEntity
  8
4
100
AcDbCircle
 10
1215.849878937447
 20
522.7496274587519
 30
0.0
 40
2.99998
100
AcDbArc
 50
14.03510899999992
 51
90.0
  0
LINE
  5
25E
330
17
100
AcDbEntity
  8
4
100
AcDbLine
 10
1218.760278937447
 20
523.4771674587518
 30
0.0
 11
1222.192162937447
 21
509.7496274587519
 31
0.0
  0
LINE
  5
25F
330
17
100
AcDbEntity
  8
4
100
AcDbLine
 10
1206.192162937447
 20
526.7496274587519
 30
0.0
 11
1206.192162937447
 21
525.7496274587519
 31
0.0
  0
LINE
  5
262
330
17
100
AcDbEntity
  8
4
100
AcDbLine
 10
1175.00711751367
 20
490.7460045128995
 30
0.0
 11
1175.00711751367
 21
482.1495314587518
 31
0.0
  0
ARC
  5
263
330
17
100
AcDbEntity
  8
4
100
AcDbCircle
 10
1165.192162937447
 20
477.8703661612921
 30
0.0
 40
13.77916529745958
100
AcDbArc
 50
69.13593563608057
 51
110.8640643639194
  0
LINE
  5
264
330
17
100
AcDbEntity
  8
4
100
AcDbLine
 10
1170.099640225559
 20
490.7460045128995
 30
0.0
 11
1170.099640225559
 21
484.6495314587518
 31
0.0
  0
LINE
  5
265
330
17
100
AcDbEntity
  8
4
100
AcDbLine
 10
1160.284685649335
 20
490.7460045128995
 30
0.0
 11
1160.284685649335
 21
484.6495314587518
 31
0.0
  0
ARC
  5
266
330
17
100
AcDbEntity
  8
4
100
AcDbCircle
 10
1172.553378869615
 20
487.8659175296924
 30
0.0
 40
3.783613929059507
100
AcDbArc
 50
49.57010315517714
 51
130.4298968448228
  0
LINE
  5
267
330
17
100
AcDbEntity
  8
4
100
AcDbLine
 10
1208.192162937447
 20
509.7496274587519
 30
0.0
 11
1198.192162937447
 21
482.1495314587518
 31
0.0
  0
LINE
  5
269
330
17
100
AcDbEntity
  8
4
100
AcDbLine
 10
1124.192162937447
 20
525.7496274587519
 30
0.0
 11
1124.192162937447
 21
526.7496274587519
 31
0.0
  0
ARC
  5
26A
330
17
100
AcDbEntity
  8
4
100
AcDbCircle
 10
1114.534446937447
 20
522.7496274587519
 30
0.0
 40
2.99998
100
AcDbArc
 50
90.0
 51
165.9648910000001
  0
LINE
  5
26B
330
17
100
AcDbEntity
  8
4
100
AcDbLine
 10
1111.624046937447
 20
523.4771674587518
 30
0.0
 11
1108.192162937447
 21
509.7496274587519
 31
0.0
  0
LINE
  5
26C
330
17
100
AcDbEntity
  8
4
100
AcDbLine
 10
1155.377208361223
 20
482.1495314587518
 30
0.0
 11
1155.377208361223
 21
490.7460045128995
 31
0.0
  0
LINE
  5
26D
330
17
100
AcDbEntity
  8
4
100
AcDbLine
 10
1122.192162937447
 20
509.7496274587519
 30
0.0
 11
1132.192162937447
 21
482.1495314587518
 31
0.0
  0
LINE
  5
26F
330
17
100
AcDbEntity
  8
4
100
AcDbLine
 10
1114.534446937447
 20
525.7496274587519
 30
0.0
 11
1215.849878937447
 21
525.7496274587519
 31
0.0
  0
LINE
  5
270
330
17
100
AcDbEntity
  8
4
100
AcDbLine
 10
1108.192162937447
 20
509.7496274587519
 30
0.0
 11
1222.192162937447
 21
509.7496274587519
 31
0.0
  0
LINE
  5
271
330
17
100
AcDbEntity
  8
4
100
AcDbLine
 10
1206.192162937447
 20
526.7496274587519
 30
0.0
 11
1124.192162937447
 21
526.7496274587519
 31
0.0
  0
LINE
  5
273
330
17
100
AcDbEntity
  8
4
100
AcDbLine
 10
1175.00711751367
 20
482.1495314587518
 30
0.0
 11
1155.377208361223
 21
482.1495314587518
 31
0.0
  0
ARC
  5
274
330
17
100
AcDbEntity
  8
4
100
AcDbCircle
 10
1157.83094700528
 20
487.8659175296924
 30
0.0
 40
3.783613929059507
100
AcDbArc
 50
49.57010315516856
 51
130.4298968448315
  0
LINE
  5
275
330
17
100
AcDbEntity
  8
4
100
AcDbLine
 10
1157.83094700528
 20
491.6495314587518
 30
0.0
 11
1172.553378869614
 21
491.6495314587518
 31
0.0
  0
LINE
  5
276
330
17
100
AcDbEntity
  8
4
100
AcDbLine
 10
1175.00711751367
 20
484.6495314587518
 30
0.0
 11
1155.377208361223
 21
484.6495314587518
 31
0.0
  0
LINE
  5
277
330
17
100
AcDbEntity
  8
4
100
AcDbLine
 10
1040.192162937447
 20
506.7496274587519
 30
0.0
 11
1051.192162937447
 21
504.7496274587519
 31
0.0
  0
LINE
  5
278
330
17
100
AcDbEntity
  8
4
100
AcDbLine
 10
1029.192162937447
 20
504.7496274587519
 30
0.0
 11
1040.192162937447
 21
506.7496274587519
 31
0.0
  0
LINE
  5
279
330
17
100
AcDbEntity
  8
4
100
AcDbLine
 10
1029.192162937447
 20
504.7496274587519
 30
0.0
 11
1051.192162937446
 21
504.7496274587519
 31
0.0
  0
CIRCLE
  5
27A
330
17
100
AcDbEntity
  8
4
100
AcDbCircle
 10
1040.192162937447
 20
521.7496274587519
 30
0.0
 40
15.0
  0
LINE
  5
27B
330
17
100
AcDbEntity
  8
4
100
AcDbLine
 10
1060.192162937447
 20
493.4398154587519
 30
0.0
 11
1060.192162937447
 21
495.7496274587519
 31
0.0
  0
LINE
  5
27C
330
17
100
AcDbEntity
  8
4
100
AcDbLine
 10
1020.192162937447
 20
491.6495314587518
 30
0.0
 11
1020.192162937447
 21
495.7496274587519
 31
0.0
  0
ARC
  5
27D
330
17
100
AcDbEntity
  8
4
100
AcDbCircle
 10
1025.762072928153
 20
477.8703661612921
 30
0.0
 40
13.77916529745958
100
AcDbArc
 50
69.13593563608057
 51
110.8640643639194
  0
LINE
  5
27E
330
17
100
AcDbEntity
  8
4
100
AcDbLine
 10
1020.854595640041
 20
490.7460045128995
 30
0.0
 11
1020.854595640041
 21
484.6495314587518
 31
0.0
  0
LINE
  5
27F
330
17
100
AcDbEntity
  8
4
100
AcDbLine
 10
1030.669550216264
 20
490.7460045128995
 30
0.0
 11
1030.669550216264
 21
484.6495314587518
 31
0.0
  0
ARC
  5
280
330
17
100
AcDbEntity
  8
4
100
AcDbCircle
 10
1033.12328886032
 20
487.8659175296924
 30
0.0
 40
3.783613929059507
100
AcDbArc
 50
49.57010315517714
 51
130.4298968448228
  0
LINE
  5
281
330
17
100
AcDbEntity
  8
4
100
AcDbLine
 10
1035.577027504376
 20
482.1495314587518
 30
0.0
 11
1035.577027504376
 21
490.7460045128995
 31
0.0
  0
LINE
  5
282
330
17
100
AcDbEntity
  8
4
100
AcDbLine
 10
1039.558790746526
 20
431.235813392059
 30
0.0
 11
1042.099087917668
 21
440.7163315010872
 31
0.0
  0
LINE
  5
283
330
17
100
AcDbEntity
  8
4
100
AcDbLine
 10
1025.678348870754
 20
445.1162552678301
 30
0.0
 11
1023.138051699611
 21
435.6357371588016
 31
0.0
  0
LINE
  5
284
330
17
100
AcDbEntity
  8
4
100
AcDbLine
 10
1023.138051699611
 20
435.6357371588016
 30
0.0
 11
1030.078272637497
 21
428.6955162209159
 31
0.0
  0
LINE
  5
285
330
17
100
AcDbEntity
  8
4
100
AcDbLine
 10
1035.158866979783
 20
447.6565524389731
 30
0.0
 11
1025.678348870754
 21
445.1162552678301
 31
0.0
  0
CIRCLE
  5
286
330
17
100
AcDbEntity
  8
4
100
AcDbCircle
 10
1032.61856980864
 20
438.1760343299444
 30
0.0
 40
8.5
  0
LINE
  5
287
330
17
100
AcDbEntity
  8
4
100
AcDbLine
 10
1030.078272637497
 20
428.6955162209159
 30
0.0
 11
1039.558790746526
 21
431.235813392059
 31
0.0
  0
LINE
  5
288
330
17
100
AcDbEntity
  8
4
100
AcDbLine
 10
1042.099087917668
 20
440.7163315010872
 30
0.0
 11
1035.158866979783
 21
447.6565524389731
 31
0.0
  0
LINE
  5
289
330
17
100
AcDbEntity
  8
L-CENTER
 48
8.0
100
AcDbLine
 10
1025.762072928153
 20
458.4135520891182
 30
0.0
 11
1025.762072928153
 21
494.5175097133318
 31
0.0
  0
LINE
  5
28A
330
17
100
AcDbEntity
  8
4
100
AcDbLine
 10
1020.192162937447
 20
495.7496274587519
 30
0.0
 11
1060.192162937447
 21
495.7496274587519
 31
0.0
  0
LINE
  5
28B
330
17
100
AcDbEntity
  8
L-CENTER
 48
8.0
100
AcDbLine
 10
1040.192162937447
 20
474.5037794587519
 30
0.0
 11
1040.192162937447
 21
554.8708066048356
 31
0.0
  0
LINE
  5
28C
330
17
100
AcDbEntity
  8
4
100
AcDbLine
 10
1029.192162937447
 20
504.7496274587519
 30
0.0
 11
1027.692162937447
 21
495.7496274587519
 31
0.0
  0
ARC
  5
28D
330
17
100
AcDbEntity
  8
4
100
AcDbCircle
 10
1023.964546075927
 20
497.7149764108229
 30
0.0
 40
4.0
100
AcDbArc
 50
350.5376777919744
 51
55.97372733978618
  0
ARC
  5
28E
330
17
100
AcDbEntity
  8
4
100
AcDbCircle
 10
1056.419779798967
 20
497.7149764108232
 30
0.0
 40
4.0
100
AcDbArc
 50
124.0262726602211
 51
189.4623222080256
  0
LINE
  5
28F
330
17
100
AcDbEntity
  8
4
100
AcDbLine
 10
1051.192162937446
 20
504.7496274587519
 30
0.0
 11
1052.692162937447
 21
495.7496274587519
 31
0.0
  0
LINE
  5
290
330
17
100
AcDbEntity
  8
4
100
AcDbLine
 10
1015.947118351929
 20
490.7460045128995
 30
0.0
 11
1015.947118351929
 21
482.1495314587518
 31
0.0
  0
ARC
  5
291
330
17
100
AcDbEntity
  8
4
100
AcDbCircle
 10
995.1921629374469
 20
480.1495314587518
 30
0.0
 40
2.0
100
AcDbArc
 50
90.0
 51
180.0
  0
LINE
  5
292
330
17
100
AcDbEntity
  8
4
100
AcDbLine
 10
991.1921629374469
 20
465.7486514587516
 30
0.0
 11
991.1921629374469
 21
467.7496274587519
 31
0.0
  0
LINE
  5
293
330
17
100
AcDbEntity
  8
4
100
AcDbLine
 10
993.1921629374469
 20
467.7496274587519
 30
0.0
 11
993.1921629374469
 21
469.7496274587519
 31
0.0
  0
LINE
  5
294
330
17
100
AcDbEntity
  8
4
100
AcDbLine
 10
993.1921629374469
 20
480.1495314587518
 30
0.0
 11
993.1921629374469
 21
469.7496274587519
 31
0.0
  0
LINE
  5
295
330
17
100
AcDbEntity
  8
4
100
AcDbLine
 10
984.1921629374469
 20
465.7049514587519
 30
0.0
 11
984.1921629374469
 21
468.7496274587519
 31
0.0
  0
LINE
  5
296
330
17
100
AcDbEntity
  8
4
100
AcDbLine
 10
957.2462741752825
 20
435.6357371588016
 30
0.0
 11
954.7059770041392
 21
445.1162552678304
 31
0.0
  0
LINE
  5
297
330
17
100
AcDbEntity
  8
4
100
AcDbLine
 10
950.3060532373966
 20
428.695516220916
 30
0.0
 11
957.2462741752825
 21
435.6357371588016
 31
0.0
  0
ARC
  5
298
330
17
100
AcDbEntity
  8
4
100
AcDbCircle
 10
1040.192162937447
 20
521.7496274587519
 30
0.0
 40
25.0
100
AcDbArc
 50
304.026272660216
 51
235.973727339784
  0
LINE
  5
299
330
17
100
AcDbEntity
  8
L-CENTER
 48
8.0
100
AcDbLine
 10
1007.070983791363
 20
521.7496274587519
 30
0.0
 11
1073.313342083531
 21
521.7496274587519
 31
0.0
  0
LINE
  5
29A
330
17
100
AcDbEntity
  8
4
100
AcDbLine
 10
1033.12328886032
 20
491.6495314587518
 30
0.0
 11
1018.400856995985
 21
491.6495314587518
 31
0.0
  0
LINE
  5
29B
330
17
100
AcDbEntity
  8
4
100
AcDbLine
 10
1015.947118351929
 20
484.6495314587518
 30
0.0
 11
1035.577027504376
 21
484.6495314587518
 31
0.0
  0
LINE
  5
29C
330
17
100
AcDbEntity
  8
4
100
AcDbLine
 10
1015.947118351929
 20
482.1495314587518
 30
0.0
 11
1035.577027504376
 21
482.1495314587518
 31
0.0
  0
ARC
  5
29D
330
17
100
AcDbEntity
  8
4
100
AcDbCircle
 10
1018.400856995985
 20
487.8659175296924
 30
0.0
 40
3.783613929059507
100
AcDbArc
 50
49.57010315516856
 51
130.4298968448315
  0
LINE
  5
29E
330
17
100
AcDbEntity
  8
4
100
AcDbLine
 10
1039.558790746526
 20
360.263441525445
 30
0.0
 11
1030.078272637497
 21
362.8037386965877
 31
0.0
  0
LINE
  5
29F
330
17
100
AcDbEntity
  8
4
100
AcDbLine
 10
1023.138051699611
 20
355.8635177587022
 30
0.0
 11
1025.678348870754
 21
346.3829996496734
 31
0.0
  0
LINE
  5
2A0
330
17
100
AcDbEntity
  8
4
100
AcDbLine
 10
1025.678348870754
 20
346.3829996496734
 30
0.0
 11
1035.158866979782
 21
343.8427024785307
 31
0.0
  0
LINE
  5
2A1
330
17
100
AcDbEntity
  8
4
100
AcDbLine
 10
1035.158866979782
 20
343.8427024785307
 30
0.0
 11
1042.099087917668
 21
350.7829234164162
 31
0.0
  0
ARC
  5
2A2
330
17
100
AcDbEntity
  8
4
100
AcDbCircle
 10
1030.192162937447
 20
302.749383458752
 30
0.0
 40
25.0
100
AcDbArc
 50
0.0
 51
90.0
  0
LINE
  5
2A3
330
17
100
AcDbEntity
  8
L-CENTER
 48
8.0
100
AcDbLine
 10
1045.408212075934
 20
340.5335783202654
 30
0.0
 11
1019.828927541346
 21
366.112862854853
 31
0.0
  0
CIRCLE
  5
2A4
330
17
100
AcDbEntity
  8
4
100
AcDbCircle
 10
1032.61856980864
 20
353.3232205875591
 30
0.0
 40
8.5
  0
LINE
  5
2A5
330
17
100
AcDbEntity
  8
4
100
AcDbLine
 10
1042.099087917668
 20
350.7829234164162
 30
0.0
 11
1039.558790746526
 21
360.263441525445
 31
0.0
  0
LINE
  5
2A6
330
17
100
AcDbEntity
  8
4
100
AcDbLine
 10
1030.078272637497
 20
362.8037386965877
 30
0.0
 11
1023.138051699611
 21
355.8635177587022
 31
0.0
  0
ARC
  5
2AC
330
17
100
AcDbEntity
  8
4
100
AcDbCircle
 10
985.1921629374469
 20
320.7801434587517
 30
0.0
 40
4.999948000000001
100
AcDbArc
 50
0.0
 51
89.29216899999818
  0
LINE
  5
2AD
330
17
100
AcDbEntity
  8
4
100
AcDbLine
 10
954.7059770041396
 20
346.3829996496736
 30
0.0
 11
957.2462741752825
 21
355.8635177587018
 31
0.0
  0
LINE
  5
2AE
330
17
100
AcDbEntity
  8
4
100
AcDbLine
 10
957.2462741752825
 20
355.8635177587018
 30
0.0
 11
950.306053237397
 21
362.8037386965877
 31
0.0
  0
LINE
  5
2B0
330
17
100
AcDbEntity
  8
4
100
AcDbLine
 10
1030.192162937447
 20
327.749383458752
 30
0.0
 11
1006.804466937447
 21
327.749383458752
 31
0.0
  0
LINE
  5
2B1
330
17
100
AcDbEntity
  8
L-CENTER
 48
8.0
100
AcDbLine
 10
990.1921629374469
 20
472.705355169522
 30
0.0
 11
990.1921629374469
 21
318.7938997479818
 31
0.0
  0
LINE
  5
2B2
330
17
100
AcDbEntity
  8
L-CENTER
 48
8.0
100
AcDbLine
 10
1045.408212075934
 20
450.9656765972384
 30
0.0
 11
1019.828927541346
 21
425.3863920626508
 31
0.0
  0
LINE
  5
2B3
330
17
100
AcDbEntity
  8
4
100
AcDbLine
 10
1035.577027504376
 20
485.0759922773985
 30
0.0
 11
1108.192162937447
 21
509.7496274587519
 31
0.0
  0
LINE
  5
2B4
330
17
100
AcDbEntity
  8
4
100
AcDbLine
 10
1120.917502937447
 20
465.7498714587517
 30
0.0
 11
990.1921629374469
 21
465.7498714587517
 31
0.0
  0
LINE
  5
2B5
330
17
100
AcDbEntity
  8
4
100
AcDbLine
 10
1219.192162937447
 20
270.7496274587519
 30
0.0
 11
1214.192162937447
 21
265.7496274587519
 31
0.0
  0
LINE
  5
2B6
330
17
100
AcDbEntity
  8
4
100
AcDbLine
 10
1212.121362937447
 20
270.7496274587519
 30
0.0
 11
1227.121362937447
 21
285.7496274587519
 31
0.0
  0
LINE
  5
2B7
330
17
100
AcDbEntity
  8
4
100
AcDbLine
 10
1111.192162937447
 20
270.7496274587519
 30
0.0
 11
1116.192162937447
 21
265.7496274587519
 31
0.0
  0
ARC
  5
2B8
330
17
100
AcDbEntity
  8
4
100
AcDbCircle
 10
1101.435082937447
 20
282.7496274587519
 30
0.0
 40
3.000012
100
AcDbArc
 50
90.0
 51
134.9999859999998
  0
LINE
  5
2B9
330
17
100
AcDbEntity
  8
4
100
AcDbLine
 10
1118.262718937447
 20
270.7496274587519
 30
0.0
 11
1103.262718937447
 21
285.7496274587519
 31
0.0
  0
LINE
  5
2BC
330
17
100
AcDbEntity
  8
4
100
AcDbLine
 10
1214.192162937447
 20
265.7496274587519
 30
0.0
 11
1116.192162937447
 21
265.7496274587519
 31
0.0
  0
LINE
  5
2BD
330
17
100
AcDbEntity
  8
4
100
AcDbLine
 10
1228.949242937447
 20
285.7496274587519
 30
0.0
 11
1101.435082937447
 21
285.7496274587519
 31
0.0
  0
ARC
  5
2BE
330
17
100
AcDbEntity
  8
4
100
AcDbCircle
 10
1080.192162937447
 20
258.6783394587518
 30
0.0
 40
4.999992
100
AcDbArc
 50
135.0019770000039
 51
180.0
  0
ARC
  5
2BF
330
17
100
AcDbEntity
  8
4
100
AcDbCircle
 10
1072.192162937447
 20
277.7496274587519
 30
0.0
 40
3.0
100
AcDbArc
 50
0.0
 51
90.0
  0
ARC
  5
2C0
330
17
100
AcDbEntity
  8
4
100
AcDbCircle
 10
1062.192162937447
 20
277.7496274587519
 30
0.0
 40
3.0
100
AcDbArc
 50
0.0
 51
90.0
  0
LINE
  5
2C1
330
17
100
AcDbEntity
  8
4
100
AcDbLine
 10
1075.192162937447
 20
277.7496274587519
 30
0.0
 11
1075.192162937447
 21
245.7496274587519
 31
0.0
  0
ARC
  5
2C4
330
17
100
AcDbEntity
  8
4
100
AcDbCircle
 10
993.1921629374469
 20
277.7496274587519
 30
0.0
 40
3.0
100
AcDbArc
 50
90.0
 51
180.0
  0
LINE
  5
2C7
330
17
100
AcDbEntity
  8
4
100
AcDbLine
 10
1072.192162937447
 20
280.7496274587519
 30
0.0
 11
993.1921629374469
 21
280.7496274587519
 31
0.0
  0
LINE
  5
2C8
330
17
100
AcDbEntity
  8
4
100
AcDbLine
 10
1075.192162937447
 20
245.7496274587519
 30
0.0
 11
990.1921629374469
 21
245.7496274587519
 31
0.0
  0
LINE
  5
2C9
330
17
100
AcDbEntity
  8
4
100
AcDbLine
 10
1076.656518937447
 20
262.213739458752
 30
0.0
 11
1099.313746937447
 21
284.870963458752
 31
0.0
  0
LINE
  5
2CA
330
17
100
AcDbEntity
  8
4
100
AcDbLine
 10
1085.192406937447
 20
270.7496274587519
 30
0.0
 11
1118.262718937447
 21
270.7496274587519
 31
0.0
  0
LINE
  5
2CB
330
17
100
AcDbEntity
  8
4
100
AcDbLine
 10
1055.192162937447
 20
327.749383458752
 30
0.0
 11
1055.192162937447
 21
280.7496274587519
 31
0.0
  0
LINE
  5
2CC
330
17
100
AcDbEntity
  8
4
100
AcDbLine
 10
990.1921629374469
 20
320.7801434587517
 30
0.0
 11
990.1921629374469
 21
245.7496274587519
 31
0.0
  0
LINE
  5
2CD
330
17
100
AcDbEntity
  8
4
100
AcDbLine
 10
1065.192162937447
 20
327.749383458752
 30
0.0
 11
1065.192162937447
 21
245.7496274587519
 31
0.0
  0
LINE
  5
2CE
330
17
100
AcDbEntity
  8
4
100
AcDbLine
 10
938.2852379572255
 20
440.7163315010876
 30
0.0
 11
940.8255351283683
 21
431.2358133920587
 31
0.0
  0
LINE
  5
2CF
330
17
100
AcDbEntity
  8
4
100
AcDbLine
 10
945.2254588951109
 20
447.6565524389731
 30
0.0
 11
938.2852379572255
 21
440.7163315010876
 31
0.0
  0
ARC
  5
2D0
330
17
100
AcDbEntity
  8
4
100
AcDbCircle
 10
929.8313229374471
 20
456.110711458752
 30
0.0
 40
5.000004
100
AcDbArc
 50
98.78806199999937
 51
171.2087460000003
  0
LINE
  5
2D1
330
17
100
AcDbEntity
  8
4
100
AcDbLine
 10
934.1921629374469
 20
461.8104194587521
 30
0.0
 11
934.1921629374469
 21
468.7496274587519
 31
0.0
  0
LINE
  5
2D2
330
17
100
AcDbEntity
  8
4
100
AcDbLine
 10
938.2852379572255
 20
350.7829234164162
 30
0.0
 11
945.2254588951109
 21
343.8427024785306
 31
0.0
  0
ARC
  5
2D3
330
17
100
AcDbEntity
  8
4
100
AcDbCircle
 10
929.8313229374471
 20
335.3885434587518
 30
0.0
 40
5.000004
100
AcDbArc
 50
188.7912539999997
 51
261.2119359999982
  0
LINE
  5
2D4
330
17
100
AcDbEntity
  8
4
100
AcDbLine
 10
940.8255351283683
 20
360.2634415254447
 30
0.0
 11
938.2852379572255
 21
350.7829234164162
 31
0.0
  0
ARC
  5
2D5
330
17
100
AcDbEntity
  8
4
100
AcDbCircle
 10
1320.192162937447
 20
395.7496274587519
 30
0.0
 40
399.999996
100
AcDbArc
 50
171.210439
 51
188.790021
  0
TEXT
  5
2E2
330
17
100
AcDbEntity
  8
3
100
AcDbText
 10
748.1746615950469
 20
177.0363974650762
 30
0.0
 40
12.0
  1
LC7-03
  7
KANJI
 72
     1
 11
781.1746615950469
 21
177.0363974650762
 31
0.0
100
AcDbText
  0
CIRCLE
  5
2E4
330
17
100
AcDbEntity
  8
4
100
AcDbCircle
 10
990.1921629374469
 20
395.7496274587519
 30
0.0
 40
70.0
  0
CIRCLE
  5
2E5
330
17
100
AcDbEntity
  8
L-CENTER
 48
8.0
100
AcDbCircle
 10
990.1921629374469
 20
395.7496274587519
 30
0.0
 40
60.0
  0
ARC
  5
2E6
330
17
100
AcDbEntity
  8
4
100
AcDbCircle
 10
990.1921629374469
 20
725.7493834587522
 30
0.0
 40
399.999964
100
AcDbArc
 50
261.2104389999999
 51
269.293052
  0
LINE
  5
2E7
330
17
100
AcDbEntity
  8
L-CENTER
 48
8.0
100
AcDbLine
 10
934.9761137989603
 20
340.5335783202653
 30
0.0
 11
960.555398333548
 21
366.1128628548528
 31
0.0
  0
ARC
  5
2E8
330
17
100
AcDbEntity
  8
4
100
AcDbCircle
 10
990.1921629374469
 20
65.74987145875173
 30
0.0
 40
400.000016
100
AcDbArc
 50
89.99996499999996
 51
98.790056
  0
LINE
  5
2E9
330
17
100
AcDbEntity
  8
L-CENTER
 48
8.0
100
AcDbLine
 10
934.9761137989603
 20
450.9656765972385
 30
0.0
 11
960.555398333548
 21
425.386392062651
 31
0.0
  0
LINE
  5
2EA
330
17
100
AcDbEntity
  8
4
100
AcDbLine
 10
934.1921629374469
 20
468.7496274587519
 30
0.0
 11
984.1921629374469
 21
468.7496274587519
 31
0.0
  0
CIRCLE
  5
2EB
330
17
100
AcDbEntity
  8
4
100
AcDbCircle
 10
947.7657560662537
 20
438.1760343299445
 30
0.0
 40
8.5
  0
LINE
  5
2EC
330
17
100
AcDbEntity
  8
4
100
AcDbLine
 10
940.8255351283683
 20
431.2358133920587
 30
0.0
 11
950.3060532373966
 21
428.695516220916
 31
0.0
  0
LINE
  5
2ED
330
17
100
AcDbEntity
  8
4
100
AcDbLine
 10
954.7059770041392
 20
445.1162552678304
 30
0.0
 11
945.2254588951109
 21
447.6565524389731
 31
0.0
  0
CIRCLE
  5
2EE
330
17
100
AcDbEntity
  8
4
100
AcDbCircle
 10
947.7657560662537
 20
353.323220587559
 30
0.0
 40
8.5
  0
LINE
  5
2EF
330
17
100
AcDbEntity
  8
4
100
AcDbLine
 10
945.2254588951109
 20
343.8427024785306
 30
0.0
 11
954.7059770041396
 21
346.3829996496736
 31
0.0
  0
LINE
  5
2F0
330
17
100
AcDbEntity
  8
4
100
AcDbLine
 10
950.306053237397
 20
362.8037386965877
 30
0.0
 11
940.8255351283683
 21
360.2634415254447
 31
0.0
  0
ARC
  5
2F3
330
17
100
AcDbEntity
  8
4
100
AcDbCircle
 10
1228.949242937447
 20
282.7496274587519
 30
0.0
 40
3.000012
100
AcDbArc
 50
44.99999999999232
 51
90.0
  0
LINE
  5
2F4
330
17
100
AcDbEntity
  8
4
100
AcDbLine
 10
1245.191918937447
 20
270.7496274587519
 30
0.0
 11
1212.121362937447
 21
270.7496274587519
 31
0.0
  0
LINE
  5
2F6
330
17
100
AcDbEntity
  8
4
100
AcDbLine
 10
1294.807298370517
 20
485.0759922773987
 30
0.0
 11
1222.192162937447
 21
509.7496274587519
 31
0.0
  0
LINE
  5
2F7
330
17
100
AcDbEntity
  8
4
100
AcDbLine
 10
1339.192162937447
 20
467.7496274587519
 30
0.0
 11
991.1921629374469
 21
467.7496274587519
 31
0.0
  0
LINE
  5
2F8
330
17
100
AcDbEntity
  8
4
100
AcDbLine
 10
1337.192162937447
 20
469.7496274587519
 30
0.0
 11
993.1921629374469
 21
469.7496274587519
 31
0.0
  0
LINE
  5
2F9
330
17
100
AcDbEntity
  8
4
100
AcDbLine
 10
1335.192162937447
 20
482.1495314587518
 30
0.0
 11
995.1921629374469
 21
482.1495314587518
 31
0.0
  0
LINE
  5
2FA
330
17
100
AcDbEntity
  8
L-CENTER
 48
8.0
100
AcDbLine
 10
1361.648539471442
 20
395.7496274587519
 30
0.0
 11
913.2364352266768
 21
395.7496274587519
 31
0.0
  0
LINE
  5
2FC
330
17
100
AcDbEntity
  8
L-CENTER
 48
8.0
100
AcDbLine
 10
1165.192162937447
 20
536.5563874746621
 30
0.0
 11
1165.192162937447
 21
149.8388457039597
 31
0.0
  0
ARC
  5
308
330
17
100
AcDbEntity
  8
4
100
AcDbCircle
 10
655.4351216783193
 20
1197.193771256207
 30
0.0
 40
5.0
100
AcDbArc
 50
0.0
 51
90.0
  0
LINE
  5
309
330
17
100
AcDbEntity
  8
4
100
AcDbLine
 10
655.4351216783193
 20
1202.193771256207
 30
0.0
 11
545.3766056839281
 21
1202.193771256207
 31
0.0
  0
ARC
  5
30A
330
17
100
AcDbEntity
  8
4
100
AcDbCircle
 10
607.182599472731
 20
1174.941249050619
 30
0.0
 40
5.0
100
AcDbArc
 50
17.24507909832826
 51
72.75492090167175
  0
LINE
  5
30B
330
17
100
AcDbEntity
  8
4
100
AcDbLine
 10
540.4351216783193
 20
1198.096987620044
 30
0.0
 11
540.4351216783193
 21
1198.193771256207
 31
0.0
  0
ARC
  5
30C
330
17
100
AcDbEntity
  8
4
100
AcDbCircle
 10
538.4351216783193
 20
1198.096987620044
 30
0.0
 40
2.0
100
AcDbArc
 50
261.061252144319
 51
352.5864041388693
  0
LINE
  5
30D
330
17
100
AcDbEntity
  8
4
100
AcDbLine
 10
480.4351216783202
 20
1205.193771256206
 30
0.0
 11
480.4351216783202
 21
1203.711467853246
 31
0.0
  0
ARC
  5
30E
330
17
100
AcDbEntity
  8
4
100
AcDbCircle
 10
482.4351216783202
 20
1203.711467853246
 30
0.0
 40
2.0
100
AcDbArc
 50
180.0
 51
267.4882251241377
  0
LINE
  5
30F
330
17
100
AcDbEntity
  8
4
100
AcDbLine
 10
440.4351216783193
 20
1205.193771256206
 30
0.0
 11
440.4351216783193
 21
1203.711467853246
 31
0.0
  0
ARC
  5
310
330
17
100
AcDbEntity
  8
4
100
AcDbCircle
 10
438.4351216783193
 20
1203.711467853246
 30
0.0
 40
2.0
100
AcDbArc
 50
272.5117748758622
 51
0.0
  0
LINE
  5
311
330
17
100
AcDbEntity
  8
4
100
AcDbLine
 10
460.4351216783193
 20
1205.193771256206
 30
0.0
 11
440.4351216783193
 21
1205.193771256206
 31
0.0
  0
LINE
  5
312
330
17
100
AcDbEntity
  8
4
100
AcDbLine
 10
460.4351216783202
 20
1205.193771256206
 30
0.0
 11
480.4351216783202
 21
1205.193771256206
 31
0.0
  0
ARC
  5
313
330
17
100
AcDbEntity
  8
4
100
AcDbCircle
 10
545.3766056839281
 20
1197.193771256207
 30
0.0
 40
5.0
100
AcDbArc
 50
90.0
 51
172.5864041388691
  0
LINE
  5
314
330
17
100
AcDbEntity
  8
4
100
AcDbLine
 10
647.4269960547458
 20
1129.064926575031
 30
0.0
 11
647.4269960547458
 21
1137.427065369153
 31
0.0
  0
ARC
  5
315
330
17
100
AcDbEntity
  8
4
100
AcDbCircle
 10
655.4351216783193
 20
1131.940115873121
 30
0.0
 40
5.0
100
AcDbArc
 50
286.313839659767
 51
0.0
  0
LINE
  5
316
330
17
100
AcDbEntity
  8
4
100
AcDbLine
 10
622.1356667317054
 20
1138.193771256207
 30
0.0
 11
645.4351216783193
 21
1138.193771256207
 31
0.0
  0
LINE
  5
317
330
17
100
AcDbEntity
  8
4
100
AcDbLine
 10
624.3330702349563
 20
1128.193771256207
 30
0.0
 11
645.4351216783193
 21
1128.193771256207
 31
0.0
  0
ARC
  5
318
330
17
100
AcDbEntity
  8
4
100
AcDbCircle
 10
631.9784989493241
 20
1114.655252470456
 30
0.0
 40
5.0
100
AcDbArc
 50
106.313839659779
 51
189.8582281160408
  0
LINE
  5
319
330
17
100
AcDbEntity
  8
4
100
AcDbLine
 10
630.5740062522004
 20
1119.453939818442
 30
0.0
 11
656.839614375443
 21
1127.141428525134
 31
0.0
  0
ARC
  5
31A
330
17
100
AcDbEntity
  8
4
100
AcDbCircle
 10
645.4351216783193
 20
1126.193771256207
 30
0.0
 40
2.0
100
AcDbArc
 50
9.325796806966256
 51
90.0
  0
ARC
  5
31B
330
17
100
AcDbEntity
  8
4
100
AcDbCircle
 10
645.4351216783193
 20
1140.193771256207
 30
0.0
 40
2.0
100
AcDbArc
 50
270.0
 51
350.6742031930337
  0
LINE
  5
31C
330
17
100
AcDbEntity
  8
L-CENTER
 48
8.0
100
AcDbLine
 10
614.0585050229024
 20
1173.193771256207
 30
0.0
 11
656.8117383337353
 21
1173.193771256207
 31
0.0
  0
LINE
  5
31D
330
17
100
AcDbEntity
  8
4
100
AcDbLine
 10
549.4351216783189
 20
1162.716383977389
 30
0.0
 11
549.4351216783189
 21
1172.531338553613
 31
0.0
  0
ARC
  5
31E
330
17
100
AcDbEntity
  8
4
100
AcDbCircle
 10
602.8466487331793
 20
1064.634915062389
 30
0.0
 40
3.0
100
AcDbArc
 50
263.8219690802268
 51
14.35321688727734
  0
LINE
  5
31F
330
17
100
AcDbEntity
  8
4
100
AcDbLine
 10
629.9351216783193
 20
1023.286293968094
 30
0.0
 11
629.9351216783193
 21
1033.101248544318
 31
0.0
  0
LINE
  5
320
330
17
100
AcDbEntity
  8
4
100
AcDbLine
 10
612.9351216783193
 20
1033.101248544318
 30
0.0
 11
612.9351216783193
 21
1023.286293968094
 31
0.0
  0
LINE
  5
321
330
17
100
AcDbEntity
  8
4
100
AcDbLine
 10
612.9351216783193
 20
1023.286293968094
 30
0.0
 11
621.4351216783193
 21
1018.378816679983
 31
0.0
  0
LINE
  5
322
330
17
100
AcDbEntity
  8
4
100
AcDbLine
 10
621.4351216783193
 20
1018.378816679983
 30
0.0
 11
629.9351216783193
 21
1023.286293968094
 31
0.0
  0
LINE
  5
323
330
17
100
AcDbEntity
  8
4
100
AcDbLine
 10
647.4269960547458
 20
927.3226159373821
 30
0.0
 11
647.4269960547458
 21
918.9604771432596
 31
0.0
  0
ARC
  5
324
330
17
100
AcDbEntity
  8
4
100
AcDbCircle
 10
651.0515077492605
 20
902.9813940595668
 30
0.0
 40
3.783613929059507
100
AcDbArc
 50
319.5701031551734
 51
40.42989684483145
  0
LINE
  5
325
330
17
100
AcDbEntity
  8
4
100
AcDbLine
 10
653.9315947324676
 20
900.5276554155112
 30
0.0
 11
647.8351216783199
 21
900.5276554155112
 31
0.0
  0
ARC
  5
326
330
17
100
AcDbEntity
  8
4
100
AcDbCircle
 10
655.4351216783193
 20
924.4474266392922
 30
0.0
 40
5.0
100
AcDbArc
 50
0.0
 51
73.68616034023296
  0
LINE
  5
327
330
17
100
AcDbEntity
  8
4
100
AcDbLine
 10
624.4351216783184
 20
928.1937712562067
 30
0.0
 11
645.4351216783193
 21
928.1937712562067
 31
0.0
  0
ARC
  5
328
330
17
100
AcDbEntity
  8
4
100
AcDbCircle
 10
631.9784989493241
 20
941.7322900419572
 30
0.0
 40
5.0
100
AcDbArc
 50
170.1417718839646
 51
253.6861603402222
  0
LINE
  5
329
330
17
100
AcDbEntity
  8
4
100
AcDbLine
 10
645.3351216783199
 20
918.1937712562067
 30
0.0
 11
645.4351216783193
 21
918.1937712562067
 31
0.0
  0
LINE
  5
32A
330
17
100
AcDbEntity
  8
4
100
AcDbLine
 10
629.4351216783184
 20
923.1937712562062
 30
0.0
 11
644.3351216783199
 21
923.1937712562062
 31
0.0
  0
ARC
  5
32B
330
17
100
AcDbEntity
  8
4
100
AcDbCircle
 10
644.3351216783199
 20
922.1937712562062
 30
0.0
 40
1.0
100
AcDbArc
 50
0.0
 51
90.0
  0
ARC
  5
32C
330
17
100
AcDbEntity
  8
4
100
AcDbCircle
 10
629.4351216783184
 20
928.1937712562062
 30
0.0
 40
5.0
100
AcDbArc
 50
168.5788137250024
 51
270.0
  0
ARC
  5
32D
330
17
100
AcDbEntity
  8
4
100
AcDbCircle
 10
645.4351216783193
 20
916.1937712562067
 30
0.0
 40
2.0
100
AcDbArc
 50
9.325796806966256
 51
90.0
  0
LINE
  5
32E
330
17
100
AcDbEntity
  8
4
100
AcDbLine
 10
630.5740062522004
 20
936.9336026939704
 30
0.0
 11
656.839614375443
 21
929.2461139872789
 31
0.0
  0
ARC
  5
32F
330
17
100
AcDbEntity
  8
4
100
AcDbCircle
 10
645.4351216783193
 20
930.1937712562067
 30
0.0
 40
2.0
100
AcDbArc
 50
270.0
 51
350.6742031930337
  0
LINE
  5
330
330
17
100
AcDbEntity
  8
4
100
AcDbLine
 10
645.3351216783199
 20
905.4351327036229
 30
0.0
 11
653.9315947324676
 21
905.4351327036229
 31
0.0
  0
LINE
  5
331
330
17
100
AcDbEntity
  8
L-CENTER
 48
8.0
100
AcDbLine
 10
623.0739535695984
 20
895.6201781273994
 30
0.0
 11
657.7030999328999
 21
895.6201781273994
 31
0.0
  0
ARC
  5
332
330
17
100
AcDbEntity
  8
4
100
AcDbCircle
 10
602.8466487331793
 20
991.7526274500233
 30
0.0
 40
3.0
100
AcDbArc
 50
345.6467831127227
 51
96.17803091977315
  0
CIRCLE
  5
333
330
17
100
AcDbEntity
  8
4
100
AcDbCircle
 10
621.4351216783193
 20
1028.193771256206
 30
0.0
 40
8.5
  0
LINE
  5
334
330
17
100
AcDbEntity
  8
4
100
AcDbLine
 10
621.4351216783193
 20
1038.00872583243
 30
0.0
 11
612.9351216783193
 21
1033.101248544318
 31
0.0
  0
LINE
  5
335
330
17
100
AcDbEntity
  8
4
100
AcDbLine
 10
629.9351216783193
 20
1033.101248544318
 30
0.0
 11
621.4351216783193
 21
1038.00872583243
 31
0.0
  0
LINE
  5
336
330
17
100
AcDbEntity
  8
4
100
AcDbLine
 10
532.4351216783189
 20
1172.531338553613
 30
0.0
 11
532.4351216783189
 21
1162.716383977389
 31
0.0
  0
LINE
  5
337
330
17
100
AcDbEntity
  8
4
100
AcDbLine
 10
532.4351216783189
 20
1162.716383977389
 30
0.0
 11
540.9351216783189
 21
1157.808906689278
 31
0.0
  0
ARC
  5
338
330
17
100
AcDbEntity
  8
4
100
AcDbCircle
 10
520.489968370794
 20
1077.573130533749
 30
0.0
 40
7.0
100
AcDbArc
 50
189.1358623749507
 51
263.8219690802366
  0
ARC
  5
339
330
17
100
AcDbEntity
  8
4
100
AcDbCircle
 10
508.5400458500922
 20
1076.29869542798
 30
0.0
 40
5.0
100
AcDbArc
 50
9.25832853322355
 51
80.74167146677732
  0
ARC
  5
33A
330
17
100
AcDbEntity
  8
4
100
AcDbCircle
 10
460.4351216783193
 20
781.1937712562062
 30
0.0
 40
304.0
100
AcDbArc
 50
80.74167146677688
 51
80.86413762504955
  0
ARC
  5
33B
330
17
100
AcDbEntity
  8
4
100
AcDbCircle
 10
213.4351216783193
 20
1028.193771256206
 30
0.0
 40
304.0
100
AcDbArc
 50
9.135862374950445
 51
9.258328533223192
  0
ARC
  5
33C
330
17
100
AcDbEntity
  8
4
100
AcDbCircle
 10
505.0429739636897
 20
1072.801623541577
 30
0.0
 40
5.0
100
AcDbArc
 50
8.697231615646842
 51
81.3027683843539
  0
ARC
  5
33D
330
17
100
AcDbEntity
  8
4
100
AcDbCircle
 10
509.8144809558621
 20
1088.248617948681
 30
0.0
 40
7.0
100
AcDbArc
 50
186.178030919767
 51
260.864137625049
  0
LINE
  5
33E
330
17
100
AcDbEntity
  8
4
100
AcDbLine
 10
493.8936885803487
 20
1170.282443837952
 30
0.0
 11
502.8551348461701
 21
1087.495290844748
 31
0.0
  0
ARC
  5
33F
330
17
100
AcDbEntity
  8
4
100
AcDbCircle
 10
460.4351216783193
 20
1153.193771256215
 30
0.0
 40
11.0
100
AcDbArc
 50
117.0356917894128
 51
242.964308210587
  0
ARC
  5
340
330
17
100
AcDbEntity
  8
4
100
AcDbCircle
 10
460.4351216783193
 20
1153.193771256215
 30
0.0
 40
12.5
100
AcDbArc
 50
113.578178478202
 51
246.4218215217978
  0
ARC
  5
341
330
17
100
AcDbEntity
  8
4
100
AcDbCircle
 10
460.4351216783193
 20
1133.193771256215
 30
0.0
 40
5.0
100
AcDbArc
 50
180.0
 51
0.0
  0
LINE
  5
342
330
17
100
AcDbEntity
  8
4
100
AcDbLine
 10
465.4351216783193
 20
1173.193771256215
 30
0.0
 11
465.4351216783193
 21
1133.193771256215
 31
0.0
  0
LINE
  5
343
330
17
100
AcDbEntity
  8
4
100
AcDbLine
 10
455.4351216783193
 20
1173.193771256215
 30
0.0
 11
455.4351216783193
 21
1133.193771256215
 31
0.0
  0
ARC
  5
344
330
17
100
AcDbEntity
  8
4
100
AcDbCircle
 10
460.4351216783193
 20
1153.193771256207
 30
0.0
 40
20.0
100
AcDbArc
 50
104.4775121859298
 51
255.5224878140699
  0
ARC
  5
345
330
17
100
AcDbEntity
  8
4
100
AcDbCircle
 10
415.8272693929484
 20
1072.801623541577
 30
0.0
 40
5.0
100
AcDbArc
 50
98.6972316156461
 51
171.3027683843532
  0
ARC
  5
346
330
17
100
AcDbEntity
  8
4
100
AcDbCircle
 10
707.4351216783193
 20
1028.193771256206
 30
0.0
 40
304.0
100
AcDbArc
 50
170.7416714667768
 51
170.8641376250496
  0
ARC
  5
347
330
17
100
AcDbEntity
  8
4
100
AcDbCircle
 10
412.330197506546
 20
1076.29869542798
 30
0.0
 40
5.0
100
AcDbArc
 50
96.10583124430215
 51
170.7416714667766
  0
ARC
  5
348
330
17
100
AcDbEntity
  8
4
100
AcDbCircle
 10
411.0538142791961
 20
1088.230620916221
 30
0.0
 40
7.0
100
AcDbArc
 50
276.1058312442983
 51
353.821969080233
  0
LINE
  5
349
330
17
100
AcDbEntity
  8
4
100
AcDbLine
 10
426.9765547762895
 20
1170.282443837952
 30
0.0
 11
418.0131603888876
 21
1087.477293812287
 31
0.0
  0
ARC
  5
34A
330
17
100
AcDbEntity
  8
4
100
AcDbCircle
 10
460.4351216783193
 20
781.1937712562062
 30
0.0
 40
300.0
100
AcDbArc
 50
81.30276838435314
 51
98.69723161564696
  0
ARC
  5
34B
330
17
100
AcDbEntity
  8
4
100
AcDbCircle
 10
460.4351216783193
 20
781.1937712562062
 30
0.0
 40
304.0
100
AcDbArc
 50
80.98726988084766
 51
99.07963110525684
  0
LINE
  5
34C
330
17
100
AcDbEntity
  8
L-CENTER
 48
8.0
100
AcDbLine
 10
490.6462482707193
 20
1153.193771256206
 30
0.0
 11
430.2239950859193
 21
1153.193771256206
 31
0.0
  0
ARC
  5
34D
330
17
100
AcDbEntity
  8
4
100
AcDbCircle
 10
460.4351216783193
 20
1153.193771256207
 30
0.0
 40
20.0
100
AcDbArc
 50
284.4775121859312
 51
75.52248781407022
  0
ARC
  5
34E
330
17
100
AcDbEntity
  8
4
100
AcDbCircle
 10
460.4351216783193
 20
1153.193771256215
 30
0.0
 40
11.0
100
AcDbArc
 50
297.0356917894127
 51
62.96430821058726
  0
ARC
  5
34F
330
17
100
AcDbEntity
  8
4
100
AcDbCircle
 10
460.4351216783193
 20
1153.193771256215
 30
0.0
 40
12.5
100
AcDbArc
 50
293.5781784782019
 51
66.42182152179805
  0
ARC
  5
350
330
17
100
AcDbEntity
  8
4
100
AcDbCircle
 10
508.5400458500922
 20
980.0888470844329
 30
0.0
 40
5.0
100
AcDbArc
 50
276.1058312443027
 51
353.8941687557032
  0
ARC
  5
351
330
17
100
AcDbEntity
  8
4
100
AcDbCircle
 10
520.4719713383338
 20
978.812463857083
 30
0.0
 40
7.0
100
AcDbArc
 50
96.17803091976711
 51
173.8941687556979
  0
ARC
  5
352
330
17
100
AcDbEntity
  8
4
100
AcDbCircle
 10
509.8164290774425
 20
968.1569215961918
 30
0.0
 40
7.0
100
AcDbArc
 50
96.10583124430154
 51
173.821969080233
  0
ARC
  5
353
330
17
100
AcDbEntity
  8
4
100
AcDbCircle
 10
505.0429739636897
 20
983.5859189708353
 30
0.0
 40
5.0
100
AcDbArc
 50
278.6972316156467
 51
351.3027683843532
  0
LINE
  5
354
330
17
100
AcDbEntity
  8
4
100
AcDbLine
 10
540.9351216783189
 20
898.5786358231353
 30
0.0
 11
532.4351216783189
 21
893.6711585350236
 31
0.0
  0
ARC
  5
359
330
17
100
AcDbEntity
  8
4
100
AcDbCircle
 10
460.4351216783193
 20
1275.193771256206
 30
0.0
 40
304.0
100
AcDbArc
 50
260.7416714667768
 51
260.8641376250495
  0
ARC
  5
35A
330
17
100
AcDbEntity
  8
4
100
AcDbCircle
 10
412.330197506546
 20
980.0888470844329
 30
0.0
 40
5.0
100
AcDbArc
 50
186.1058312442968
 51
260.7416714667767
  0
ARC
  5
35B
330
17
100
AcDbEntity
  8
4
100
AcDbCircle
 10
415.8272693929484
 20
983.5859189708353
 30
0.0
 40
5.0
100
AcDbArc
 50
188.6972316156468
 51
261.3027683843533
  0
ARC
  5
35C
330
17
100
AcDbEntity
  8
4
100
AcDbCircle
 10
411.0557624007765
 20
968.138924563731
 30
0.0
 40
7.0
100
AcDbArc
 50
6.178030919767034
 51
80.86413762504985
  0
ARC
  5
35D
330
17
100
AcDbEntity
  8
4
100
AcDbCircle
 10
460.4351216783193
 20
903.1937712561985
 30
0.0
 40
11.0
100
AcDbArc
 50
117.0356917894128
 51
242.964308210587
  0
ARC
  5
35E
330
17
100
AcDbEntity
  8
4
100
AcDbCircle
 10
460.4351216783193
 20
923.1937712561985
 30
0.0
 40
5.0
100
AcDbArc
 50
0.0
 51
180.0
  0
ARC
  5
35F
330
17
100
AcDbEntity
  8
4
100
AcDbCircle
 10
460.4351216783193
 20
1275.193771256206
 30
0.0
 40
300.0
100
AcDbArc
 50
261.3027683843531
 51
278.6972316156469
  0
ARC
  5
360
330
17
100
AcDbEntity
  8
4
100
AcDbCircle
 10
460.4351216783193
 20
1275.193771256206
 30
0.0
 40
304.0
100
AcDbArc
 50
261.0002099107622
 51
279.1400523637051
  0
LINE
  5
361
330
17
100
AcDbEntity
  8
L-CENTER
 48
8.0
100
AcDbLine
 10
490.6462482707325
 20
903.1937712562017
 30
0.0
 11
430.2239950859193
 21
903.1937712561949
 31
0.0
  0
ARC
  5
362
330
17
100
AcDbEntity
  8
4
100
AcDbCircle
 10
460.4351216783193
 20
903.1937712561985
 30
0.0
 40
11.0
100
AcDbArc
 50
297.0356917894127
 51
62.96430821058726
  0
ARC
  5
363
330
17
100
AcDbEntity
  8
4
100
AcDbCircle
 10
213.4351216783193
 20
1028.193771256206
 30
0.0
 40
300.0
100
AcDbArc
 50
351.3027683843529
 51
8.697231615646887
  0
ARC
  5
364
330
17
100
AcDbEntity
  8
4
100
AcDbCircle
 10
213.4351216783193
 20
1028.193771256206
 30
0.0
 40
304.0
100
AcDbArc
 50
351.0736358343416
 51
8.967030323081637
  0
ARC
  5
365
330
17
100
AcDbEntity
  8
4
100
AcDbCircle
 10
707.4351216783193
 20
1028.193771256206
 30
0.0
 40
300.0
100
AcDbArc
 50
171.3027683843531
 51
188.6972316156469
  0
ARC
  5
366
330
17
100
AcDbEntity
  8
4
100
AcDbCircle
 10
707.4351216783193
 20
1028.193771256206
 30
0.0
 40
304.0
100
AcDbArc
 50
171.0421033218041
 51
189.0426854594578
  0
CIRCLE
  5
367
330
17
100
AcDbEntity
  8
4
100
AcDbCircle
 10
460.4351216783193
 20
1028.193771256208
 30
0.0
 40
42.5
  0
LINE
  5
369
330
17
100
AcDbEntity
  8
4
100
AcDbLine
 10
602.5237942600647
 20
1061.652338158236
 30
0.0
 11
519.7366412668612
 21
1070.613784424057
 31
0.0
  0
LINE
  5
36A
330
17
100
AcDbEntity
  8
4
100
AcDbLine
 10
602.5237942600647
 20
994.7352043541769
 30
0.0
 11
519.7186442344005
 21
985.7718099667745
 31
0.0
  0
LINE
  5
36B
330
17
100
AcDbEntity
  8
4
100
AcDbLine
 10
540.9351216783189
 20
1157.808906689278
 30
0.0
 11
549.4351216783189
 21
1162.716383977389
 31
0.0
  0
LINE
  5
36C
330
17
100
AcDbEntity
  8
4
100
AcDbLine
 10
549.4351216783189
 20
893.6711585350236
 30
0.0
 11
540.9351216783189
 21
898.5786358231353
 31
0.0
  0
LINE
  5
36D
330
17
100
AcDbEntity
  8
4
100
AcDbLine
 10
660.4351216783193
 20
1131.940115873121
 30
0.0
 11
660.4351216783193
 21
1197.193771256207
 31
0.0
  0
LINE
  5
36E
330
17
100
AcDbEntity
  8
L-CENTER
 48
8.0
100
AcDbLine
 10
635.4351216783193
 20
1151.81715460079
 30
0.0
 11
635.4351216783193
 21
1194.570387911623
 31
0.0
  0
CIRCLE
  5
36F
330
17
100
AcDbEntity
  8
4
100
AcDbCircle
 10
635.4351216783193
 20
1173.193771256207
 30
0.0
 40
10.0
  0
ARC
  5
370
330
17
100
AcDbEntity
  8
4
100
AcDbCircle
 10
134.4351216783186
 20
1028.193771256207
 30
0.0
 40
500.0
100
AcDbArc
 50
0.0
 51
17.24507909832865
  0
ARC
  5
371
330
17
100
AcDbEntity
  8
4
100
AcDbCircle
 10
423.9939778721364
 20
1170.605298311066
 30
0.0
 40
3.0
100
AcDbArc
 50
353.8219690802355
 51
104.3532168872779
  0
ARC
  5
372
330
17
100
AcDbEntity
  8
4
100
AcDbCircle
 10
496.8762654845023
 20
1170.605298311066
 30
0.0
 40
3.0
100
AcDbArc
 50
75.64678311272212
 51
186.1780309197645
  0
LINE
  5
373
330
17
100
AcDbEntity
  8
L-CENTER
 48
8.0
100
AcDbLine
 10
549.1982342495362
 20
1181.935992067511
 30
0.0
 11
532.6720091071015
 21
1153.311730463492
 31
0.0
  0
ARC
  5
374
330
17
100
AcDbEntity
  8
4
100
AcDbCircle
 10
460.4351216783193
 20
1173.193771256215
 30
0.0
 40
5.0
100
AcDbArc
 50
0.0
 51
180.0
  0
CIRCLE
  5
375
330
17
100
AcDbEntity
  8
4
100
AcDbCircle
 10
540.9351216783189
 20
1167.623861265501
 30
0.0
 40
8.5
  0
LINE
  5
376
330
17
100
AcDbEntity
  8
4
100
AcDbLine
 10
540.9351216783189
 20
1177.438815841725
 30
0.0
 11
532.4351216783189
 21
1172.531338553613
 31
0.0
  0
LINE
  5
377
330
17
100
AcDbEntity
  8
4
100
AcDbLine
 10
549.4351216783189
 20
1172.531338553613
 30
0.0
 11
540.9351216783189
 21
1177.438815841725
 31
0.0
  0
ARC
  5
378
330
17
100
AcDbEntity
  8
4
100
AcDbCircle
 10
375.4936376727142
 20
1197.193771256206
 30
0.0
 40
5.0
100
AcDbArc
 50
7.413595861141392
 51
90.0
  0
ARC
  5
379
330
17
100
AcDbEntity
  8
4
100
AcDbCircle
 10
382.4351216783193
 20
1198.096987620044
 30
0.0
 40
2.0
100
AcDbArc
 50
187.413595861144
 51
278.9387478556665
  0
LINE
  5
37A
330
17
100
AcDbEntity
  8
4
100
AcDbLine
 10
380.4351216783193
 20
1198.096987620044
 30
0.0
 11
380.4351216783193
 21
1198.193771256207
 31
0.0
  0
ARC
  5
37B
330
17
100
AcDbEntity
  8
4
100
AcDbCircle
 10
313.6876438839076
 20
1174.941249050619
 30
0.0
 40
5.0
100
AcDbArc
 50
107.2450790983282
 51
162.7549209016717
  0
LINE
  5
37C
330
17
100
AcDbEntity
  8
4
100
AcDbLine
 10
375.4936376727142
 20
1202.193771256206
 30
0.0
 11
265.4351216783193
 21
1202.193771256206
 31
0.0
  0
ARC
  5
37D
330
17
100
AcDbEntity
  8
4
100
AcDbCircle
 10
265.4351216783193
 20
1197.193771256206
 30
0.0
 40
5.0
100
AcDbArc
 50
90.0
 51
180.0
  0
LINE
  5
37E
330
17
100
AcDbEntity
  8
4
100
AcDbLine
 10
388.4351216783189
 20
1162.716383977389
 30
0.0
 11
388.4351216783189
 21
1172.531338553613
 31
0.0
  0
LINE
  5
37F
330
17
100
AcDbEntity
  8
4
100
AcDbLine
 10
371.4351216783189
 20
1172.531338553613
 30
0.0
 11
371.4351216783189
 21
1162.716383977389
 31
0.0
  0
LINE
  5
380
330
17
100
AcDbEntity
  8
4
100
AcDbLine
 10
371.4351216783189
 20
1162.716383977389
 30
0.0
 11
379.9351216783189
 21
1157.808906689277
 31
0.0
  0
LINE
  5
381
330
17
100
AcDbEntity
  8
4
100
AcDbLine
 10
379.9351216783189
 20
1157.808906689277
 30
0.0
 11
388.4351216783189
 21
1162.716383977389
 31
0.0
  0
ARC
  5
382
330
17
100
AcDbEntity
  8
4
100
AcDbCircle
 10
288.8917444073145
 20
1114.655252470456
 30
0.0
 40
5.0
100
AcDbArc
 50
350.1417718839593
 51
73.68616034022796
  0
LINE
  5
383
330
17
100
AcDbEntity
  8
4
100
AcDbLine
 10
273.4432473018928
 20
1129.064926575035
 30
0.0
 11
273.4432473018933
 21
1137.427065369157
 31
0.0
  0
ARC
  5
384
330
17
100
AcDbEntity
  8
4
100
AcDbCircle
 10
275.4351216783193
 20
1126.19377125621
 30
0.0
 40
2.0
100
AcDbArc
 50
89.99999999998697
 51
170.674203193034
  0
LINE
  5
385
330
17
100
AcDbEntity
  8
4
100
AcDbLine
 10
290.2962371044382
 20
1119.453939818442
 30
0.0
 11
264.0306289811956
 21
1127.141428525134
 31
0.0
  0
ARC
  5
386
330
17
100
AcDbEntity
  8
4
100
AcDbCircle
 10
275.4351216783198
 20
1140.19377125621
 30
0.0
 40
2.0
100
AcDbArc
 50
189.325796806966
 51
270.0
  0
LINE
  5
387
330
17
100
AcDbEntity
  8
4
100
AcDbLine
 10
296.5371731216828
 20
1128.19377125621
 30
0.0
 11
275.4351216783193
 21
1128.19377125621
 31
0.0
  0
LINE
  5
388
330
17
100
AcDbEntity
  8
4
100
AcDbLine
 10
298.7345766249337
 20
1138.19377125621
 30
0.0
 11
275.4351216783198
 21
1138.19377125621
 31
0.0
  0
LINE
  5
389
330
17
100
AcDbEntity
  8
L-CENTER
 48
8.0
100
AcDbLine
 10
306.8117383337358
 20
1173.193771256207
 30
0.0
 11
264.0585050229029
 21
1173.193771256207
 31
0.0
  0
ARC
  5
38A
330
17
100
AcDbEntity
  8
4
100
AcDbCircle
 10
318.0235946234593
 20
1064.634915062389
 30
0.0
 40
3.0
100
AcDbArc
 50
165.6467831127227
 51
276.1780309197645
  0
LINE
  5
38B
330
17
100
AcDbEntity
  8
4
100
AcDbLine
 10
318.3464490965735
 20
1061.652338158236
 30
0.0
 11
401.1336020897775
 21
1070.613784424057
 31
0.0
  0
LINE
  5
38C
330
17
100
AcDbEntity
  8
4
100
AcDbLine
 10
379.9351216783189
 20
898.5786358231358
 30
0.0
 11
371.4351216783189
 21
893.671158535024
 31
0.0
  0
LINE
  5
38D
330
17
100
AcDbEntity
  8
4
100
AcDbLine
 10
388.4351216783189
 20
893.671158535024
 30
0.0
 11
379.9351216783189
 21
898.5786358231358
 31
0.0
  0
LINE
  5
38E
330
17
100
AcDbEntity
  8
4
100
AcDbLine
 10
307.9351216783193
 20
1023.286293968094
 30
0.0
 11
307.9351216783193
 21
1033.101248544318
 31
0.0
  0
LINE
  5
38F
330
17
100
AcDbEntity
  8
4
100
AcDbLine
 10
299.4351216783193
 20
1018.378816679983
 30
0.0
 11
307.9351216783193
 21
1023.286293968094
 31
0.0
  0
ARC
  5
390
330
17
100
AcDbEntity
  8
4
100
AcDbCircle
 10
318.0235946234593
 20
991.7526274500233
 30
0.0
 40
3.0
100
AcDbArc
 50
83.82196908023549
 51
194.3532168872684
  0
LINE
  5
391
330
17
100
AcDbEntity
  8
4
100
AcDbLine
 10
290.9351216783193
 20
1033.101248544318
 30
0.0
 11
290.9351216783193
 21
1023.286293968094
 31
0.0
  0
LINE
  5
392
330
17
100
AcDbEntity
  8
4
100
AcDbLine
 10
290.9351216783193
 20
1023.286293968094
 30
0.0
 11
299.4351216783193
 21
1018.378816679983
 31
0.0
  0
ARC
  5
393
330
17
100
AcDbEntity
  8
4
100
AcDbCircle
 10
288.8917444073145
 20
941.7322900419572
 30
0.0
 40
5.0
100
AcDbArc
 50
286.313839659772
 51
9.858228116035441
  0
LINE
  5
394
330
17
100
AcDbEntity
  8
4
100
AcDbLine
 10
296.4351216783161
 20
928.1937712562099
 30
0.0
 11
275.4351216783152
 21
928.1937712562103
 31
0.0
  0
LINE
  5
395
330
17
100
AcDbEntity
  8
4
100
AcDbLine
 10
290.2962371044382
 20
936.9336026939704
 30
0.0
 11
264.0306289811956
 21
929.2461139872789
 31
0.0
  0
LINE
  5
396
330
17
100
AcDbEntity
  8
4
100
AcDbLine
 10
287.4351216783202
 20
923.1937712562067
 30
0.0
 11
291.4351216783202
 21
923.1937712562067
 31
0.0
  0
LINE
  5
397
330
17
100
AcDbEntity
  8
4
100
AcDbLine
 10
273.4432473018887
 20
927.3226159373862
 30
0.0
 11
273.4432473018883
 21
918.9604771432637
 31
0.0
  0
ARC
  5
398
330
17
100
AcDbEntity
  8
4
100
AcDbCircle
 10
275.4351216783148
 20
916.1937712562103
 30
0.0
 40
2.0
100
AcDbArc
 50
89.99999999998697
 51
170.674203193034
  0
LINE
  5
399
330
17
100
AcDbEntity
  8
4
100
AcDbLine
 10
275.5351216783188
 20
918.1937712562103
 30
0.0
 11
275.4351216783148
 21
918.1937712562103
 31
0.0
  0
ARC
  5
39A
330
17
100
AcDbEntity
  8
4
100
AcDbCircle
 10
276.5351216783188
 20
922.1937712562062
 30
0.0
 40
1.0
100
AcDbArc
 50
90.0
 51
180.0
  0
LINE
  5
39B
330
17
100
AcDbEntity
  8
4
100
AcDbLine
 10
266.938648624171
 20
900.5276554155112
 30
0.0
 11
273.0351216783188
 21
900.5276554155112
 31
0.0
  0
LINE
  5
39C
330
17
100
AcDbEntity
  8
4
100
AcDbLine
 10
275.5351216783188
 20
905.4351327036229
 30
0.0
 11
266.938648624171
 21
905.4351327036229
 31
0.0
  0
ARC
  5
39D
330
17
100
AcDbEntity
  8
4
100
AcDbCircle
 10
269.8187356073781
 20
902.9813940595668
 30
0.0
 40
3.783613929059507
100
AcDbArc
 50
139.5701031551685
 51
220.4298968448266
  0
LINE
  5
39E
330
17
100
AcDbEntity
  8
4
100
AcDbLine
 10
291.4351216783202
 20
923.1937712562062
 30
0.0
 11
276.5351216783188
 21
923.1937712562062
 31
0.0
  0
ARC
  5
39F
330
17
100
AcDbEntity
  8
4
100
AcDbCircle
 10
275.4351216783152
 20
930.1937712562103
 30
0.0
 40
2.0
100
AcDbArc
 50
189.325796806966
 51
270.0
  0
ARC
  5
3A0
330
17
100
AcDbEntity
  8
4
100
AcDbCircle
 10
291.4351216783202
 20
928.1937712562067
 30
0.0
 40
5.0
100
AcDbArc
 50
270.0
 51
11.42118627499781
  0
LINE
  5
3A1
330
17
100
AcDbEntity
  8
L-CENTER
 48
8.0
100
AcDbLine
 10
297.7962897870402
 20
895.6201781273994
 30
0.0
 11
263.1671434237387
 21
895.6201781273994
 31
0.0
  0
LINE
  5
3A2
330
17
100
AcDbEntity
  8
4
100
AcDbLine
 10
318.3464490965735
 20
994.7352043541769
 30
0.0
 11
401.1515991222377
 21
985.7718099667745
 31
0.0
  0
LINE
  5
3A3
330
17
100
AcDbEntity
  8
L-CENTER
 48
8.0
100
AcDbLine
 10
560.4351216783193
 20
1059.496745795885
 30
0.0
 11
560.4351216783193
 21
996.8907967165283
 31
0.0
  0
CIRCLE
  5
3A4
330
17
100
AcDbEntity
  8
4
100
AcDbCircle
 10
560.4351216783193
 20
1028.193771256207
 30
0.0
 40
25.0
  0
CIRCLE
  5
3A5
330
17
100
AcDbEntity
  8
4
100
AcDbCircle
 10
560.4351216783193
 20
1028.193771256207
 30
0.0
 40
23.0
  0
LWPOLYLINE
  5
3A6
330
17
100
AcDbEntity
  8
4
100
AcDbPolyline
 90
        6
 70
     1
 43
0.0
 10
537.4351216783193
 20
1028.193771256207
 10
548.9351216783193
 20
1008.275186969165
 10
571.9351216783193
 20
1008.275186969165
 10
583.4351216783193
 20
1028.193771256207
 10
571.9351216783193
 20
1048.112355543249
 10
548.9351216783193
 20
1048.112355543249
  0
CIRCLE
  5
3A7
330
17
100
AcDbEntity
  8
4
100
AcDbCircle
 10
299.4351216783193
 20
1028.193771256206
 30
0.0
 40
8.5
  0
LINE
  5
3A8
330
17
100
AcDbEntity
  8
4
100
AcDbLine
 10
299.4351216783193
 20
1038.00872583243
 30
0.0
 11
290.9351216783193
 21
1033.101248544318
 31
0.0
  0
LINE
  5
3A9
330
17
100
AcDbEntity
  8
4
100
AcDbLine
 10
307.9351216783193
 20
1033.101248544318
 30
0.0
 11
299.4351216783193
 21
1038.00872583243
 31
0.0
  0
ARC
  5
3AA
330
17
100
AcDbEntity
  8
4
100
AcDbCircle
 10
265.4351216783193
 20
924.4474266392922
 30
0.0
 40
5.0
100
AcDbArc
 50
106.313839659772
 51
180.0
  0
ARC
  5
3AB
330
17
100
AcDbEntity
  8
4
100
AcDbCircle
 10
265.4351216783193
 20
1131.940115873121
 30
0.0
 40
5.0
100
AcDbArc
 50
180.0
 51
253.6861603402279
  0
ARC
  5
3AC
330
17
100
AcDbEntity
  8
4
100
AcDbCircle
 10
786.4351216783202
 20
1028.193771256207
 30
0.0
 40
500.0
100
AcDbArc
 50
162.7549209016714
 51
180.0
  0
LINE
  5
3AD
330
17
100
AcDbEntity
  8
L-CENTER
 48
8.0
100
AcDbLine
 10
285.4351216783193
 20
1151.81715460079
 30
0.0
 11
285.4351216783193
 21
1194.570387911623
 31
0.0
  0
LINE
  5
3AE
330
17
100
AcDbEntity
  8
4
100
AcDbLine
 10
260.4351216783193
 20
1131.940115873121
 30
0.0
 11
260.4351216783193
 21
1197.193771256206
 31
0.0
  0
CIRCLE
  5
3AF
330
17
100
AcDbEntity
  8
4
100
AcDbCircle
 10
285.4351216783193
 20
1173.193771256207
 30
0.0
 40
10.0
  0
LINE
  5
3B0
330
17
100
AcDbEntity
  8
L-CENTER
 48
8.0
100
AcDbLine
 10
388.1982342495367
 20
1153.311730463492
 30
0.0
 11
371.672009107102
 21
1181.93599206751
 31
0.0
  0
CIRCLE
  5
3B1
330
17
100
AcDbEntity
  8
4
100
AcDbCircle
 10
379.9351216783189
 20
1167.623861265501
 30
0.0
 40
8.5
  0
LINE
  5
3B2
330
17
100
AcDbEntity
  8
4
100
AcDbLine
 10
379.9351216783189
 20
1177.438815841725
 30
0.0
 11
371.4351216783189
 21
1172.531338553613
 31
0.0
  0
LINE
  5
3B3
330
17
100
AcDbEntity
  8
4
100
AcDbLine
 10
388.4351216783189
 20
1172.531338553613
 30
0.0
 11
379.9351216783189
 21
1177.438815841725
 31
0.0
  0
LINE
  5
3B4
330
17
100
AcDbEntity
  8
L-CENTER
 48
8.0
100
AcDbLine
 10
642.1763779191729
 20
1028.193771256207
 30
0.0
 11
278.6938654374658
 21
1028.193771256206
 31
0.0
  0
ARC
  5
3B5
330
17
100
AcDbEntity
  8
4
100
AcDbCircle
 10
460.4351216783202
 20
702.1937712562062
 30
0.0
 40
500.0
100
AcDbArc
 50
72.75492090167151
 51
107.2450790983287
  0
ARC
  5
3B6
330
17
100
AcDbEntity
  8
4
100
AcDbCircle
 10
400.3982720183044
 20
978.812463857083
 30
0.0
 40
7.0
100
AcDbArc
 50
6.105831244302114
 51
83.82196908023289
  0
ARC
  5
3B7
330
17
100
AcDbEntity
  8
4
100
AcDbCircle
 10
400.3802749858442
 20
1077.573130533749
 30
0.0
 40
7.0
100
AcDbArc
 50
276.1780309197671
 51
350.8641376250494
  0
ARC
  5
3B8
330
17
100
AcDbEntity
  8
4
100
AcDbCircle
 10
651.0515077492605
 20
888.2589621952316
 30
0.0
 40
3.783613929059507
100
AcDbArc
 50
319.5701031551734
 51
40.42989684483145
  0
LINE
  5
3B9
330
17
100
AcDbEntity
  8
4
100
AcDbLine
 10
653.9315947324676
 20
890.7127008392872
 30
0.0
 11
647.8351216783199
 21
890.7127008392872
 31
0.0
  0
ARC
  5
3C1
330
17
100
AcDbEntity
  8
4
100
AcDbCircle
 10
633.4351216783184
 20
843.1937712562021
 30
0.0
 40
5.0
100
AcDbArc
 50
110.9368965316875
 51
180.0
  0
ARC
  5
3C2
330
17
100
AcDbEntity
  8
4
100
AcDbCircle
 10
633.4351216783193
 20
863.1937712562021
 30
0.0
 40
5.0
100
AcDbArc
 50
180.0
 51
249.0631034683072
  0
LINE
  5
3C3
330
17
100
AcDbEntity
  8
L-CENTER
 48
8.0
100
AcDbLine
 10
614.0585050229024
 20
883.1937712562062
 30
0.0
 11
656.8117383337353
 21
883.1937712562062
 31
0.0
  0
LINE
  5
3C4
330
17
100
AcDbEntity
  8
4
100
AcDbLine
 10
653.9315947324676
 20
885.8052235511755
 30
0.0
 11
645.3351216783199
 21
885.8052235511755
 31
0.0
  0
LINE
  5
3C6
330
17
100
AcDbEntity
  8
4
100
AcDbLine
 10
654.8351216783199
 20
803.4061484528452
 30
0.0
 11
654.8351216783199
 21
818.1285803171804
 31
0.0
  0
ARC
  5
3C7
330
17
100
AcDbEntity
  8
4
100
AcDbCircle
 10
651.0515077492605
 20
803.4061484528452
 30
0.0
 40
3.783613929059507
100
AcDbArc
 50
319.5701031551734
 51
40.42989684483145
  0
LINE
  5
3C8
330
17
100
AcDbEntity
  8
4
100
AcDbLine
 10
647.8351216783199
 20
820.5823189612365
 30
0.0
 11
647.8351216783199
 21
800.9524098087891
 31
0.0
  0
LINE
  5
3C9
330
17
100
AcDbEntity
  8
4
100
AcDbLine
 10
653.9315947324676
 20
805.8598870969008
 30
0.0
 11
647.8351216783199
 21
805.8598870969008
 31
0.0
  0
LINE
  5
3CA
330
17
100
AcDbEntity
  8
4
100
AcDbLine
 10
653.9315947324676
 20
815.6748416731248
 30
0.0
 11
647.8351216783199
 21
815.6748416731248
 31
0.0
  0
ARC
  5
3CB
330
17
100
AcDbEntity
  8
4
100
AcDbCircle
 10
641.0559563808602
 20
810.767364385013
 30
0.0
 40
13.77916529745958
100
AcDbArc
 50
339.1359356360805
 51
20.86406436391942
  0
ARC
  5
3CC
330
17
100
AcDbEntity
  8
4
100
AcDbCircle
 10
651.0515077492605
 20
818.1285803171804
 30
0.0
 40
3.783613929059507
100
AcDbArc
 50
319.5701031551734
 51
40.42989684483145
  0
LINE
  5
3CD
330
17
100
AcDbEntity
  8
4
100
AcDbLine
 10
645.3351216783199
 20
820.5823189612365
 30
0.0
 11
645.3351216783199
 21
800.9524098087891
 31
0.0
  0
ARC
  5
3CE
330
17
100
AcDbEntity
  8
4
100
AcDbCircle
 10
644.3351216783199
 20
784.1937712562062
 30
0.0
 40
1.0
100
AcDbArc
 50
270.0
 51
0.0
  0
ARC
  5
3CF
330
17
100
AcDbEntity
  8
4
100
AcDbCircle
 10
625.435121678317
 20
786.1937712562021
 30
0.0
 40
3.0
100
AcDbArc
 50
270.0
 51
0.0
  0
LINE
  5
3D0
330
17
100
AcDbEntity
  8
L-CENTER
 48
8.0
100
AcDbLine
 10
623.0739535695984
 20
810.767364385013
 30
0.0
 11
657.7030999328999
 21
810.767364385013
 31
0.0
  0
LINE
  5
3D1
330
17
100
AcDbEntity
  8
4
100
AcDbLine
 10
645.3351216783199
 20
800.9524098087891
 30
0.0
 11
653.9315947324676
 21
800.9524098087891
 31
0.0
  0
LINE
  5
3D2
330
17
100
AcDbEntity
  8
4
100
AcDbLine
 10
653.9315947324676
 20
820.5823189612365
 30
0.0
 11
645.3351216783199
 21
820.5823189612365
 31
0.0
  0
LINE
  5
3D4
330
17
100
AcDbEntity
  8
4
100
AcDbLine
 10
628.4351216783184
 20
843.1937712562021
 30
0.0
 11
628.435121678317
 21
786.1937712562021
 31
0.0
  0
ARC
  5
3D6
330
17
100
AcDbEntity
  8
4
100
AcDbCircle
 10
607.1825994727305
 20
881.4462934617941
 30
0.0
 40
5.0
100
AcDbArc
 50
287.2450790983282
 51
342.7549209016664
  0
LINE
  5
3D7
330
17
100
AcDbEntity
  8
4
100
AcDbLine
 10
532.4351216783189
 20
883.8562039587996
 30
0.0
 11
540.9351216783189
 21
878.9487266706878
 31
0.0
  0
ARC
  5
3D8
330
17
100
AcDbEntity
  8
4
100
AcDbCircle
 10
496.8762654845023
 20
885.7822442013462
 30
0.0
 40
3.0
100
AcDbArc
 50
173.8219690802267
 51
284.3532168872773
  0
ARC
  5
3D9
330
17
100
AcDbEntity
  8
4
100
AcDbCircle
 10
460.4351216783193
 20
883.1937712561985
 30
0.0
 40
5.0
100
AcDbArc
 50
180.0
 51
0.0
  0
ARC
  5
3DA
330
17
100
AcDbEntity
  8
4
100
AcDbCircle
 10
423.9939778721364
 20
885.7822442013462
 30
0.0
 40
3.0
100
AcDbArc
 50
255.6467831127227
 51
6.1780309197733
  0
LINE
  5
3DB
330
17
100
AcDbEntity
  8
4
100
AcDbLine
 10
540.9351216783189
 20
878.9487266706878
 30
0.0
 11
549.4351216783189
 21
883.8562039587996
 31
0.0
  0
LINE
  5
3E8
330
17
100
AcDbEntity
  8
4
100
AcDbLine
 10
371.4351216783189
 20
883.8562039588
 30
0.0
 11
379.9351216783189
 21
878.9487266706883
 31
0.0
  0
LINE
  5
3E9
330
17
100
AcDbEntity
  8
4
100
AcDbLine
 10
379.9351216783189
 20
878.9487266706883
 30
0.0
 11
388.4351216783189
 21
883.8562039588
 31
0.0
  0
CIRCLE
  5
3EA
330
17
100
AcDbEntity
  8
4
100
AcDbCircle
 10
362.4351216783193
 20
822.1937712562062
 30
0.0
 40
25.0
  0
ARC
  5
3EB
330
17
100
AcDbEntity
  8
4
100
AcDbCircle
 10
313.6876438839081
 20
881.4462934617941
 30
0.0
 40
5.0
100
AcDbArc
 50
197.2450790983336
 51
252.7549209016718
  0
ARC
  5
3EC
330
17
100
AcDbEntity
  8
4
100
AcDbCircle
 10
285.4351216783193
 20
883.1937712562062
 30
0.0
 40
10.0
100
AcDbArc
 50
171.890385544034
 51
188.109614455966
  0
LINE
  5
3ED
330
17
100
AcDbEntity
  8
4
100
AcDbLine
 10
266.938648624171
 20
885.8052235511755
 30
0.0
 11
275.5351216783188
 21
885.8052235511755
 31
0.0
  0
LINE
  5
3EE
330
17
100
AcDbEntity
  8
4
100
AcDbLine
 10
266.938648624171
 20
890.7127008392872
 30
0.0
 11
273.0351216783188
 21
890.7127008392872
 31
0.0
  0
ARC
  5
3EF
330
17
100
AcDbEntity
  8
4
100
AcDbCircle
 10
269.8187356073781
 20
888.2589621952316
 30
0.0
 40
3.783613929059507
100
AcDbArc
 50
139.5701031551685
 51
220.4298968448266
  0
LINE
  5
3F0
330
17
100
AcDbEntity
  8
L-CENTER
 48
8.0
100
AcDbLine
 10
306.8117383337358
 20
883.1937712562062
 30
0.0
 11
264.0585050229029
 21
883.1937712562062
 31
0.0
  0
ARC
  5
3F1
330
17
100
AcDbEntity
  8
4
100
AcDbCircle
 10
287.4351216783202
 20
843.1937712562062
 30
0.0
 40
5.0
100
AcDbArc
 50
0.0
 51
69.06310346830716
  0
ARC
  5
3F3
330
17
100
AcDbEntity
  8
4
100
AcDbCircle
 10
287.4351216783202
 20
863.1937712562062
 30
0.0
 40
5.0
100
AcDbArc
 50
290.9368965316928
 51
0.0
  0
LINE
  5
3F4
330
17
100
AcDbEntity
  8
4
100
AcDbLine
 10
275.5351216783188
 20
820.5823189612365
 30
0.0
 11
275.5351216783188
 21
800.9524098087891
 31
0.0
  0
LINE
  5
3F5
330
17
100
AcDbEntity
  8
4
100
AcDbLine
 10
273.0351216783188
 20
820.5823189612365
 30
0.0
 11
273.0351216783188
 21
800.9524098087891
 31
0.0
  0
ARC
  5
3F6
330
17
100
AcDbEntity
  8
4
100
AcDbCircle
 10
269.8187356073781
 20
803.4061484528452
 30
0.0
 40
3.783613929059507
100
AcDbArc
 50
139.5701031551685
 51
220.4298968448266
  0
LINE
  5
3F7
330
17
100
AcDbEntity
  8
4
100
AcDbLine
 10
266.0351216783188
 20
803.4061484528452
 30
0.0
 11
266.0351216783188
 21
818.1285803171804
 31
0.0
  0
ARC
  5
3F8
330
17
100
AcDbEntity
  8
4
100
AcDbCircle
 10
269.8187356073781
 20
818.1285803171804
 30
0.0
 40
3.783613929059507
100
AcDbArc
 50
139.5701031551685
 51
220.4298968448266
  0
ARC
  5
3F9
330
17
100
AcDbEntity
  8
4
100
AcDbCircle
 10
279.8142869757785
 20
810.767364385013
 30
0.0
 40
13.77916529745958
100
AcDbArc
 50
159.1359356360806
 51
200.8640643639194
  0
LINE
  5
3FA
330
17
100
AcDbEntity
  8
4
100
AcDbLine
 10
266.938648624171
 20
815.6748416731248
 30
0.0
 11
273.0351216783188
 21
815.6748416731248
 31
0.0
  0
LINE
  5
3FB
330
17
100
AcDbEntity
  8
4
100
AcDbLine
 10
266.938648624171
 20
805.8598870969008
 30
0.0
 11
273.0351216783188
 21
805.8598870969008
 31
0.0
  0
LINE
  5
3FC
330
17
100
AcDbEntity
  8
4
100
AcDbLine
 10
266.938648624171
 20
820.5823189612365
 30
0.0
 11
275.5351216783188
 21
820.5823189612365
 31
0.0
  0
LINE
  5
3FD
330
17
100
AcDbEntity
  8
4
100
AcDbLine
 10
275.5351216783188
 20
800.9524098087891
 30
0.0
 11
266.938648624171
 21
800.9524098087891
 31
0.0
  0
ARC
  5
3FE
330
17
100
AcDbEntity
  8
4
100
AcDbCircle
 10
295.4351216783202
 20
786.1937712562062
 30
0.0
 40
3.0
100
AcDbArc
 50
180.0
 51
270.0
  0
ARC
  5
3FF
330
17
100
AcDbEntity
  8
4
100
AcDbCircle
 10
276.5351216783188
 20
784.1937712562062
 30
0.0
 40
1.0
100
AcDbArc
 50
180.0
 51
270.0
  0
LINE
  5
400
330
17
100
AcDbEntity
  8
L-CENTER
 48
8.0
100
AcDbLine
 10
297.7962897870402
 20
810.767364385013
 30
0.0
 11
263.1671434237387
 21
810.767364385013
 31
0.0
  0
LINE
  5
401
330
17
100
AcDbEntity
  8
2
100
AcDbLine
 10
287.4351216783202
 20
853.1937712562062
 30
0.0
 11
287.4351216783202
 21
783.1937712562062
 31
0.0
  0
LINE
  5
402
330
17
100
AcDbEntity
  8
4
100
AcDbLine
 10
292.4351216783202
 20
843.1937712562062
 30
0.0
 11
292.4351216783202
 21
786.1937712562062
 31
0.0
  0
LINE
  5
409
330
17
100
AcDbEntity
  8
4
100
AcDbLine
 10
276.5351216783188
 20
783.1937712562062
 30
0.0
 11
644.3351216783199
 21
783.1937712562062
 31
0.0
  0
ARC
  5
40A
330
17
100
AcDbEntity
  8
4
100
AcDbCircle
 10
460.4351216783198
 20
1354.193771256207
 30
0.0
 40
500.0
100
AcDbArc
 50
252.7549209016714
 51
287.2450790983285
  0
LINE
  5
40B
330
17
100
AcDbEntity
  8
L-CENTER
 48
8.0
100
AcDbLine
 10
460.4351216783193
 20
1217.442772365965
 30
0.0
 11
460.4351216783193
 21
776.9872236791502
 31
0.0
  0
LINE
  5
40C
330
17
100
AcDbEntity
  8
4
100
AcDbLine
 10
292.4351216783202
 20
863.1937712562062
 30
0.0
 11
292.4351216783202
 21
923.1937712562067
 31
0.0
  0
LINE
  5
40D
330
17
100
AcDbEntity
  8
2
100
AcDbLine
 10
287.4351216783202
 20
853.1937712562062
 30
0.0
 11
287.4351216783202
 21
923.1937712562067
 31
0.0
  0
LINE
  5
40E
330
17
100
AcDbEntity
  8
L-CENTER
 48
8.0
100
AcDbLine
 10
285.4351216783193
 20
904.5703879116227
 30
0.0
 11
285.4351216783193
 21
861.8171546007898
 31
0.0
  0
ARC
  5
410
330
17
100
AcDbEntity
  8
4
100
AcDbCircle
 10
786.4351216783202
 20
1028.193771256207
 30
0.0
 40
500.0
100
AcDbArc
 50
180.0
 51
197.2450790983287
  0
LINE
  5
411
330
17
100
AcDbEntity
  8
L-CENTER
 48
8.0
100
AcDbLine
 10
635.4351216783193
 20
904.5703879116227
 30
0.0
 11
635.4351216783193
 21
861.8171546007898
 31
0.0
  0
LINE
  5
412
330
17
100
AcDbEntity
  8
4
100
AcDbLine
 10
660.4351216783193
 20
924.4474266392922
 30
0.0
 11
660.4351216783193
 21
859.1937712562053
 31
0.0
  0
LINE
  5
413
330
17
100
AcDbEntity
  8
2
100
AcDbLine
 10
633.4351216783202
 20
923.1937712562062
 30
0.0
 11
633.4351216783202
 21
783.1937712562062
 31
0.0
  0
ARC
  5
414
330
17
100
AcDbEntity
  8
4
100
AcDbCircle
 10
134.4351216783186
 20
1028.193771256207
 30
0.0
 40
500.0
100
AcDbArc
 50
342.7549209016713
 51
0.0
  0
LINE
  5
415
330
17
100
AcDbEntity
  8
4
100
AcDbLine
 10
628.4351216783193
 20
863.1937712562021
 30
0.0
 11
628.4351216783202
 21
923.1937712562026
 31
0.0
  0
CIRCLE
  5
416
330
17
100
AcDbEntity
  8
4
100
AcDbCircle
 10
460.4351216783193
 20
1028.193771256206
 30
0.0
 40
172.0
  0
CIRCLE
  5
417
330
17
100
AcDbEntity
  8
4
100
AcDbCircle
 10
460.4351216783193
 20
1028.193771256206
 30
0.0
 40
150.0
  0
CIRCLE
  5
418
330
17
100
AcDbEntity
  8
L-CENTER
 48
8.0
100
AcDbCircle
 10
460.4351216783193
 20
1028.193771256206
 30
0.0
 40
161.0
  0
LINE
  5
419
330
17
100
AcDbEntity
  8
L-CENTER
 48
8.0
100
AcDbLine
 10
388.1982342495362
 20
903.0758120489213
 30
0.0
 11
371.6720091071015
 21
874.4515504449023
 31
0.0
  0
LINE
  5
41A
330
17
100
AcDbEntity
  8
4
100
AcDbLine
 10
493.8936885803487
 20
886.1050986744608
 30
0.0
 11
502.857082967751
 21
968.9102487001251
 31
0.0
  0
LINE
  5
41B
330
17
100
AcDbEntity
  8
4
100
AcDbLine
 10
426.9765547762895
 20
886.1050986744608
 30
0.0
 11
418.0151085104681
 21
968.8922516676644
 31
0.0
  0
ARC
  5
41C
330
17
100
AcDbEntity
  8
4
100
AcDbCircle
 10
460.4351216783193
 20
903.1937712562062
 30
0.0
 40
20.0
100
AcDbArc
 50
284.4775121859301
 51
75.52248781406895
  0
LINE
  5
41D
330
17
100
AcDbEntity
  8
L-CENTER
 48
8.0
100
AcDbLine
 10
549.1982342495362
 20
874.4515504449023
 30
0.0
 11
532.6720091071015
 21
903.0758120489209
 31
0.0
  0
LINE
  5
41E
330
17
100
AcDbEntity
  8
4
100
AcDbLine
 10
645.3351216783199
 20
922.1937712562062
 30
0.0
 11
645.3351216783199
 21
784.1937712562062
 31
0.0
  0
LINE
  5
41F
330
17
100
AcDbEntity
  8
2
100
AcDbLine
 10
633.8351216783199
 20
923.1937712562062
 30
0.0
 11
633.8351216783199
 21
783.1937712562062
 31
0.0
  0
LINE
  5
420
330
17
100
AcDbEntity
  8
4
100
AcDbLine
 10
275.5351216783188
 20
922.1937712562062
 30
0.0
 11
275.5351216783188
 21
784.1937712562062
 31
0.0
  0
LINE
  5
421
330
17
100
AcDbEntity
  8
2
100
AcDbLine
 10
287.0351216783188
 20
923.1937712562062
 30
0.0
 11
287.0351216783188
 21
783.1937712562062
 31
0.0
  0
ARC
  5
422
330
17
100
AcDbEntity
  8
4
100
AcDbCircle
 10
279.8142869757785
 20
895.6201781273994
 30
0.0
 40
13.77916529745958
100
AcDbArc
 50
159.1359356360806
 51
200.8640643639194
  0
LINE
  5
423
330
17
100
AcDbEntity
  8
4
100
AcDbLine
 10
266.0351216783188
 20
902.9813940595668
 30
0.0
 11
266.0351216783188
 21
888.2589621952316
 31
0.0
  0
LINE
  5
424
330
17
100
AcDbEntity
  8
4
100
AcDbLine
 10
273.0351216783188
 20
885.8052235511755
 30
0.0
 11
273.0351216783188
 21
905.4351327036229
 31
0.0
  0
LINE
  5
425
330
17
100
AcDbEntity
  8
4
100
AcDbLine
 10
275.5351216783188
 20
885.8052235511755
 30
0.0
 11
275.5351216783188
 21
905.4351327036229
 31
0.0
  0
LINE
  5
426
330
17
100
AcDbEntity
  8
4
100
AcDbLine
 10
645.3351216783199
 20
885.8052235511755
 30
0.0
 11
645.3351216783199
 21
905.4351327036229
 31
0.0
  0
LINE
  5
427
330
17
100
AcDbEntity
  8
4
100
AcDbLine
 10
647.8351216783199
 20
885.8052235511755
 30
0.0
 11
647.8351216783199
 21
905.4351327036229
 31
0.0
  0
LINE
  5
428
330
17
100
AcDbEntity
  8
4
100
AcDbLine
 10
654.8351216783199
 20
902.9813940595668
 30
0.0
 11
654.8351216783199
 21
888.2589621952316
 31
0.0
  0
ARC
  5
429
330
17
100
AcDbEntity
  8
4
100
AcDbCircle
 10
641.0559563808602
 20
895.6201781273994
 30
0.0
 40
13.77916529745958
100
AcDbArc
 50
339.1359356360805
 51
20.86406436391942
  0
ARC
  5
42A
330
17
100
AcDbEntity
  8
4
100
AcDbCircle
 10
460.4351216783193
 20
903.1937712561985
 30
0.0
 40
12.5
100
AcDbArc
 50
113.578178478202
 51
246.4218215217978
  0
ARC
  5
42B
330
17
100
AcDbEntity
  8
4
100
AcDbCircle
 10
460.4351216783193
 20
903.1937712561985
 30
0.0
 40
12.5
100
AcDbArc
 50
293.5781784782019
 51
66.42182152179805
  0
LINE
  5
42C
330
17
100
AcDbEntity
  8
4
100
AcDbLine
 10
455.4351216783193
 20
883.1937712561985
 30
0.0
 11
455.4351216783193
 21
923.1937712561985
 31
0.0
  0
LINE
  5
42D
330
17
100
AcDbEntity
  8
4
100
AcDbLine
 10
465.4351216783193
 20
883.1937712561985
 30
0.0
 11
465.4351216783193
 21
923.1937712561985
 31
0.0
  0
ARC
  5
42E
330
17
100
AcDbEntity
  8
4
100
AcDbCircle
 10
460.4351216783193
 20
903.1937712562062
 30
0.0
 40
20.0
100
AcDbArc
 50
104.4775121859298
 51
255.5224878140699
  0
CIRCLE
  5
42F
330
17
100
AcDbEntity
  8
4
100
AcDbCircle
 10
540.9351216783189
 20
888.7636812469113
 30
0.0
 40
8.5
  0
LINE
  5
430
330
17
100
AcDbEntity
  8
4
100
AcDbLine
 10
532.4351216783189
 20
893.6711585350236
 30
0.0
 11
532.4351216783189
 21
883.8562039587996
 31
0.0
  0
LINE
  5
431
330
17
100
AcDbEntity
  8
4
100
AcDbLine
 10
549.4351216783189
 20
883.8562039587996
 30
0.0
 11
549.4351216783189
 21
893.6711585350236
 31
0.0
  0
CIRCLE
  5
432
330
17
100
AcDbEntity
  8
4
100
AcDbCircle
 10
379.9351216783189
 20
888.7636812469123
 30
0.0
 40
8.5
  0
LINE
  5
433
330
17
100
AcDbEntity
  8
4
100
AcDbLine
 10
371.4351216783189
 20
893.671158535024
 30
0.0
 11
371.4351216783189
 21
883.8562039588
 31
0.0
  0
LINE
  5
434
330
17
100
AcDbEntity
  8
4
100
AcDbLine
 10
388.4351216783189
 20
883.8562039588
 30
0.0
 11
388.4351216783189
 21
893.671158535024
 31
0.0
  0
LINE
  5
435
330
17
100
AcDbEntity
  8
4
100
AcDbLine
 10
654.8351216783199
 20
445.5372502621128
 30
0.0
 11
654.8351216783199
 21
430.8148183977776
 31
0.0
  0
ARC
  5
436
330
17
100
AcDbEntity
  8
4
100
AcDbCircle
 10
651.0515077492605
 20
445.5372502621128
 30
0.0
 40
3.783613929059507
100
AcDbArc
 50
319.5701031551782
 51
40.42989684482174
  0
LINE
  5
437
330
17
100
AcDbEntity
  8
4
100
AcDbLine
 10
647.8351216783199
 20
428.3610797537215
 30
0.0
 11
647.8351216783199
 21
447.9909889061689
 31
0.0
  0
LINE
  5
438
330
17
100
AcDbEntity
  8
4
100
AcDbLine
 10
653.9315947324676
 20
443.0835116180572
 30
0.0
 11
647.8351216783199
 21
443.0835116180572
 31
0.0
  0
LINE
  5
439
330
17
100
AcDbEntity
  8
4
100
AcDbLine
 10
653.9315947324676
 20
433.2685570418332
 30
0.0
 11
647.8351216783199
 21
433.2685570418332
 31
0.0
  0
ARC
  5
43A
330
17
100
AcDbEntity
  8
4
100
AcDbCircle
 10
641.0559563808602
 20
438.1760343299452
 30
0.0
 40
13.77916529745958
100
AcDbArc
 50
339.1359356360801
 51
20.86406436391987
  0
ARC
  5
43B
330
17
100
AcDbEntity
  8
4
100
AcDbCircle
 10
651.0515077492605
 20
430.8148183977776
 30
0.0
 40
3.783613929059507
100
AcDbArc
 50
319.5701031551782
 51
40.42989684482174
  0
ARC
  5
43D
330
17
100
AcDbEntity
  8
4
100
AcDbCircle
 10
630.4351216783193
 20
480.1495314587518
 30
0.0
 40
2.0
100
AcDbArc
 50
0.0
 51
90.0
  0
ARC
  5
43E
330
17
100
AcDbEntity
  8
4
100
AcDbCircle
 10
643.3350256783192
 20
463.7496274587519
 30
0.0
 40
2.0
100
AcDbArc
 50
0.0
 51
90.0
  0
LINE
  5
43F
330
17
100
AcDbEntity
  8
4
100
AcDbLine
 10
634.4351216783193
 20
465.7496274587519
 30
0.0
 11
634.4351216783193
 21
467.7496274587519
 31
0.0
  0
LINE
  5
440
330
17
100
AcDbEntity
  8
4
100
AcDbLine
 10
632.4351216783193
 20
467.7496274587519
 30
0.0
 11
632.4351216783193
 21
469.7496274587519
 31
0.0
  0
LINE
  5
441
330
17
100
AcDbEntity
  8
4
100
AcDbLine
 10
643.3350256783192
 20
465.7496274587519
 30
0.0
 11
633.4351216783193
 21
465.7496274587519
 31
0.0
  0
LINE
  5
442
330
17
100
AcDbEntity
  8
4
100
AcDbLine
 10
632.4351216783193
 20
480.1495314587518
 30
0.0
 11
632.4351216783193
 21
469.7496274587519
 31
0.0
  0
LINE
  5
443
330
17
100
AcDbEntity
  8
4
100
AcDbLine
 10
631.2500762545433
 20
490.7460045128995
 30
0.0
 11
631.2500762545433
 21
482.1495314587518
 31
0.0
  0
LINE
  5
444
330
17
100
AcDbEntity
  8
4
100
AcDbLine
 10
611.6201671020958
 20
482.1495314587518
 30
0.0
 11
611.6201671020958
 21
490.7460045128995
 31
0.0
  0
ARC
  5
445
330
17
100
AcDbEntity
  8
4
100
AcDbCircle
 10
621.4351216783198
 20
477.8703661612921
 30
0.0
 40
13.77916529745958
100
AcDbArc
 50
69.13593563608057
 51
110.8640643639194
  0
LINE
  5
446
330
17
100
AcDbEntity
  8
4
100
AcDbLine
 10
626.3425989664315
 20
490.7460045128995
 30
0.0
 11
626.3425989664315
 21
484.6495314587518
 31
0.0
  0
ARC
  5
447
330
17
100
AcDbEntity
  8
4
100
AcDbCircle
 10
614.0739057461519
 20
487.8659175296924
 30
0.0
 40
3.783613929059507
100
AcDbArc
 50
49.57010315516856
 51
130.4298968448228
  0
LINE
  5
448
330
17
100
AcDbEntity
  8
4
100
AcDbLine
 10
616.5276443902076
 20
490.7460045128995
 30
0.0
 11
616.5276443902076
 21
484.6495314587518
 31
0.0
  0
LINE
  5
449
330
17
100
AcDbEntity
  8
4
100
AcDbLine
 10
614.0739057461519
 20
491.6495314587518
 30
0.0
 11
628.7963376104872
 21
491.6495314587518
 31
0.0
  0
LINE
  5
44A
330
17
100
AcDbEntity
  8
4
100
AcDbLine
 10
631.2500762545433
 20
484.6495314587518
 30
0.0
 11
611.6201671020958
 21
484.6495314587518
 31
0.0
  0
ARC
  5
44B
330
17
100
AcDbEntity
  8
4
100
AcDbCircle
 10
628.7963376104872
 20
487.8659175296924
 30
0.0
 40
3.783613929059507
100
AcDbArc
 50
49.57010315516856
 51
130.4298968448228
  0
LINE
  5
44C
330
17
100
AcDbEntity
  8
4
100
AcDbLine
 10
645.3351216783199
 20
428.3610797537215
 30
0.0
 11
645.3351216783199
 21
447.9909889061689
 31
0.0
  0
LINE
  5
44D
330
17
100
AcDbEntity
  8
L-CENTER
 48
8.0
100
AcDbLine
 10
621.4351216783193
 20
458.4135520891182
 30
0.0
 11
621.4351216783193
 21
494.5175097133318
 31
0.0
  0
LINE
  5
44E
330
17
100
AcDbEntity
  8
L-CENTER
 48
8.0
100
AcDbLine
 10
623.0739535695984
 20
438.1760343299452
 30
0.0
 11
657.7030999328999
 21
438.1760343299452
 31
0.0
  0
LINE
  5
44F
330
17
100
AcDbEntity
  8
4
100
AcDbLine
 10
645.3351216783199
 20
447.9909889061689
 30
0.0
 11
653.9315947324676
 21
447.9909889061689
 31
0.0
  0
LINE
  5
450
330
17
100
AcDbEntity
  8
4
100
AcDbLine
 10
653.9315947324676
 20
428.3610797537215
 30
0.0
 11
645.3351216783199
 21
428.3610797537215
 31
0.0
  0
LINE
  5
451
330
17
100
AcDbEntity
  8
4
100
AcDbLine
 10
550.7500762545437
 20
490.7460045128995
 30
0.0
 11
550.7500762545437
 21
482.1495314587518
 31
0.0
  0
ARC
  5
452
330
17
100
AcDbEntity
  8
4
100
AcDbCircle
 10
548.2963376104876
 20
487.8659175296924
 30
0.0
 40
3.783613929059507
100
AcDbArc
 50
49.57010315516856
 51
130.4298968448315
  0
LINE
  5
453
330
17
100
AcDbEntity
  8
4
100
AcDbLine
 10
545.842598966432
 20
490.7460045128995
 30
0.0
 11
545.842598966432
 21
484.6495314587518
 31
0.0
  0
ARC
  5
457
330
17
100
AcDbEntity
  8
4
100
AcDbCircle
 10
651.0515077492605
 20
360.6844365197264
 30
0.0
 40
3.783613929059507
100
AcDbArc
 50
319.5701031551782
 51
40.42989684482174
  0
LINE
  5
458
330
17
100
AcDbEntity
  8
4
100
AcDbLine
 10
653.9315947324676
 20
358.2306978756708
 30
0.0
 11
647.8351216783199
 21
358.2306978756708
 31
0.0
  0
LINE
  5
45D
330
17
100
AcDbEntity
  8
4
100
AcDbLine
 10
653.9315947324676
 20
363.1381751637825
 30
0.0
 11
645.3351216783199
 21
363.1381751637825
 31
0.0
  0
ARC
  5
45E
330
17
100
AcDbEntity
  8
4
100
AcDbCircle
 10
651.0515077492605
 20
345.9620046553912
 30
0.0
 40
3.783613929059507
100
AcDbArc
 50
319.5701031551782
 51
40.42989684482174
  0
LINE
  5
45F
330
17
100
AcDbEntity
  8
4
100
AcDbLine
 10
653.9315947324676
 20
348.4157432994468
 30
0.0
 11
647.8351216783199
 21
348.4157432994468
 31
0.0
  0
ARC
  5
460
330
17
100
AcDbEntity
  8
4
100
AcDbCircle
 10
643.3350256783192
 20
327.7496274587519
 30
0.0
 40
2.0
100
AcDbArc
 50
270.0
 51
0.0
  0
LINE
  5
461
330
17
100
AcDbEntity
  8
4
100
AcDbLine
 10
643.3350256783192
 20
325.7496274587519
 30
0.0
 11
633.4351216783193
 21
325.7496274587519
 31
0.0
  0
LINE
  5
462
330
17
100
AcDbEntity
  8
4
100
AcDbLine
 10
645.3351216783199
 20
343.5082660113351
 30
0.0
 11
653.9315947324676
 21
343.5082660113351
 31
0.0
  0
LINE
  5
463
330
17
100
AcDbEntity
  8
L-CENTER
 48
8.0
100
AcDbLine
 10
623.0739535695984
 20
353.3232205875588
 30
0.0
 11
657.7030999328999
 21
353.3232205875588
 31
0.0
  0
LINE
  5
464
330
17
100
AcDbEntity
  8
4
100
AcDbLine
 10
645.3351216783199
 20
363.1381751637825
 30
0.0
 11
645.3351216783199
 21
343.5082660113351
 31
0.0
  0
LINE
  5
465
330
17
100
AcDbEntity
  8
4
100
AcDbLine
 10
647.8351216783199
 20
363.1381751637825
 30
0.0
 11
647.8351216783199
 21
343.5082660113351
 31
0.0
  0
LINE
  5
466
330
17
100
AcDbEntity
  8
4
100
AcDbLine
 10
654.8351216783199
 20
345.9620046553912
 30
0.0
 11
654.8351216783199
 21
360.6844365197264
 31
0.0
  0
ARC
  5
467
330
17
100
AcDbEntity
  8
4
100
AcDbCircle
 10
641.0559563808602
 20
353.3232205875588
 30
0.0
 40
13.77916529745958
100
AcDbArc
 50
339.1359356360801
 51
20.86406436391987
  0
ARC
  5
468
330
17
100
AcDbEntity
  8
4
100
AcDbCircle
 10
604.4351216783193
 20
320.7496274587519
 30
0.0
 40
5.0
100
AcDbArc
 50
90.0
 51
180.0
  0
LINE
  5
469
330
17
100
AcDbEntity
  8
4
100
AcDbLine
 10
628.4351216783193
 20
465.7496274587519
 30
0.0
 11
628.4351216783193
 21
325.7496274587519
 31
0.0
  0
LINE
  5
46A
330
17
100
AcDbEntity
  8
4
100
AcDbLine
 10
633.4351216783193
 20
465.7496274587519
 30
0.0
 11
633.4351216783193
 21
325.7496274587519
 31
0.0
  0
LINE
  5
46B
330
17
100
AcDbEntity
  8
4
100
AcDbLine
 10
633.4351216783193
 20
465.7496274587519
 30
0.0
 11
633.4351216783193
 21
325.7496274587519
 31
0.0
  0
LINE
  5
46C
330
17
100
AcDbEntity
  8
4
100
AcDbLine
 10
645.3350256783192
 20
463.7496274587519
 30
0.0
 11
645.3350256783192
 21
327.7496274587519
 31
0.0
  0
ARC
  5
46E
330
17
100
AcDbEntity
  8
4
100
AcDbCircle
 10
511.0928376783195
 20
522.7496274587519
 30
0.0
 40
2.99998
100
AcDbArc
 50
14.03511299999922
 51
90.0
  0
LINE
  5
46F
330
17
100
AcDbEntity
  8
4
100
AcDbLine
 10
514.0032376783197
 20
523.4771674587518
 30
0.0
 11
517.4351216783193
 21
509.7496274587519
 31
0.0
  0
LINE
  5
471
330
17
100
AcDbEntity
  8
4
100
AcDbLine
 10
501.4351216783193
 20
526.7496274587519
 30
0.0
 11
501.4351216783193
 21
525.7496274587519
 31
0.0
  0
LINE
  5
473
330
17
100
AcDbEntity
  8
4
100
AcDbLine
 10
531.1201671020963
 20
482.1495314587518
 30
0.0
 11
531.1201671020963
 21
490.7460045128995
 31
0.0
  0
ARC
  5
474
330
17
100
AcDbEntity
  8
4
100
AcDbCircle
 10
533.5739057461524
 20
487.8659175296924
 30
0.0
 40
3.783613929059507
100
AcDbArc
 50
49.57010315517714
 51
130.4298968448228
  0
LINE
  5
475
330
17
100
AcDbEntity
  8
4
100
AcDbLine
 10
536.027644390208
 20
490.7460045128995
 30
0.0
 11
536.027644390208
 21
484.6495314587518
 31
0.0
  0
LINE
  5
476
330
17
100
AcDbEntity
  8
L-CENTER
 48
8.0
100
AcDbLine
 10
540.9351216783198
 20
458.4135520891182
 30
0.0
 11
540.9351216783198
 21
494.5175097133318
 31
0.0
  0
LINE
  5
477
330
17
100
AcDbEntity
  8
4
100
AcDbLine
 10
480.4351216783193
 20
487.0477234587519
 30
0.0
 11
480.4351216783193
 21
495.7496274587519
 31
0.0
  0
LINE
  5
478
330
17
100
AcDbEntity
  8
4
100
AcDbLine
 10
503.4351216783193
 20
509.7496274587519
 30
0.0
 11
493.4351216783193
 21
482.1495314587518
 31
0.0
  0
LINE
  5
479
330
17
100
AcDbEntity
  8
4
100
AcDbLine
 10
471.4351216783184
 20
504.7496274587519
 30
0.0
 11
472.9351216783193
 21
495.7496274587519
 31
0.0
  0
ARC
  5
47A
330
17
100
AcDbEntity
  8
4
100
AcDbCircle
 10
460.4351216783193
 20
541.7496274587519
 30
0.0
 40
5.0
100
AcDbArc
 50
0.0
 51
180.0
  0
LINE
  5
47B
330
17
100
AcDbEntity
  8
L-CENTER
 48
8.0
100
AcDbLine
 10
450.795746809114
 20
521.7496274587519
 30
0.0
 11
471.0072202940378
 21
521.7496274587519
 31
0.0
  0
LINE
  5
47C
330
17
100
AcDbEntity
  8
4
100
AcDbLine
 10
449.4351216783193
 20
504.7496274587519
 30
0.0
 11
455.4351216783193
 21
505.8405365496609
 31
0.0
  0
LINE
  5
47D
330
17
100
AcDbEntity
  8
4
100
AcDbLine
 10
455.4351216783193
 20
541.7496274587519
 30
0.0
 11
455.4351216783193
 21
503.0573804616018
 31
0.0
  0
LINE
  5
47E
330
17
100
AcDbEntity
  8
4
100
AcDbLine
 10
465.4351216783166
 20
541.7496274587523
 30
0.0
 11
465.4351216783193
 21
503.0573804616023
 31
0.0
  0
LINE
  5
47F
330
17
100
AcDbEntity
  8
4
100
AcDbLine
 10
419.4351216783193
 20
525.7496274587519
 30
0.0
 11
419.4351216783193
 21
526.7496274587519
 31
0.0
  0
ARC
  5
480
330
17
100
AcDbEntity
  8
4
100
AcDbCircle
 10
409.7774056783196
 20
522.7496274587519
 30
0.0
 40
2.99998
100
AcDbArc
 50
90.0
 51
165.9648870000031
  0
LINE
  5
481
330
17
100
AcDbEntity
  8
4
100
AcDbLine
 10
406.8670056783194
 20
523.4771674587518
 30
0.0
 11
403.4351216783193
 21
509.7496274587519
 31
0.0
  0
LINE
  5
483
330
17
100
AcDbEntity
  8
4
100
AcDbLine
 10
455.4351216783193
 20
509.7496274587519
 30
0.0
 11
403.4351216783193
 21
509.7496274587519
 31
0.0
  0
LINE
  5
484
330
17
100
AcDbEntity
  8
4
100
AcDbLine
 10
419.4351216783193
 20
526.7496274587519
 30
0.0
 11
455.4351216783193
 21
526.7496274587519
 31
0.0
  0
LINE
  5
485
330
17
100
AcDbEntity
  8
4
100
AcDbLine
 10
455.4351216783193
 20
525.7496274587519
 30
0.0
 11
409.7774056783196
 21
525.7496274587519
 31
0.0
  0
LINE
  5
487
330
17
100
AcDbEntity
  8
4
100
AcDbLine
 10
440.4351216783193
 20
487.423211458752
 30
0.0
 11
440.4351216783193
 21
495.7496274587519
 31
0.0
  0
LINE
  5
488
330
17
100
AcDbEntity
  8
4
100
AcDbLine
 10
417.4351216783193
 20
509.7496274587519
 30
0.0
 11
427.4351216783193
 21
482.1495314587518
 31
0.0
  0
ARC
  5
489
330
17
100
AcDbEntity
  8
4
100
AcDbCircle
 10
449.4351216783193
 20
503.0573804616018
 30
0.0
 40
6.0
100
AcDbArc
 50
270.0
 51
0.0
  0
LINE
  5
48A
330
17
100
AcDbEntity
  8
4
100
AcDbLine
 10
449.4351216783193
 20
504.7496274587519
 30
0.0
 11
447.9351216783193
 21
495.7496274587519
 31
0.0
  0
LINE
  5
48B
330
17
100
AcDbEntity
  8
4
100
AcDbLine
 10
465.4351216783193
 20
509.7496274587519
 30
0.0
 11
517.4351216783193
 21
509.7496274587519
 31
0.0
  0
LINE
  5
48C
330
17
100
AcDbEntity
  8
4
100
AcDbLine
 10
465.4351216783193
 20
526.7496274587519
 30
0.0
 11
501.4351216783193
 21
526.7496274587519
 31
0.0
  0
LINE
  5
48D
330
17
100
AcDbEntity
  8
4
100
AcDbLine
 10
465.4351216783193
 20
525.7496274587519
 30
0.0
 11
511.0928376783195
 21
525.7496274587519
 31
0.0
  0
ARC
  5
48F
330
17
100
AcDbEntity
  8
4
100
AcDbCircle
 10
460.4351216783193
 20
545.7181354587518
 30
0.0
 40
59.999908
100
AcDbArc
 50
250.5292390000002
 51
289.4722360000002
  0
LINE
  5
490
330
17
100
AcDbEntity
  8
4
100
AcDbLine
 10
480.4351216783193
 20
495.7496274587519
 30
0.0
 11
440.4351216783193
 21
495.7496274587519
 31
0.0
  0
ARC
  5
491
330
17
100
AcDbEntity
  8
4
100
AcDbCircle
 10
471.4351216783193
 20
503.0573804616027
 30
0.0
 40
6.0
100
AcDbArc
 50
180.0
 51
270.0000000000043
  0
LINE
  5
492
330
17
100
AcDbEntity
  8
4
100
AcDbLine
 10
465.4351216783193
 20
505.8405365496609
 30
0.0
 11
471.4351216783193
 21
504.7496274587519
 31
0.0
  0
LINE
  5
493
330
17
100
AcDbEntity
  8
4
100
AcDbLine
 10
598.6629056783195
 20
482.1495314587518
 30
0.0
 11
517.4351216783193
 21
509.7496274587519
 31
0.0
  0
LINE
  5
494
330
17
100
AcDbEntity
  8
4
100
AcDbLine
 10
550.7500762545437
 20
482.1495314587518
 30
0.0
 11
531.1201671020963
 21
482.1495314587518
 31
0.0
  0
LINE
  5
495
330
17
100
AcDbEntity
  8
4
100
AcDbLine
 10
550.7500762545437
 20
484.6495314587518
 30
0.0
 11
531.1201671020963
 21
484.6495314587518
 31
0.0
  0
LINE
  5
496
330
17
100
AcDbEntity
  8
4
100
AcDbLine
 10
533.5739057461524
 20
491.6495314587518
 30
0.0
 11
548.2963376104876
 21
491.6495314587518
 31
0.0
  0
ARC
  5
497
330
17
100
AcDbEntity
  8
4
100
AcDbCircle
 10
540.9351216783202
 20
477.8703661612921
 30
0.0
 40
13.77916529745958
100
AcDbArc
 50
69.13593563608057
 51
110.8640643639214
  0
ARC
  5
498
330
17
100
AcDbEntity
  8
4
100
AcDbCircle
 10
657.4351216783193
 20
277.7496274587519
 30
0.0
 40
3.0
100
AcDbArc
 50
0.0
 51
90.0
  0
LINE
  5
499
330
17
100
AcDbEntity
  8
4
100
AcDbLine
 10
660.4351216783193
 20
277.7496274587519
 30
0.0
 11
660.4351216783193
 21
245.7496274587519
 31
0.0
  0
ARC
  5
49A
330
17
100
AcDbEntity
  8
4
100
AcDbCircle
 10
639.4351216783193
 20
285.7496274587519
 30
0.0
 40
5.0
100
AcDbArc
 50
180.0
 51
270.0
  0
LINE
  5
49C
330
17
100
AcDbEntity
  8
4
100
AcDbLine
 10
625.4351216783193
 20
280.7496274587519
 30
0.0
 11
625.4351216783193
 21
245.7496274587519
 31
0.0
  0
LINE
  5
49D
330
17
100
AcDbEntity
  8
4
100
AcDbLine
 10
645.4351216783193
 20
280.7496274587519
 30
0.0
 11
645.4351216783193
 21
245.7496274587519
 31
0.0
  0
ARC
  5
4A1
330
17
100
AcDbEntity
  8
4
100
AcDbCircle
 10
604.4351216783193
 20
285.7496274587519
 30
0.0
 40
5.0
100
AcDbArc
 50
180.0
 51
270.0
  0
LWPOLYLINE
  5
4A2
330
17
100
AcDbEntity
  8
4
100
AcDbPolyline
 90
       34
 70
     0
 43
0.0
 10
610.4239816783197
 20
280.7496274587519
 10
609.8755976783195
 20
280.1146234587521
 10
609.3472336783193
 20
279.476531458752
 10
608.8461176783194
 20
278.834239458752
 10
607.5784496783194
 20
276.8710314587519
 10
606.8159736783196
 20
274.8299434587519
 10
606.7077816783194
 20
274.1270754587521
 10
606.6846096783197
 20
273.4111034587521
 10
606.7536776783195
 20
272.6809114587521
 10
606.9212176783194
 20
271.9183274587521
 10
607.1626096783193
 20
271.1457554587518
 10
607.4473576783193
 20
270.3693034587521
 10
608.2568136783193
 20
268.0776594587518
 10
608.4100536783194
 20
267.3466874587519
 10
608.4541816783194
 20
266.6423354587517
 10
608.3587056783194
 20
265.9707114587517
 10
607.8261736783193
 20
264.889731458752
 10
606.9467536783195
 20
263.8857234587521
 10
605.8850256783194
 20
262.9189194587519
 10
604.8055776783194
 20
261.9495514587519
 10
603.8729856783193
 20
260.9378394587519
 10
603.2518336783196
 20
259.8440194587519
 10
603.0717896783194
 20
258.990767458752
 10
603.0890096783191
 20
258.0870714587517
 10
603.2556096783196
 20
257.1452434587517
 10
604.1729016783197
 20
254.2141594587519
 10
604.4582336783192
 20
253.2429914587518
 10
604.6535496783195
 20
252.2952834587521
 10
604.7109696783195
 20
251.3833554587517
 10
604.4765536783193
 20
250.1127834587518
 10
603.8986856783195
 20
248.931135458752
 10
603.0430496783197
 20
247.8213954587517
 10
601.9753416783192
 20
246.7665634587519
 10
600.7612536783195
 20
245.7496274587519
  0
LINE
  5
4A3
330
17
100
AcDbEntity
  8
4
100
AcDbLine
 10
657.4351216783193
 20
280.7496274587519
 30
0.0
 11
543.4351216783193
 21
280.7496274587519
 31
0.0
  0
ARC
  5
4A4
330
17
100
AcDbEntity
  8
4
100
AcDbCircle
 10
524.1922016783196
 20
282.7496274587519
 30
0.0
 40
3.000012
100
AcDbArc
 50
45.00000000000307
 51
90.0
  0
LINE
  5
4A5
330
17
100
AcDbEntity
  8
4
100
AcDbLine
 10
540.4351216783193
 20
270.749383458752
 30
0.0
 11
526.3135376783193
 21
284.870963458752
 31
0.0
  0
LINE
  5
4A6
330
17
100
AcDbEntity
  8
4
100
AcDbLine
 10
514.4351216783193
 20
270.7496274587519
 30
0.0
 11
509.4351216783193
 21
265.7496274587519
 31
0.0
  0
LINE
  5
4A7
330
17
100
AcDbEntity
  8
4
100
AcDbLine
 10
507.3643216783194
 20
270.7496274587519
 30
0.0
 11
522.3643216783194
 21
285.7496274587519
 31
0.0
  0
LINE
  5
4A8
330
17
100
AcDbEntity
  8
4
100
AcDbLine
 10
540.4348776783195
 20
270.7496274587519
 30
0.0
 11
507.3643216783194
 21
270.7496274587519
 31
0.0
  0
LINE
  5
4A9
330
17
100
AcDbEntity
  8
4
100
AcDbLine
 10
540.4351216783193
 20
277.7496274587519
 30
0.0
 11
540.4351216783193
 21
245.7496274587519
 31
0.0
  0
LINE
  5
4AA
330
17
100
AcDbEntity
  8
4
100
AcDbLine
 10
406.4351216783193
 20
270.7496274587519
 30
0.0
 11
411.4351216783193
 21
265.7496274587519
 31
0.0
  0
LINE
  5
4AD
330
17
100
AcDbEntity
  8
4
100
AcDbLine
 10
509.4351216783193
 20
265.7496274587519
 30
0.0
 11
411.4351216783193
 21
265.7496274587519
 31
0.0
  0
ARC
  5
4AE
330
17
100
AcDbEntity
  8
4
100
AcDbCircle
 10
543.4351216783193
 20
277.7496274587519
 30
0.0
 40
3.0
100
AcDbArc
 50
90.0
 51
180.0
  0
LINE
  5
4AF
330
17
100
AcDbEntity
  8
4
100
AcDbLine
 10
540.4351216783193
 20
245.7496274587519
 30
0.0
 11
660.4351216783193
 21
245.7496274587519
 31
0.0
  0
LINE
  5
4B0
330
17
100
AcDbEntity
  8
4
100
AcDbLine
 10
634.4351216783193
 20
285.7496274587519
 30
0.0
 11
634.4351216783193
 21
325.7496274587519
 31
0.0
  0
LINE
  5
4B1
330
17
100
AcDbEntity
  8
4
100
AcDbLine
 10
599.4351216783193
 20
285.7496274587519
 30
0.0
 11
599.4351216783193
 21
320.7496274587519
 31
0.0
  0
LINE
  5
4B2
330
17
100
AcDbEntity
  8
L-CENTER
 48
8.0
100
AcDbLine
 10
635.4351216783193
 20
290.7496274587519
 30
0.0
 11
635.4351216783193
 21
235.7496274587519
 31
0.0
  0
LINE
  5
4B3
330
17
100
AcDbEntity
  8
4
100
AcDbLine
 10
535.4351216783193
 20
503.633415458752
 30
0.0
 11
535.4351216783193
 21
507.7496274587519
 31
0.0
  0
LINE
  5
4B4
330
17
100
AcDbEntity
  8
4
100
AcDbLine
 10
538.4351216783193
 20
509.7496274587519
 30
0.0
 11
538.4351216783193
 21
507.7496274587519
 31
0.0
  0
LINE
  5
4B5
330
17
100
AcDbEntity
  8
4
100
AcDbLine
 10
537.4351216783193
 20
509.7496274587519
 30
0.0
 11
537.4351216783193
 21
518.7496274587519
 31
0.0
  0
LINE
  5
4B6
330
17
100
AcDbEntity
  8
4
100
AcDbLine
 10
548.9351216783193
 20
513.7496274587519
 30
0.0
 11
548.9351216783193
 21
518.7496274587519
 31
0.0
  0
LINE
  5
4B7
330
17
100
AcDbEntity
  8
4
100
AcDbLine
 10
582.4351216783193
 20
509.7496274587519
 30
0.0
 11
582.4351216783193
 21
507.7496274587519
 31
0.0
  0
LINE
  5
4B8
330
17
100
AcDbEntity
  8
4
100
AcDbLine
 10
571.9351216783193
 20
513.7496274587519
 30
0.0
 11
571.9351216783193
 21
518.7496274587519
 31
0.0
  0
LINE
  5
4B9
330
17
100
AcDbEntity
  8
4
100
AcDbLine
 10
583.4351216783193
 20
509.7496274587519
 30
0.0
 11
583.4351216783193
 21
518.7496274587519
 31
0.0
  0
LINE
  5
4BA
330
17
100
AcDbEntity
  8
4
100
AcDbLine
 10
583.4351216783193
 20
509.7496274587519
 30
0.0
 11
537.4351216783193
 21
509.7496274587519
 31
0.0
  0
LINE
  5
4BB
330
17
100
AcDbEntity
  8
4
100
AcDbLine
 10
583.4351216783193
 20
513.7496274587519
 30
0.0
 11
537.4351216783193
 21
513.7496274587519
 31
0.0
  0
LINE
  5
4BC
330
17
100
AcDbEntity
  8
4
100
AcDbLine
 10
583.4351216783193
 20
518.7496274587519
 30
0.0
 11
537.4351216783193
 21
518.7496274587519
 31
0.0
  0
LINE
  5
4BD
330
17
100
AcDbEntity
  8
4
100
AcDbLine
 10
585.4351216783193
 20
507.7496274587519
 30
0.0
 11
535.4351216783193
 21
507.7496274587519
 31
0.0
  0
LINE
  5
4BE
330
17
100
AcDbEntity
  8
4
100
AcDbLine
 10
387.4351216783193
 20
465.7496274587519
 30
0.0
 11
387.4351216783193
 21
467.7496274587519
 31
0.0
  0
LINE
  5
4BF
330
17
100
AcDbEntity
  8
4
100
AcDbLine
 10
384.8425989664311
 20
490.7460045128995
 30
0.0
 11
384.8425989664311
 21
484.6495314587518
 31
0.0
  0
ARC
  5
4C0
330
17
100
AcDbEntity
  8
4
100
AcDbCircle
 10
387.2963376104867
 20
487.8659175296924
 30
0.0
 40
3.783613929059507
100
AcDbArc
 50
49.57010315517714
 51
130.4298968448315
  0
LINE
  5
4C1
330
17
100
AcDbEntity
  8
4
100
AcDbLine
 10
389.7500762545428
 20
482.1495314587518
 30
0.0
 11
389.7500762545428
 21
490.7460045128995
 31
0.0
  0
LINE
  5
4C2
330
17
100
AcDbEntity
  8
4
100
AcDbLine
 10
375.0276443902071
 20
490.7460045128995
 30
0.0
 11
375.0276443902071
 21
484.6495314587518
 31
0.0
  0
ARC
  5
4C3
330
17
100
AcDbEntity
  8
4
100
AcDbCircle
 10
372.573905746151
 20
487.8659175296924
 30
0.0
 40
3.783613929059507
100
AcDbArc
 50
49.57010315516856
 51
130.4298968448228
  0
LINE
  5
4C4
330
17
100
AcDbEntity
  8
4
100
AcDbLine
 10
370.1201671020954
 20
490.7460045128995
 30
0.0
 11
370.1201671020954
 21
482.1495314587518
 31
0.0
  0
ARC
  5
4C5
330
17
100
AcDbEntity
  8
4
100
AcDbCircle
 10
379.9351216783189
 20
477.8703661612921
 30
0.0
 40
13.77916529745958
100
AcDbArc
 50
69.13593563608057
 51
110.8640643639194
  0
LINE
  5
4C6
330
17
100
AcDbEntity
  8
4
100
AcDbLine
 10
387.2963376104867
 20
491.6495314587518
 30
0.0
 11
372.5739057461515
 21
491.6495314587518
 31
0.0
  0
LINE
  5
4C7
330
17
100
AcDbEntity
  8
4
100
AcDbLine
 10
370.1201671020954
 20
484.6495314587518
 30
0.0
 11
389.7500762545428
 21
484.6495314587518
 31
0.0
  0
LINE
  5
4C8
330
17
100
AcDbEntity
  8
4
100
AcDbLine
 10
370.1201671020954
 20
482.1495314587518
 30
0.0
 11
389.7500762545428
 21
482.1495314587518
 31
0.0
  0
LINE
  5
4C9
330
17
100
AcDbEntity
  8
L-CENTER
 48
8.0
100
AcDbLine
 10
379.9351216783189
 20
458.4135520891182
 30
0.0
 11
379.9351216783189
 21
494.5175097133318
 31
0.0
  0
LINE
  5
4CA
330
17
100
AcDbEntity
  8
4
100
AcDbLine
 10
337.4351216783193
 20
465.7496274587519
 30
0.0
 11
337.4351216783193
 21
467.7496274587519
 31
0.0
  0
LINE
  5
4CB
330
17
100
AcDbEntity
  8
L-CENTER
 48
8.0
100
AcDbLine
 10
560.4351216783193
 20
528.2347354587517
 30
0.0
 11
560.4351216783193
 21
473.525507458752
 31
0.0
  0
LINE
  5
4CC
330
17
100
AcDbEntity
  8
4
100
AcDbLine
 10
585.4351216783193
 20
486.6441594587521
 30
0.0
 11
585.4351216783193
 21
507.7496274587519
 31
0.0
  0
LINE
  5
4CD
330
17
100
AcDbEntity
  8
4
100
AcDbLine
 10
304.3425989664315
 20
490.7460045128995
 30
0.0
 11
304.3425989664315
 21
484.6495314587518
 31
0.0
  0
ARC
  5
4CE
330
17
100
AcDbEntity
  8
4
100
AcDbCircle
 10
306.7963376104867
 20
487.8659175296924
 30
0.0
 40
3.783613929059507
100
AcDbArc
 50
49.57010315516856
 51
130.4298968448228
  0
LINE
  5
4CF
330
17
100
AcDbEntity
  8
4
100
AcDbLine
 10
309.2500762545428
 20
482.1495314587518
 30
0.0
 11
309.2500762545428
 21
490.7460045128995
 31
0.0
  0
LINE
  5
4D0
330
17
100
AcDbEntity
  8
L-CENTER
 48
8.0
100
AcDbLine
 10
299.4351216783193
 20
458.4135520891182
 30
0.0
 11
299.4351216783193
 21
494.5175097133318
 31
0.0
  0
ARC
  5
4D1
330
17
100
AcDbEntity
  8
4
100
AcDbCircle
 10
290.4351216783193
 20
480.1495314587518
 30
0.0
 40
2.0
100
AcDbArc
 50
90.0
 51
180.0
  0
LINE
  5
4D2
330
17
100
AcDbEntity
  8
4
100
AcDbLine
 10
288.4351216783193
 20
467.7496274587519
 30
0.0
 11
288.4351216783193
 21
469.7496274587519
 31
0.0
  0
LINE
  5
4D3
330
17
100
AcDbEntity
  8
4
100
AcDbLine
 10
286.4351216783193
 20
465.7496274587519
 30
0.0
 11
286.4351216783193
 21
467.7496274587519
 31
0.0
  0
LINE
  5
4D4
330
17
100
AcDbEntity
  8
4
100
AcDbLine
 10
288.4351216783193
 20
480.1495314587518
 30
0.0
 11
288.4351216783193
 21
469.7496274587519
 31
0.0
  0
LINE
  5
4D5
330
17
100
AcDbEntity
  8
4
100
AcDbLine
 10
294.5276443902071
 20
490.7460045128995
 30
0.0
 11
294.5276443902071
 21
484.6495314587518
 31
0.0
  0
ARC
  5
4D6
330
17
100
AcDbEntity
  8
4
100
AcDbCircle
 10
292.0739057461515
 20
487.8659175296924
 30
0.0
 40
3.783613929059507
100
AcDbArc
 50
49.57010315516856
 51
130.4298968448228
  0
LINE
  5
4D7
330
17
100
AcDbEntity
  8
4
100
AcDbLine
 10
289.6201671020958
 20
490.7460045128995
 30
0.0
 11
289.6201671020958
 21
482.1495314587518
 31
0.0
  0
ARC
  5
4D8
330
17
100
AcDbEntity
  8
4
100
AcDbCircle
 10
277.5352176783194
 20
463.7496274587519
 30
0.0
 40
2.0
100
AcDbArc
 50
90.0
 51
180.0
  0
LINE
  5
4D9
330
17
100
AcDbEntity
  8
4
100
AcDbLine
 10
277.5352176783194
 20
465.7496274587519
 30
0.0
 11
287.4351216783193
 21
465.7496274587519
 31
0.0
  0
LINE
  5
4DA
330
17
100
AcDbEntity
  8
4
100
AcDbLine
 10
275.5351216783188
 20
428.3610797537215
 30
0.0
 11
275.5351216783188
 21
447.9909889061689
 31
0.0
  0
LINE
  5
4DB
330
17
100
AcDbEntity
  8
4
100
AcDbLine
 10
273.0351216783188
 20
428.3610797537215
 30
0.0
 11
273.0351216783188
 21
447.9909889061689
 31
0.0
  0
ARC
  5
4DC
330
17
100
AcDbEntity
  8
4
100
AcDbCircle
 10
269.8187356073781
 20
445.5372502621128
 30
0.0
 40
3.783613929059507
100
AcDbArc
 50
139.5701031551704
 51
220.4298968448296
  0
LINE
  5
4DD
330
17
100
AcDbEntity
  8
4
100
AcDbLine
 10
266.0351216783188
 20
445.5372502621128
 30
0.0
 11
266.0351216783188
 21
430.8148183977776
 31
0.0
  0
ARC
  5
4DE
330
17
100
AcDbEntity
  8
4
100
AcDbCircle
 10
269.8187356073781
 20
430.8148183977776
 30
0.0
 40
3.783613929059507
100
AcDbArc
 50
139.5701031551704
 51
220.4298968448296
  0
ARC
  5
4DF
330
17
100
AcDbEntity
  8
4
100
AcDbCircle
 10
279.8142869757785
 20
438.1760343299452
 30
0.0
 40
13.77916529745958
100
AcDbArc
 50
159.1359356360801
 51
200.8640643639194
  0
LINE
  5
4E0
330
17
100
AcDbEntity
  8
4
100
AcDbLine
 10
266.938648624171
 20
433.2685570418332
 30
0.0
 11
273.0351216783188
 21
433.2685570418332
 31
0.0
  0
LINE
  5
4E1
330
17
100
AcDbEntity
  8
4
100
AcDbLine
 10
266.938648624171
 20
443.0835116180572
 30
0.0
 11
273.0351216783188
 21
443.0835116180572
 31
0.0
  0
LINE
  5
4E2
330
17
100
AcDbEntity
  8
4
100
AcDbLine
 10
266.938648624171
 20
428.3610797537215
 30
0.0
 11
275.5351216783188
 21
428.3610797537215
 31
0.0
  0
LINE
  5
4E3
330
17
100
AcDbEntity
  8
4
100
AcDbLine
 10
275.5351216783188
 20
447.9909889061689
 30
0.0
 11
266.938648624171
 21
447.9909889061689
 31
0.0
  0
LINE
  5
4E4
330
17
100
AcDbEntity
  8
L-CENTER
 48
8.0
100
AcDbLine
 10
297.7962897870402
 20
438.1760343299452
 30
0.0
 11
263.1671434237387
 21
438.1760343299452
 31
0.0
  0
ARC
  5
4E5
330
17
100
AcDbEntity
  8
4
100
AcDbCircle
 10
299.4351216783193
 20
477.8703661612921
 30
0.0
 40
13.77916529745958
100
AcDbArc
 50
69.13593563608057
 51
110.8640643639194
  0
LINE
  5
4E6
330
17
100
AcDbEntity
  8
4
100
AcDbLine
 10
306.7963376104867
 20
491.6495314587518
 30
0.0
 11
292.0739057461519
 21
491.6495314587518
 31
0.0
  0
LINE
  5
4E7
330
17
100
AcDbEntity
  8
4
100
AcDbLine
 10
289.6201671020958
 20
484.6495314587518
 30
0.0
 11
309.2500762545428
 21
484.6495314587518
 31
0.0
  0
LINE
  5
4E8
330
17
100
AcDbEntity
  8
4
100
AcDbLine
 10
289.6201671020958
 20
482.1495314587518
 30
0.0
 11
309.2500762545428
 21
482.1495314587518
 31
0.0
  0
LINE
  5
4E9
330
17
100
AcDbEntity
  8
4
100
AcDbLine
 10
266.938648624171
 20
363.1381751637825
 30
0.0
 11
275.5351216783188
 21
363.1381751637825
 31
0.0
  0
LINE
  5
4EA
330
17
100
AcDbEntity
  8
4
100
AcDbLine
 10
266.938648624171
 20
358.2306978756708
 30
0.0
 11
273.0351216783188
 21
358.2306978756708
 31
0.0
  0
ARC
  5
4EB
330
17
100
AcDbEntity
  8
4
100
AcDbCircle
 10
269.8187356073781
 20
360.6844365197264
 30
0.0
 40
3.783613929059507
100
AcDbArc
 50
139.5701031551704
 51
220.4298968448296
  0
ARC
  5
4EC
330
17
100
AcDbEntity
  8
4
100
AcDbCircle
 10
316.4351216783193
 20
320.7496274587519
 30
0.0
 40
5.0
100
AcDbArc
 50
0.0
 51
90.0
  0
ARC
  5
4ED
330
17
100
AcDbEntity
  8
4
100
AcDbCircle
 10
277.5352176783194
 20
327.7496274587519
 30
0.0
 40
2.0
100
AcDbArc
 50
180.0
 51
270.0
  0
ARC
  5
4EE
330
17
100
AcDbEntity
  8
4
100
AcDbCircle
 10
269.8187356073781
 20
345.9620046553912
 30
0.0
 40
3.783613929059507
100
AcDbArc
 50
139.5701031551704
 51
220.4298968448296
  0
LINE
  5
4EF
330
17
100
AcDbEntity
  8
4
100
AcDbLine
 10
275.5351216783188
 20
343.5082660113351
 30
0.0
 11
266.938648624171
 21
343.5082660113351
 31
0.0
  0
LINE
  5
4F0
330
17
100
AcDbEntity
  8
4
100
AcDbLine
 10
266.938648624171
 20
348.4157432994468
 30
0.0
 11
273.0351216783188
 21
348.4157432994468
 31
0.0
  0
LINE
  5
4F1
330
17
100
AcDbEntity
  8
4
100
AcDbLine
 10
277.5352176783194
 20
325.7496274587519
 30
0.0
 11
287.4351216783193
 21
325.7496274587519
 31
0.0
  0
LINE
  5
4F2
330
17
100
AcDbEntity
  8
L-CENTER
 48
8.0
100
AcDbLine
 10
297.7962897870402
 20
353.3232205875588
 30
0.0
 11
263.1671434237387
 21
353.3232205875588
 31
0.0
  0
LINE
  5
4F3
330
17
100
AcDbEntity
  8
4
100
AcDbLine
 10
266.0351216783188
 20
345.9620046553912
 30
0.0
 11
266.0351216783188
 21
360.6844365197264
 31
0.0
  0
LINE
  5
4F4
330
17
100
AcDbEntity
  8
4
100
AcDbLine
 10
273.0351216783188
 20
363.1381751637825
 30
0.0
 11
273.0351216783188
 21
343.5082660113351
 31
0.0
  0
LINE
  5
4F5
330
17
100
AcDbEntity
  8
4
100
AcDbLine
 10
275.5351216783188
 20
363.1381751637825
 30
0.0
 11
275.5351216783188
 21
343.5082660113351
 31
0.0
  0
ARC
  5
4F6
330
17
100
AcDbEntity
  8
4
100
AcDbCircle
 10
279.8142869757785
 20
353.3232205875588
 30
0.0
 40
13.77916529745958
100
AcDbArc
 50
159.1359356360801
 51
200.8640643639194
  0
LINE
  5
4F7
330
17
100
AcDbEntity
  8
4
100
AcDbLine
 10
292.4351216783193
 20
325.7496274587519
 30
0.0
 11
292.4351216783193
 21
465.7496274587519
 31
0.0
  0
LINE
  5
4F8
330
17
100
AcDbEntity
  8
4
100
AcDbLine
 10
287.4351216783193
 20
325.7496274587519
 30
0.0
 11
287.4351216783193
 21
465.7496274587519
 31
0.0
  0
LINE
  5
4F9
330
17
100
AcDbEntity
  8
4
100
AcDbLine
 10
287.4351216783193
 20
325.7496274587519
 30
0.0
 11
287.4351216783193
 21
465.7496274587519
 31
0.0
  0
LINE
  5
4FA
330
17
100
AcDbEntity
  8
4
100
AcDbLine
 10
275.5352176783194
 20
463.7496274587519
 30
0.0
 11
275.5352176783194
 21
327.7496274587519
 31
0.0
  0
ARC
  5
4FB
330
17
100
AcDbEntity
  8
4
100
AcDbCircle
 10
396.6780416783195
 20
282.7496274587519
 30
0.0
 40
3.000012
100
AcDbArc
 50
90.0
 51
134.9999999999969
  0
ARC
  5
4FC
330
17
100
AcDbEntity
  8
4
100
AcDbCircle
 10
377.4351216783193
 20
277.7496274587519
 30
0.0
 40
3.0
100
AcDbArc
 50
0.0
 51
90.0
  0
LINE
  5
4FD
330
17
100
AcDbEntity
  8
4
100
AcDbLine
 10
380.4351216783193
 20
270.749383458752
 30
0.0
 11
394.5567016783193
 21
284.870963458752
 31
0.0
  0
LINE
  5
4FE
330
17
100
AcDbEntity
  8
4
100
AcDbLine
 10
380.4351216783193
 20
277.7496274587519
 30
0.0
 11
380.4351216783193
 21
245.7496274587519
 31
0.0
  0
ARC
  5
4FF
330
17
100
AcDbEntity
  8
4
100
AcDbCircle
 10
316.4351216783193
 20
285.7496274587519
 30
0.0
 40
5.0
100
AcDbArc
 50
270.0
 51
0.0
  0
ARC
  5
500
330
17
100
AcDbEntity
  8
4
100
AcDbCircle
 10
281.4351216783193
 20
285.7496274587519
 30
0.0
 40
5.0
100
AcDbArc
 50
270.0
 51
0.0
  0
LINE
  5
503
330
17
100
AcDbEntity
  8
4
100
AcDbLine
 10
263.4351216783193
 20
280.7496274587519
 30
0.0
 11
377.4351216783193
 21
280.7496274587519
 31
0.0
  0
LINE
  5
504
330
17
100
AcDbEntity
  8
4
100
AcDbLine
 10
260.4351216783193
 20
277.7496274587519
 30
0.0
 11
260.4351216783193
 21
245.7496274587519
 31
0.0
  0
ARC
  5
507
330
17
100
AcDbEntity
  8
4
100
AcDbCircle
 10
263.4351216783193
 20
277.7496274587519
 30
0.0
 40
3.0
100
AcDbArc
 50
90.0
 51
180.0
  0
LINE
  5
508
330
17
100
AcDbEntity
  8
4
100
AcDbLine
 10
380.4351216783193
 20
245.7496274587519
 30
0.0
 11
260.4351216783193
 21
245.7496274587519
 31
0.0
  0
LINE
  5
509
330
17
100
AcDbEntity
  8
4
100
AcDbLine
 10
321.4351216783193
 20
320.7496274587519
 30
0.0
 11
321.4351216783193
 21
285.7496274587519
 31
0.0
  0
LINE
  5
50A
330
17
100
AcDbEntity
  8
4
100
AcDbLine
 10
286.4351216783193
 20
285.7496274587519
 30
0.0
 11
286.4351216783193
 21
325.7496274587519
 31
0.0
  0
LINE
  5
50B
330
17
100
AcDbEntity
  8
L-CENTER
 48
8.0
100
AcDbLine
 10
285.4351216783193
 20
290.7496274587519
 30
0.0
 11
285.4351216783193
 21
235.7496274587519
 31
0.0
  0
LINE
  5
50E
330
17
100
AcDbEntity
  8
4
100
AcDbLine
 10
413.5056776783194
 20
270.7496274587519
 30
0.0
 11
398.5056776783194
 21
285.7496274587519
 31
0.0
  0
LINE
  5
50F
330
17
100
AcDbEntity
  8
4
100
AcDbLine
 10
380.4353656783196
 20
270.7496274587519
 30
0.0
 11
413.5056776783194
 21
270.7496274587519
 31
0.0
  0
LINE
  5
510
330
17
100
AcDbEntity
  8
4
100
AcDbLine
 10
524.1922016783196
 20
285.7496274587519
 30
0.0
 11
396.6780416783195
 21
285.7496274587519
 31
0.0
  0
LINE
  5
511
330
17
100
AcDbEntity
  8
4
100
AcDbLine
 10
322.2073376783196
 20
482.1495314587518
 30
0.0
 11
403.4351216783193
 21
509.7496274587519
 31
0.0
  0
LINE
  5
512
330
17
100
AcDbEntity
  8
4
100
AcDbLine
 10
633.4351216783193
 20
325.7496274587519
 30
0.0
 11
287.4351216783193
 21
325.7496274587519
 31
0.0
  0
LINE
  5
513
330
17
100
AcDbEntity
  8
4
100
AcDbLine
 10
632.4351216783193
 20
469.7496274587519
 30
0.0
 11
288.4351216783193
 21
469.7496274587519
 31
0.0
  0
LINE
  5
514
330
17
100
AcDbEntity
  8
4
100
AcDbLine
 10
634.4351216783193
 20
467.7496274587519
 30
0.0
 11
286.4351216783193
 21
467.7496274587519
 31
0.0
  0
LINE
  5
515
330
17
100
AcDbEntity
  8
4
100
AcDbLine
 10
633.4351216783193
 20
465.7496274587519
 30
0.0
 11
287.4351216783193
 21
465.7496274587519
 31
0.0
  0
LINE
  5
516
330
17
100
AcDbEntity
  8
4
100
AcDbLine
 10
630.4351216783193
 20
482.1495314587518
 30
0.0
 11
290.4351216783193
 21
482.1495314587518
 31
0.0
  0
LINE
  5
517
330
17
100
AcDbEntity
  8
L-CENTER
 48
8.0
100
AcDbLine
 10
460.4351216783193
 20
554.8708066048356
 30
0.0
 11
460.4351216783193
 21
149.8388457039598
 31
0.0
  0
LINE
  5
525
330
17
100
AcDbEntity
  8
L-CENTER
 48
8.0
100
AcDbLine
 10
651.6520033396914
 20
395.7496274587519
 30
0.0
 11
173.0787174202642
 21
395.749627458752
 31
0.0
  0
LINE
  5
527
330
17
100
AcDbEntity
  8
L-CENTER
 48
8.0
100
AcDbLine
 10
651.6520033396914
 20
853.1937712562062
 30
0.0
 11
173.0787174202642
 21
853.1937712562062
 31
0.0
  0
LINE
  5
54E
330
17
100
AcDbEntity
  8
4
100
AcDbLine
 10
181.4351216783198
 20
871.1937712562062
 30
0.0
 11
181.4351216783198
 21
858.1937712562062
 31
0.0
  0
LINE
  5
54F
330
17
100
AcDbEntity
  8
4
100
AcDbLine
 10
181.4351216783193
 20
871.1937712562062
 30
0.0
 11
180.4351216783193
 21
870.1937712562062
 31
0.0
  0
LINE
  5
550
330
17
100
AcDbEntity
  8
4
100
AcDbLine
 10
181.4351216783198
 20
848.1937712562062
 30
0.0
 11
181.4351216783198
 21
835.1937712562058
 31
0.0
  0
LINE
  5
551
330
17
100
AcDbEntity
  8
4
100
AcDbLine
 10
180.4351216783193
 20
836.1937712562062
 30
0.0
 11
181.4351216783193
 21
835.1937712562062
 31
0.0
  0
LINE
  5
552
330
17
100
AcDbEntity
  8
4
100
AcDbLine
 10
180.4351216783193
 20
870.1937712562062
 30
0.0
 11
180.4351216783193
 21
836.1937712562062
 31
0.0
  0
ARC
  5
553
330
17
100
AcDbEntity
  8
4
100
AcDbCircle
 10
258.4351216783198
 20
873.1937712562062
 30
0.0
 40
2.0
100
AcDbArc
 50
270.0
 51
0.0
  0
LINE
  5
554
330
17
100
AcDbEntity
  8
4
100
AcDbLine
 10
274.5352176783194
 20
873.1937712562062
 30
0.0
 11
260.4351216783198
 21
873.1937712562062
 31
0.0
  0
ARC
  5
555
330
17
100
AcDbEntity
  8
4
100
AcDbCircle
 10
258.4351216783198
 20
833.1937712562062
 30
0.0
 40
2.0
100
AcDbArc
 50
0.0
 51
90.0
  0
LINE
  5
556
330
17
100
AcDbEntity
  8
4
100
AcDbLine
 10
274.5352176783194
 20
833.1937712562062
 30
0.0
 11
260.4351216783198
 21
833.1937712562062
 31
0.0
  0
LINE
  5
557
330
17
100
AcDbEntity
  8
4
100
AcDbLine
 10
260.4351216783198
 20
873.1937712562062
 30
0.0
 11
260.4351216783198
 21
833.1937712562062
 31
0.0
  0
ARC
  5
558
330
17
100
AcDbEntity
  8
4
100
AcDbCircle
 10
250.4351216783198
 20
853.1937712562062
 30
0.0
 40
5.0
100
AcDbArc
 50
270.0
 51
90.0
  0
ARC
  5
559
330
17
100
AcDbEntity
  8
4
100
AcDbCircle
 10
285.4351216783193
 20
883.1937712562062
 30
0.0
 40
10.0
100
AcDbArc
 50
171.8903855440446
 51
174.2608295227332
  0
LINE
  5
55A
330
17
100
AcDbEntity
  8
4
100
AcDbLine
 10
274.5352176783194
 20
884.1937712562062
 30
0.0
 11
275.5352176783194
 21
884.1937712562062
 31
0.0
  0
LINE
  5
55B
330
17
100
AcDbEntity
  8
4
100
AcDbLine
 10
274.5352176783194
 20
822.1937712562062
 30
0.0
 11
275.5352176783194
 21
822.1937712562062
 31
0.0
  0
LINE
  5
55C
330
17
100
AcDbEntity
  8
4
100
AcDbLine
 10
274.5352176783194
 20
884.1937712562062
 30
0.0
 11
274.5352176783194
 21
822.1937712562062
 31
0.0
  0
LINE
  5
55D
330
17
100
AcDbEntity
  8
4
100
AcDbLine
 10
260.4351216783193
 20
924.4474266392922
 30
0.0
 11
260.4351216783193
 21
873.1937712562062
 31
0.0
  0
LINE
  5
55E
330
17
100
AcDbEntity
  8
4
100
AcDbLine
 10
250.4351216783198
 20
858.1937712562062
 30
0.0
 11
180.4351216783193
 21
858.1937712562062
 31
0.0
  0
LINE
  5
55F
330
17
100
AcDbEntity
  8
4
100
AcDbLine
 10
258.4351216783198
 20
871.1937712562062
 30
0.0
 11
181.4351216783193
 21
871.1937712562062
 31
0.0
  0
LINE
  5
560
330
17
100
AcDbEntity
  8
4
100
AcDbLine
 10
250.4351216783198
 20
848.1937712562062
 30
0.0
 11
180.4351216783193
 21
848.1937712562062
 31
0.0
  0
LINE
  5
561
330
17
100
AcDbEntity
  8
4
100
AcDbLine
 10
258.4351216783198
 20
835.1937712562062
 30
0.0
 11
181.4351216783193
 21
835.1937712562062
 31
0.0
  0
LINE
  5
562
330
17
100
AcDbEntity
  8
4
100
AcDbLine
 10
181.4351216783193
 20
413.7496274587519
 30
0.0
 11
180.4351216783193
 21
412.7496274587519
 31
0.0
  0
LINE
  5
563
330
17
100
AcDbEntity
  8
4
100
AcDbLine
 10
181.4351216783193
 20
377.7496274587519
 30
0.0
 11
180.4351216783193
 21
378.7496274587519
 31
0.0
  0
LINE
  5
564
330
17
100
AcDbEntity
  8
4
100
AcDbLine
 10
181.4351216783193
 20
413.7496274587519
 30
0.0
 11
181.4351216783193
 21
377.7496274587519
 31
0.0
  0
LINE
  5
565
330
17
100
AcDbEntity
  8
4
100
AcDbLine
 10
180.4351216783193
 20
419.2496274587519
 30
0.0
 11
180.4351216783193
 21
378.7496274587519
 31
0.0
  0
LINE
  5
566
330
17
100
AcDbEntity
  8
4
100
AcDbLine
 10
255.4351216783193
 20
413.7496274587519
 30
0.0
 11
255.4351216783193
 21
419.2496274587519
 31
0.0
  0
LINE
  5
567
330
17
100
AcDbEntity
  8
4
100
AcDbLine
 10
260.4351216783193
 20
415.7496274587519
 30
0.0
 11
274.5352176783194
 21
415.7496274587519
 31
0.0
  0
LINE
  5
568
330
17
100
AcDbEntity
  8
4
100
AcDbLine
 10
260.4351216783193
 20
375.7496274587519
 30
0.0
 11
274.5352176783194
 21
375.7496274587519
 31
0.0
  0
LINE
  5
569
330
17
100
AcDbEntity
  8
4
100
AcDbLine
 10
274.5352176783194
 20
426.7496274587519
 30
0.0
 11
274.5352176783194
 21
364.7496274587519
 31
0.0
  0
LINE
  5
56A
330
17
100
AcDbEntity
  8
4
100
AcDbLine
 10
260.4351216783193
 20
375.7496274587519
 30
0.0
 11
260.4351216783193
 21
415.7496274587519
 31
0.0
  0
LINE
  5
56B
330
17
100
AcDbEntity
  8
4
100
AcDbLine
 10
274.5352176783194
 20
364.7496274587519
 30
0.0
 11
275.5352176783194
 21
364.7496274587519
 31
0.0
  0
LINE
  5
56C
330
17
100
AcDbEntity
  8
4
100
AcDbLine
 10
274.5352176783194
 20
426.7496274587519
 30
0.0
 11
275.5352176783194
 21
426.7496274587519
 31
0.0
  0
LINE
  5
56D
330
17
100
AcDbEntity
  8
4
100
AcDbLine
 10
255.4351216783193
 20
419.2496274587519
 30
0.0
 11
181.4351216783193
 21
419.2496274587519
 31
0.0
  0
LINE
  5
56E
330
17
100
AcDbEntity
  8
4
100
AcDbLine
 10
181.4351216783193
 20
413.7496274587519
 30
0.0
 11
260.4351216783193
 21
413.7496274587519
 31
0.0
  0
LINE
  5
56F
330
17
100
AcDbEntity
  8
4
100
AcDbLine
 10
180.4351216783193
 20
419.2496274587519
 30
0.0
 11
255.4351216783193
 21
419.2496274587519
 31
0.0
  0
LINE
  5
570
330
17
100
AcDbEntity
  8
4
100
AcDbLine
 10
181.4351216783193
 20
377.7496274587519
 30
0.0
 11
260.4351216783193
 21
377.7496274587519
 31
0.0
  0
LINE
  5
58B
330
17
100
AcDbEntity
  8
4
100
AcDbLine
 10
1194.192162937447
 20
156.749627458752
 30
0.0
 11
1193.192162937447
 21
155.749627458752
 31
0.0
  0
LINE
  5
58C
330
17
100
AcDbEntity
  8
4
100
AcDbLine
 10
1172.692162937447
 20
156.749627458752
 30
0.0
 11
1194.192162937447
 21
156.749627458752
 31
0.0
  0
LINE
  5
58D
330
17
100
AcDbEntity
  8
4
100
AcDbLine
 10
1136.192162937447
 20
156.749627458752
 30
0.0
 11
1137.192162937447
 21
155.749627458752
 31
0.0
  0
LINE
  5
58E
330
17
100
AcDbEntity
  8
4
100
AcDbLine
 10
1136.192162937447
 20
156.749627458752
 30
0.0
 11
1157.692162937447
 21
156.749627458752
 31
0.0
  0
LINE
  5
58F
330
17
100
AcDbEntity
  8
4
100
AcDbLine
 10
1193.192162937447
 20
155.749627458752
 30
0.0
 11
1137.192162937447
 21
155.749627458752
 31
0.0
  0
LINE
  5
590
330
17
100
AcDbEntity
  8
4
100
AcDbLine
 10
1206.192162937447
 20
264.749627458752
 30
0.0
 11
1206.192162937447
 21
265.749627458752
 31
0.0
  0
LINE
  5
591
330
17
100
AcDbEntity
  8
4
100
AcDbLine
 10
1195.192162937447
 20
255.749627458752
 30
0.0
 11
1195.192162937447
 21
264.749627458752
 31
0.0
  0
ARC
  5
592
330
17
100
AcDbEntity
  8
4
100
AcDbCircle
 10
1165.192162937447
 20
238.249627458752
 30
0.0
 40
7.5
100
AcDbArc
 50
0.0
 51
90.0
  0
LINE
  5
593
330
17
100
AcDbEntity
  8
4
100
AcDbLine
 10
1135.192162937447
 20
255.749627458752
 30
0.0
 11
1135.192162937447
 21
264.749627458752
 31
0.0
  0
LINE
  5
594
330
17
100
AcDbEntity
  8
4
100
AcDbLine
 10
1124.192162937447
 20
265.749627458752
 30
0.0
 11
1124.192162937447
 21
264.749627458752
 31
0.0
  0
ARC
  5
595
330
17
100
AcDbEntity
  8
4
100
AcDbCircle
 10
1165.192162937447
 20
238.249627458752
 30
0.0
 40
7.5
100
AcDbArc
 50
90.0
 51
180.0
  0
LINE
  5
596
330
17
100
AcDbEntity
  8
4
100
AcDbLine
 10
1206.192162937447
 20
264.749627458752
 30
0.0
 11
1124.192162937447
 21
264.749627458752
 31
0.0
  0
LINE
  5
597
330
17
100
AcDbEntity
  8
4
100
AcDbLine
 10
1195.192162937447
 20
255.749627458752
 30
0.0
 11
1135.192162937447
 21
255.749627458752
 31
0.0
  0
LINE
  5
598
330
17
100
AcDbEntity
  8
4
100
AcDbLine
 10
1194.192162937447
 20
156.749627458752
 30
0.0
 11
1194.192162937447
 21
255.749627458752
 31
0.0
  0
LINE
  5
599
330
17
100
AcDbEntity
  8
4
100
AcDbLine
 10
1157.692162937447
 20
238.249627458752
 30
0.0
 11
1157.692162937447
 21
155.749627458752
 31
0.0
  0
LINE
  5
59A
330
17
100
AcDbEntity
  8
4
100
AcDbLine
 10
1172.692162937447
 20
238.249627458752
 30
0.0
 11
1172.692162937447
 21
155.749627458752
 31
0.0
  0
LINE
  5
59B
330
17
100
AcDbEntity
  8
4
100
AcDbLine
 10
1136.192162937447
 20
156.749627458752
 30
0.0
 11
1136.192162937447
 21
255.749627458752
 31
0.0
  0
LINE
  5
59C
330
17
100
AcDbEntity
  8
4
100
AcDbLine
 10
489.4351216783193
 20
156.7496274587522
 30
0.0
 11
488.4351216783193
 21
155.7496274587522
 31
0.0
  0
LINE
  5
59D
330
17
100
AcDbEntity
  8
4
100
AcDbLine
 10
431.4351216783193
 20
156.7496274587522
 30
0.0
 11
432.4351216783193
 21
155.7496274587522
 31
0.0
  0
LINE
  5
59E
330
17
100
AcDbEntity
  8
4
100
AcDbLine
 10
494.4351216783193
 20
155.7496274587522
 30
0.0
 11
432.4351216783193
 21
155.7496274587522
 31
0.0
  0
LINE
  5
59F
330
17
100
AcDbEntity
  8
4
100
AcDbLine
 10
431.4351216783193
 20
156.7496274587522
 30
0.0
 11
489.4351216783193
 21
156.7496274587522
 31
0.0
  0
LINE
  5
5A0
330
17
100
AcDbEntity
  8
4
100
AcDbLine
 10
489.4351216783193
 20
245.7496274587522
 30
0.0
 11
494.4351216783193
 21
245.7496274587522
 31
0.0
  0
LINE
  5
5A1
330
17
100
AcDbEntity
  8
4
100
AcDbLine
 10
501.4351216783193
 20
264.7496274587522
 30
0.0
 11
501.4351216783193
 21
265.7496274587522
 31
0.0
  0
LINE
  5
5A2
330
17
100
AcDbEntity
  8
4
100
AcDbLine
 10
490.4351216783193
 20
255.7496274587522
 30
0.0
 11
490.4351216783193
 21
264.7496274587522
 31
0.0
  0
LINE
  5
5A3
330
17
100
AcDbEntity
  8
4
100
AcDbLine
 10
419.4351216783193
 20
265.7496274587522
 30
0.0
 11
419.4351216783193
 21
264.7496274587522
 31
0.0
  0
LINE
  5
5A4
330
17
100
AcDbEntity
  8
4
100
AcDbLine
 10
430.4351216783193
 20
255.7496274587522
 30
0.0
 11
430.4351216783193
 21
264.7496274587522
 31
0.0
  0
LINE
  5
5A5
330
17
100
AcDbEntity
  8
4
100
AcDbLine
 10
419.4351216783193
 20
264.7496274587522
 30
0.0
 11
501.4351216783193
 21
264.7496274587522
 31
0.0
  0
LINE
  5
5A6
330
17
100
AcDbEntity
  8
4
100
AcDbLine
 10
430.4351216783193
 20
255.7496274587522
 30
0.0
 11
490.4351216783193
 21
255.7496274587522
 31
0.0
  0
LINE
  5
5A7
330
17
100
AcDbEntity
  8
4
100
AcDbLine
 10
489.4351216783193
 20
156.7496274587522
 30
0.0
 11
489.4351216783193
 21
255.7496274587522
 31
0.0
  0
LINE
  5
5A8
330
17
100
AcDbEntity
  8
4
100
AcDbLine
 10
431.4351216783193
 20
156.7496274587522
 30
0.0
 11
431.4351216783193
 21
255.7496274587522
 31
0.0
  0
LINE
  5
5A9
330
17
100
AcDbEntity
  8
4
100
AcDbLine
 10
494.4351216783193
 20
245.7496274587522
 30
0.0
 11
494.4351216783193
 21
155.7496274587522
 31
0.0
  0
CIRCLE
  5
5CB
330
17
100
AcDbEntity
  8
4
100
AcDbCircle
 10
990.1921629374469
 20
395.7496274587519
 30
0.0
 40
47.0
  0
ARC
  5
5CD
330
17
100
AcDbEntity
  8
4
100
AcDbCircle
 10
655.435121678319
 20
859.1937712562053
 30
0.0
 40
5.0
100
AcDbArc
 50
269.9999999999987
 51
0.0
  0
LINE
  5
5CE
330
17
100
AcDbEntity
  8
4
100
AcDbLine
 10
655.4351216783189
 20
854.1937712562053
 30
0.0
 11
645.3351216783199
 21
854.1937712562053
 31
0.0
  0
LINE
  5
5DC
330
17
100
AcDbEntity
  8
4
100
AcDbLine
 10
1143.192162937447
 20
509.7496274587519
 30
0.0
 11
1143.192162937447
 21
507.7496274587519
 31
0.0
  0
LINE
  5
5DD
330
17
100
AcDbEntity
  8
4
100
AcDbLine
 10
1142.192162937447
 20
509.7496274587519
 30
0.0
 11
1142.192162937447
 21
513.7496274587519
 31
0.0
  0
LINE
  5
5DE
330
17
100
AcDbEntity
  8
4
100
AcDbLine
 10
1187.192162937447
 20
509.7496274587519
 30
0.0
 11
1187.192162937447
 21
507.7496274587519
 31
0.0
  0
LINE
  5
5DF
330
17
100
AcDbEntity
  8
4
100
AcDbLine
 10
1188.192162937447
 20
509.7496274587519
 30
0.0
 11
1188.192162937447
 21
513.7496274587519
 31
0.0
  0
LINE
  5
5E0
330
17
100
AcDbEntity
  8
4
100
AcDbLine
 10
1188.192162937447
 20
509.7496274587519
 30
0.0
 11
1142.192162937447
 21
509.7496274587519
 31
0.0
  0
LINE
  5
5E1
330
17
100
AcDbEntity
  8
4
100
AcDbLine
 10
1188.192162937447
 20
513.7496274587519
 30
0.0
 11
1142.192162937447
 21
513.7496274587519
 31
0.0
  0
LINE
  5
5E2
330
17
100
AcDbEntity
  8
4
100
AcDbLine
 10
1185.442162937447
 20
518.7496274587519
 30
0.0
 11
1144.942162937447
 21
518.7496274587519
 31
0.0
  0
LINE
  5
5E3
330
17
100
AcDbEntity
  8
4
100
AcDbLine
 10
1190.192162937447
 20
507.7496274587519
 30
0.0
 11
1140.192162937447
 21
507.7496274587519
 31
0.0
  0
LINE
  5
5E4
330
17
100
AcDbEntity
  8
4
100
AcDbLine
 10
1190.192162937447
 20
495.1388124203901
 30
0.0
 11
1190.192162937447
 21
507.7496274587519
 31
0.0
  0
LINE
  5
5E5
330
17
100
AcDbEntity
  8
4
100
AcDbLine
 10
1140.192162937447
 20
495.1388124203901
 30
0.0
 11
1140.192162937447
 21
507.7496274587519
 31
0.0
  0
ARC
  5
5E8
330
17
100
AcDbEntity
  8
4
100
AcDbCircle
 10
1165.192162937447
 20
527.6793337081915
 30
0.0
 40
41.03517424943944
100
AcDbArc
 50
232.4659043474113
 51
256.16161925644
  0
LINE
  5
5E9
330
17
100
AcDbEntity
  8
4
 48
8.0
100
AcDbLine
 10
1185.442162937447
 20
518.7496274587519
 30
0.0
 11
1185.442162937447
 21
513.7496274587519
 31
0.0
  0
LINE
  5
5EA
330
17
100
AcDbEntity
  8
4
 48
8.0
100
AcDbLine
 10
1144.942162937447
 20
518.7496274587519
 30
0.0
 11
1144.942162937447
 21
513.7496274587519
 31
0.0
  0
ARC
  5
5EB
330
17
100
AcDbEntity
  8
4
100
AcDbCircle
 10
1165.192162937447
 20
527.6793337081915
 30
0.0
 40
41.03517424943944
100
AcDbArc
 50
283.83838074356
 51
307.5340956525884
  0
ARC
  5
602
330
17
100
AcDbEntity
  8
4
100
AcDbCircle
 10
460.4351216783193
 20
70.9630466321351
 30
0.0
 40
29.000036
100
AcDbArc
 50
14.98821543988343
 51
345.0117850000005
  0
LINE
  5
603
330
17
100
AcDbEntity
  8
L-CENTER
 48
8.0
100
AcDbLine
 10
460.4351216783193
 20
31.33069255062043
 30
0.0
 11
460.4351216783193
 21
110.5954007136502
 31
0.0
  0
LINE
  5
605
330
17
100
AcDbEntity
  8
L-CENTER
 48
8.0
100
AcDbLine
 10
420.8027675968045
 20
70.9630466321351
 30
0.0
 11
500.0674757598341
 21
70.9630466321351
 31
0.0
  0
LINE
  5
607
330
17
100
AcDbEntity
  8
4
100
AcDbLine
 10
484.4351216783193
 20
78.4630466321351
 30
0.0
 11
484.4351216783193
 21
63.4630466321351
 31
0.0
  0
LINE
  5
608
330
17
100
AcDbEntity
  8
4
100
AcDbLine
 10
494.4351216783193
 20
78.4630466321351
 30
0.0
 11
494.4351216783193
 21
63.4630466321351
 31
0.0
  0
LINE
  5
609
330
17
100
AcDbEntity
  8
4
100
AcDbLine
 10
484.4351216783193
 20
78.4630466321351
 30
0.0
 11
494.4351216783193
 21
78.4630466321351
 31
0.0
  0
LINE
  5
60A
330
17
100
AcDbEntity
  8
4
100
AcDbLine
 10
484.4351216783193
 20
63.4630466321351
 30
0.0
 11
494.4351216783193
 21
63.4630466321351
 31
0.0
  0
LINE
  5
60B
330
17
100
AcDbEntity
  8
L-CENTER
 48
8.0
100
AcDbLine
 10
132.3584408891377
 20
395.749627458752
 30
0.0
 11
75.89291172141589
 21
395.749627458752
 31
0.0
  0
ARC
  5
60D
330
17
100
AcDbEntity
  8
4
100
AcDbCircle
 10
104.1256763052768
 20
395.749627458752
 30
0.0
 40
17.999924
100
AcDbArc
 50
106.1276901651452
 51
73.87228000000039
  0
LINE
  5
60E
330
17
100
AcDbEntity
  8
L-CENTER
 48
8.0
100
AcDbLine
 10
104.1256763052768
 20
367.5168628748911
 30
0.0
 11
104.1256763052768
 21
423.9823920426129
 31
0.0
  0
LINE
  5
611
330
17
100
AcDbEntity
  8
4
100
AcDbLine
 10
109.1256763052768
 20
409.249627458752
 30
0.0
 11
109.1256763052768
 21
417.249627458752
 31
0.0
  0
LINE
  5
612
330
17
100
AcDbEntity
  8
4
100
AcDbLine
 10
99.12567630527678
 20
409.249627458752
 30
0.0
 11
99.12567630527678
 21
417.249627458752
 31
0.0
  0
LINE
  5
613
330
17
100
AcDbEntity
  8
4
100
AcDbLine
 10
99.12567630527678
 20
409.249627458752
 30
0.0
 11
109.1256763052768
 21
409.249627458752
 31
0.0
  0
LINE
  5
614
330
17
100
AcDbEntity
  8
4
100
AcDbLine
 10
109.1256763052768
 20
417.249627458752
 30
0.0
 11
99.12567630527678
 21
417.249627458752
 31
0.0
  0
ENDSEC
  0
SECTION
  2
OBJECTS
  0
DICTIONARY
  5
5
330
0
100
AcDbDictionary
281
     1
  3
ACAD_COLOR
350
29
  3
ACAD_GROUP
350
27
  3
ACAD_LAYOUT
350
1E
  3
ACAD_MATERIAL
350
7
  3
ACAD_MLEADERSTYLE
350
52F
  3
ACAD_MLINESTYLE
350
15
  3
ACAD_PLOTSETTINGS
350
28
  3
ACAD_PLOTSTYLENAME
350
4
  3
ACAD_SCALELIST
350
30
  3
ACAD_TABLESTYLE
350
52E
  3
ACAD_VISUALSTYLE
350
2A
  3
ACDBHEADERROUNDTRIPXREC
350
61A
  3
AcDbVariableDictionary
350
52C
  3
DWGPROPS
350
61D
  0
DICTIONARY
  5
61E
330
26
100
AcDbDictionary
280
     1
281
     1
  3
ACAD_XREC_ROUNDTRIP
360
61F
  0
DICTIONARY
  5
18
330
17
100
AcDbDictionary
280
     1
281
     1
  3
ACAD_SORTENTS
360
19
  0
DICTIONARY
  5
29
102
{ACAD_REACTORS
330
5
102
}
330
5
100
AcDbDictionary
281
     1
  0
DICTIONARY
  5
27
102
{ACAD_REACTORS
330
5
102
}
330
5
100
AcDbDictionary
281
     1
  0
DICTIONARY
  5
1E
102
{ACAD_REACTORS
330
5
102
}
330
5
100
AcDbDictionary
281
     1
  3
Model
350
1D
  3
ﾚｲｱｳﾄ1
350
23
  0
DICTIONARY
  5
7
102
{ACAD_REACTORS
330
5
102
}
330
5
100
AcDbDictionary
281
     1
  3
ByBlock
350
53
  3
ByLayer
350
10
  3
Global
350
6
  0
DICTIONARY
  5
52F
102
{ACAD_REACTORS
330
5
102
}
330
5
100
AcDbDictionary
281
     1
  3
Standard
350
549
  0
DICTIONARY
  5
15
102
{ACAD_REACTORS
330
5
102
}
330
5
100
AcDbDictionary
281
     1
  3
STANDARD
350
14
  0
DICTIONARY
  5
28
102
{ACAD_REACTORS
330
5
102
}
330
5
100
AcDbDictionary
281
     1
  0
ACDBDICTIONARYWDFLT
  5
4
102
{ACAD_REACTORS
330
5
102
}
330
5
100
AcDbDictionary
281
     1
  3
Normal
350
3
100
AcDbDictionaryWithDefault
340
3
  0
DICTIONARY
  5
30
102
{ACAD_REACTORS
330
5
102
}
330
5
100
AcDbDictionary
281
     1
  3
*A1
350
52
  0
DICTIONARY
  5
52E
102
{ACAD_REACTORS
330
5
102
}
330
5
100
AcDbDictionary
281
     1
  3
Standard
350
616
  0
DICTIONARY
  5
2A
102
{ACAD_REACTORS
330
5
102
}
330
5
100
AcDbDictionary
281
     1
  3
2dWireframe
350
537
  3
Basic
350
539
  3
Brighten
350
53C
  3
ColorChange
350
540
  3
Conceptual
350
53A
  3
Dim
350
53B
  3
EdgeColorOff
350
543
  3
Facepattern
350
53F
  3
Flat
350
533
  3
FlatWithEdges
350
534
  3
Gouraud
350
535
  3
GouraudWithEdges
350
536
  3
Hidden
350
538
  3
JitterOff
350
541
  3
Linepattern
350
53E
  3
OverhangOff
350
542
  3
Realistic
350
2B
  3
Shaded
350
548
  3
Shaded with edges
350
547
  3
Shades of Gray
350
544
  3
Sketchy
350
545
  3
Thicken
350
53D
  3
Wireframe
350
2C
  3
X-Ray
350
546
  0
DICTIONARY
  5
61A
102
{ACAD_REACTORS
330
5
102
}
330
5
100
AcDbDictionary
281
     1
  3
COLORDICT
350
61B
  3
MATERIALDICT
350
61C
  0
DICTIONARY
  5
52C
102
{ACAD_REACTORS
330
5
102
}
330
5
100
AcDbDictionary
281
     1
  3
CANNOSCALE
350
52D
  3
CMLEADERSTYLE
350
54B
  3
CTABLESTYLE
350
617
  3
DIMASSOC
350
618
  3
HIDETEXT
350
619
  3
MSLTSCALE
350
620
  3
XCLIPFRAME
350
530
  0
XRECORD
  5
61D
102
{ACAD_REACTORS
330
5
102
}
330
5
100
AcDbXrecord
280
     1
  1
DWGPROPS COOKIE
  2

  3

  4

  6

  7

  8
sg-d04
  9

300
=
301
=
302
=
303
=
304
=
305
=
306
=
307
=
308
=
309
=
 40
0.0
 41
2457541.159460521
 42
2457870.24471228
  1

 90
        0
  0
XRECORD
  5
61F
102
{ACAD_REACTORS
330
61E
102
}
330
61E
100
AcDbXrecord
280
     1
102
VTR_0.000_0.000_1.000_1.000_VISUALSTYLE
340
537
102
VTR_0.000_0.000_1.000_1.000_GRIDDISPLAY
 70
     3
102
VTR_0.000_0.000_1.000_1.000_GRIDMAJOR
 70
     5
102
VTR_0.000_0.000_1.000_1.000_DEFAULTLIGHTING
280
     1
102
VTR_0.000_0.000_1.000_1.000_DEFAULTLIGHTINGTYPE
 70
     1
102
VTR_0.000_0.000_1.000_1.000_BRIGHTNESS
141
0.0
102
VTR_0.000_0.000_1.000_1.000_CONTRAST
142
0.0
  0
SORTENTSTABLE
  5
19
102
{ACAD_REACTORS
330
18
102
}
330
18
100
AcDbSortentsTable
330
17
331
0
  5
2FF
331
308
  5
30A
331
309
  5
30B
331
30A
  5
30C
331
30B
  5
30D
331
30C
  5
30E
331
30D
  5
30F
331
30E
  5
310
331
30F
  5
311
331
310
  5
312
331
311
  5
313
331
312
  5
314
331
313
  5
315
331
314
  5
316
331
315
  5
317
331
316
  5
318
331
317
  5
319
331
318
  5
31A
331
319
  5
31B
331
31A
  5
31C
331
31B
  5
31D
331
31C
  5
31E
331
31D
  5
31F
331
31E
  5
320
331
31F
  5
321
331
320
  5
322
331
321
  5
323
331
322
  5
324
331
323
  5
325
331
324
  5
326
331
325
  5
327
331
326
  5
328
331
327
  5
329
331
328
  5
32A
331
329
  5
32B
331
32A
  5
32C
331
32B
  5
32D
331
32C
  5
32E
331
32D
  5
32F
331
32E
  5
330
331
32F
  5
331
331
330
  5
332
331
331
  5
333
331
332
  5
334
331
333
  5
335
331
334
  5
336
331
335
  5
337
331
336
  5
338
331
337
  5
339
331
338
  5
33A
331
339
  5
33B
331
33A
  5
33C
331
33B
  5
33D
331
33C
  5
33E
331
33D
  5
33F
331
33E
  5
340
331
33F
  5
341
331
340
  5
342
331
341
  5
343
331
342
  5
344
331
343
  5
345
331
344
  5
346
331
345
  5
347
331
346
  5
348
331
347
  5
349
331
348
  5
34A
331
349
  5
34B
331
34A
  5
34C
331
34B
  5
34D
331
34C
  5
34E
331
34D
  5
34F
331
34E
  5
350
331
34F
  5
351
331
350
  5
352
331
351
  5
353
331
352
  5
354
331
353
  5
355
331
354
  5
356
331
359
  5
35B
331
35A
  5
35C
331
35B
  5
35D
331
35C
  5
35E
331
35D
  5
35F
331
35E
  5
360
331
35F
  5
361
331
360
  5
362
331
361
  5
363
331
362
  5
364
331
363
  5
365
331
364
  5
366
331
365
  5
367
331
366
  5
368
331
367
  5
369
331
369
  5
36B
331
36A
  5
36C
331
36B
  5
36D
331
36C
  5
36E
331
36D
  5
36F
331
36E
  5
370
331
36F
  5
371
331
370
  5
372
331
371
  5
373
331
372
  5
374
331
373
  5
375
331
374
  5
376
331
375
  5
377
331
376
  5
378
331
377
  5
379
331
378
  5
37A
331
379
  5
37B
331
37A
  5
37C
331
37B
  5
37D
331
37C
  5
37E
331
37D
  5
37F
331
37E
  5
380
331
37F
  5
381
331
380
  5
382
331
381
  5
383
331
382
  5
384
331
383
  5
385
331
384
  5
386
331
385
  5
387
331
386
  5
388
331
387
  5
389
331
388
  5
38A
331
389
  5
38B
331
38A
  5
38C
331
38B
  5
38D
331
38C
  5
38E
331
38D
  5
38F
331
38E
  5
390
331
38F
  5
391
331
390
  5
392
331
391
  5
393
331
392
  5
394
331
393
  5
395
331
394
  5
396
331
395
  5
397
331
396
  5
398
331
397
  5
399
331
398
  5
39A
331
399
  5
39B
331
39A
  5
39C
331
39B
  5
39D
331
39C
  5
39E
331
39D
  5
39F
331
39E
  5
3A0
331
39F
  5
3A1
331
3A0
  5
3A2
331
3A1
  5
3A3
331
3A2
  5
3A4
331
3A3
  5
3A5
331
3A4
  5
3A6
331
3A5
  5
3A7
331
3A6
  5
3A8
331
3A7
  5
3A9
331
3A8
  5
3AA
331
3A9
  5
3AB
331
3AA
  5
3AC
331
3AB
  5
3AD
331
3AC
  5
3AE
331
3AD
  5
3AF
331
3AE
  5
3B0
331
3AF
  5
3B1
331
3B0
  5
3B2
331
3B1
  5
3B3
331
3B2
  5
3B4
331
3B3
  5
3B5
331
3B4
  5
3B6
331
3B5
  5
3B7
331
3B6
  5
3B8
331
3B7
  5
3B9
331
3B8
  5
3BA
331
3B9
  5
3BB
331
3C1
  5
3C3
331
3C2
  5
3C4
331
3C3
  5
3C5
331
3C4
  5
3C6
331
3C6
  5
3C8
331
3C7
  5
3C9
331
3C8
  5
3CA
331
3C9
  5
3CB
331
3CA
  5
3CC
331
3CB
  5
3CD
331
3CC
  5
3CE
331
3CD
  5
3CF
331
3CE
  5
3D0
331
3CF
  5
3D1
331
3D0
  5
3D2
331
3D1
  5
3D3
331
3D2
  5
3D4
331
3D4
  5
3D6
331
3D6
  5
3D8
331
3D7
  5
3D9
331
3D8
  5
3DA
331
3D9
  5
3DB
331
3DA
  5
3DC
331
3DB
  5
3DE
331
3E8
  5
3EA
331
3E9
  5
3EB
331
3EA
  5
3EC
331
3EB
  5
3ED
331
3EC
  5
3EE
331
3ED
  5
3EF
331
3EE
  5
3F0
331
3EF
  5
3F1
331
3F0
  5
3F3
331
3F1
  5
3F4
331
3F3
  5
3F5
331
3F4
  5
3F6
331
3F5
  5
3F7
331
3F6
  5
3F8
331
3F7
  5
3F9
331
3F8
  5
3FA
331
3F9
  5
3FB
331
3FA
  5
3FC
331
3FB
  5
3FD
331
3FC
  5
3FE
331
3FD
  5
3FF
331
3FE
  5
400
331
3FF
  5
401
331
400
  5
402
331
401
  5
409
331
402
  5
40A
331
409
  5
40B
331
40A
  5
40C
331
40B
  5
40D
331
40C
  5
40E
331
40D
  5
410
331
40E
  5
411
331
410
  5
412
331
411
  5
413
331
412
  5
414
331
413
  5
415
331
414
  5
416
331
415
  5
417
331
416
  5
418
331
417
  5
419
331
418
  5
41A
331
419
  5
41B
331
41A
  5
41C
331
41B
  5
41D
331
41C
  5
41E
331
41D
  5
41F
331
41E
  5
420
331
41F
  5
421
331
420
  5
422
331
421
  5
423
331
422
  5
424
331
423
  5
425
331
424
  5
426
331
425
  5
427
331
426
  5
428
331
427
  5
429
331
428
  5
42A
331
429
  5
42B
331
42A
  5
42C
331
42B
  5
42D
331
42C
  5
42E
331
42D
  5
42F
331
42E
  5
430
331
42F
  5
431
331
430
  5
432
331
431
  5
433
331
432
  5
434
331
433
  5
435
331
434
  5
436
331
435
  5
437
331
436
  5
438
331
437
  5
439
331
438
  5
43A
331
439
  5
43B
331
43A
  5
43C
331
43B
  5
43D
331
43D
  5
43F
331
43E
  5
440
331
43F
  5
441
331
440
  5
442
331
441
  5
443
331
442
  5
444
331
443
  5
445
331
444
  5
446
331
445
  5
447
331
446
  5
448
331
447
  5
449
331
448
  5
44A
331
449
  5
44B
331
44A
  5
44C
331
44B
  5
44D
331
44C
  5
44E
331
44D
  5
44F
331
44E
  5
450
331
44F
  5
451
331
450
  5
452
331
451
  5
453
331
452
  5
454
331
453
  5
455
331
457
  5
459
331
458
  5
45A
331
45D
  5
45F
331
45E
  5
460
331
45F
  5
461
331
460
  5
462
331
461
  5
463
331
462
  5
464
331
463
  5
465
331
464
  5
466
331
465
  5
467
331
466
  5
468
331
467
  5
469
331
468
  5
46A
331
469
  5
46B
331
46A
  5
46C
331
46B
  5
46D
331
46C
  5
46E
331
46E
  5
470
331
46F
  5
471
331
471
  5
473
331
473
  5
475
331
474
  5
476
331
475
  5
477
331
476
  5
478
331
477
  5
479
331
478
  5
47A
331
479
  5
47B
331
47A
  5
47C
331
47B
  5
47D
331
47C
  5
47E
331
47D
  5
47F
331
47E
  5
480
331
47F
  5
481
331
480
  5
482
331
481
  5
483
331
483
  5
485
331
484
  5
486
331
485
  5
487
331
487
  5
489
331
488
  5
48A
331
489
  5
48B
331
48A
  5
48C
331
48B
  5
48D
331
48C
  5
48E
331
48D
  5
48F
331
48F
  5
491
331
490
  5
492
331
491
  5
493
331
492
  5
494
331
493
  5
495
331
494
  5
496
331
495
  5
497
331
496
  5
498
331
497
  5
499
331
498
  5
49A
331
499
  5
49B
331
49A
  5
49C
331
49C
  5
49E
331
49D
  5
49F
331
4A1
  5
4A3
331
4A2
  5
4A4
331
4A3
  5
4A5
331
4A4
  5
4A6
331
4A5
  5
4A7
331
4A6
  5
4A8
331
4A7
  5
4A9
331
4A8
  5
4AA
331
4A9
  5
4AB
331
4AA
  5
4AC
331
4AD
  5
4AF
331
4AE
  5
4B0
331
4AF
  5
4B1
331
4B0
  5
4B2
331
4B1
  5
4B3
331
4B2
  5
4B4
331
4B3
  5
4B5
331
4B4
  5
4B6
331
4B5
  5
4B7
331
4B6
  5
4B8
331
4B7
  5
4B9
331
4B8
  5
4BA
331
4B9
  5
4BB
331
4BA
  5
4BC
331
4BB
  5
4BD
331
4BC
  5
4BE
331
4BD
  5
4BF
331
4BE
  5
4C0
331
4BF
  5
4C1
331
4C0
  5
4C2
331
4C1
  5
4C3
331
4C2
  5
4C4
331
4C3
  5
4C5
331
4C4
  5
4C6
331
4C5
  5
4C7
331
4C6
  5
4C8
331
4C7
  5
4C9
331
4C8
  5
4CA
331
4C9
  5
4CB
331
4CA
  5
4CC
331
4CB
  5
4CD
331
4CC
  5
4CE
331
4CD
  5
4CF
331
4CE
  5
4D0
331
4CF
  5
4D1
331
4D0
  5
4D2
331
4D1
  5
4D3
331
4D2
  5
4D4
331
4D3
  5
4D5
331
4D4
  5
4D6
331
4D5
  5
4D7
331
4D6
  5
4D8
331
4D7
  5
4D9
331
4D8
  5
4DA
331
4D9
  5
4DB
331
4DA
  5
4DC
331
4DB
  5
4DD
331
4DC
  5
4DE
331
4DD
  5
4DF
331
4DE
  5
4E0
331
4DF
  5
4E1
331
4E0
  5
4E2
331
4E1
  5
4E3
331
4E2
  5
4E4
331
4E3
  5
4E5
331
4E4
  5
4E6
331
4E5
  5
4E7
331
4E6
  5
4E8
331
4E7
  5
4E9
331
4E8
  5
4EA
331
4E9
  5
4EB
331
4EA
  5
4EC
331
4EB
  5
4ED
331
4EC
  5
4EE
331
4ED
  5
4EF
331
4EE
  5
4F0
331
4EF
  5
4F1
331
4F0
  5
4F2
331
4F1
  5
4F3
331
4F2
  5
4F4
331
4F3
  5
4F5
331
4F4
  5
4F6
331
4F5
  5
4F7
331
4F6
  5
4F8
331
4F7
  5
4F9
331
4F8
  5
4FA
331
4F9
  5
4FB
331
4FA
  5
4FC
331
4FB
  5
4FD
331
4FC
  5
4FE
331
4FD
  5
4FF
331
4FE
  5
500
331
4FF
  5
501
331
500
  5
502
331
503
  5
505
331
504
  5
506
331
507
  5
509
331
508
  5
50A
331
509
  5
50B
331
50A
  5
50C
331
50B
  5
50D
331
50E
  5
510
331
50F
  5
511
331
510
  5
512
331
511
  5
513
331
512
  5
514
331
513
  5
515
331
514
  5
516
331
515
  5
517
331
516
  5
518
331
517
  5
519
331
525
  5
528
331
527
  5
52A
331
54E
  5
551
331
54F
  5
552
331
550
  5
553
331
551
  5
554
331
552
  5
555
331
553
  5
556
331
554
  5
557
331
555
  5
558
331
556
  5
559
331
557
  5
55A
331
558
  5
55B
331
559
  5
55C
331
55A
  5
55D
331
55B
  5
55E
331
55C
  5
55F
331
55D
  5
560
331
55E
  5
561
331
55F
  5
562
331
560
  5
563
331
561
  5
564
331
562
  5
565
331
563
  5
566
331
564
  5
567
331
565
  5
568
331
566
  5
569
331
567
  5
56A
331
568
  5
56B
331
569
  5
56C
331
56A
  5
56D
331
56B
  5
570
331
56C
  5
574
331
56D
  5
575
331
56E
  5
576
331
56F
  5
577
331
570
  5
578
331
58B
  5
590
331
58C
  5
591
331
58D
  5
592
331
58E
  5
593
331
58F
  5
594
331
590
  5
595
331
591
  5
596
331
592
  5
597
331
593
  5
598
331
594
  5
599
331
595
  5
59A
331
596
  5
59B
331
597
  5
59C
331
598
  5
59D
331
599
  5
59E
331
59A
  5
59F
331
59B
  5
5A0
331
59C
  5
5A1
331
59D
  5
5A2
331
59E
  5
5A3
331
59F
  5
5A4
331
5A0
  5
5A5
331
5A1
  5
5A6
331
5A2
  5
5A7
331
5A3
  5
5A8
331
5A4
  5
5A9
331
5A5
  5
5AC
331
5A6
  5
5AD
331
5A7
  5
5AE
331
5A8
  5
5AF
331
5A9
  5
5B0
331
5CB
  5
5CD
331
5CD
  5
5CF
331
5CE
  5
5D0
331
5DC
  5
5DE
331
5DD
  5
5DF
331
5DE
  5
5E0
331
5DF
  5
5E1
331
5E0
  5
5E2
331
5E1
  5
5E3
331
5E2
  5
5E4
331
5E3
  5
5E5
331
5E4
  5
5E6
331
5E5
  5
5E7
331
5E8
  5
5EA
331
5E9
  5
2FE
331
5EA
  5
2FD
  0
LAYOUT
  5
1D
102
{ACAD_REACTORS
330
1E
102
}
330
1E
100
AcDbPlotSettings
  1

  2
Bullzip PDF Printer.pc3
  4
A3
  6

 40
0.2
 41
0.0
 42
0.0
 43
0.0
 44
420.2
 45
297.1
 46
25.0
 47
12.0
 48
79.99999984133319
 49
0.0
140
1607.999996341333
141
1089.999997456666
142
1.0
143
4.0
 70
 11936
 72
     1
 73
     0
 74
     4
  7
monochrome.ctb
 75
    18
147
0.25
148
-79.99999984133319
149
0.0
100
AcDbLayout
  1
Model
 70
     1
 71
     0
 10
0.0
 20
0.0
 11
12.0
 21
9.0
 12
0.0
 22
0.0
 32
0.0
 14
75.89291172141589
 24
31.33069255062037
 34
0.0
 15
1361.648539471442
 25
1217.442772365965
 35
0.0
146
0.0
 13
0.0
 23
0.0
 33
0.0
 16
1.0
 26
0.0
 36
0.0
 17
0.0
 27
1.0
 37
0.0
 76
     0
330
17
331
2D
1001
ACAD_PSEXT
1000
Bullzip PDF Printer.pc3
1000
Bullzip PDF Printer
1000
BULLZIP
1000
Bullzip PDF Printer 10.1.0.1871
1070
     0
  0
LAYOUT
  5
23
102
{ACAD_REACTORS
330
1E
102
}
330
1E
100
AcDbPlotSettings
  1

  2
SR-LP8300F
  4

  6

 40
0.0
 41
0.0
 42
0.0
 43
0.0
 44
0.0
 45
0.0
 46
0.0
 47
0.0
 48
0.0
 49
0.0
140
0.0
141
0.0
142
1.0
143
1.0
 70
   688
 72
     0
 73
     0
 74
     5
  7
monochrome.ctb
 75
    16
147
1.0
148
0.0
149
0.0
100
AcDbLayout
  1
ﾚｲｱｳﾄ1
 70
     1
 71
     1
 10
0.0
 20
0.0
 11
12.0
 21
9.0
 12
0.0
 22
0.0
 32
0.0
 14
1.000000000000000E+20
 24
1.000000000000000E+20
 34
1.000000000000000E+20
 15
-1.000000000000000E+20
 25
-1.000000000000000E+20
 35
-1.000000000000000E+20
146
0.0
 13
0.0
 23
0.0
 33
0.0
 16
1.0
 26
0.0
 36
0.0
 17
0.0
 27
1.0
 37
0.0
 76
     0
330
20
  0
MATERIAL
  5
53
102
{ACAD_REACTORS
330
7
102
}
102
{ACAD_XDICTIONARY
360
625
102
}
330
7
100
AcDbMaterial
  1
ByBlock
 72
     0
 73
     2
 43
0.0208333333333333
 43
0.0
 43
0.0
 43
0.0
 43
0.0
 43
0.0208333333333333
 43
0.0
 43
0.0
 43
0.0
 43
0.0
 43
1.0
 43
0.0
 43
0.0
 43
0.0
 43
0.0
 43
1.0
 77
     0
 78
     2
 47
0.0208333333333333
 47
0.0
 47
0.0
 47
0.0
 47
0.0
 47
0.0208333333333333
 47
0.0
 47
0.0
 47
0.0
 47
0.0
 47
1.0
 47
0.0
 47
0.0
 47
0.0
 47
0.0
 47
1.0
171
     0
172
     2
 49
0.0208333333333333
 49
0.0
 49
0.0
 49
0.0
 49
0.0
 49
0.0208333333333333
 49
0.0
 49
0.0
 49
0.0
 49
0.0
 49
1.0
 49
0.0
 49
0.0
 49
0.0
 49
0.0
 49
1.0
175
     0
176
     2
142
0.0208333333333333
142
0.0
142
0.0
142
0.0
142
0.0
142
0.0208333333333333
142
0.0
142
0.0
142
0.0
142
0.0
142
1.0
142
0.0
142
0.0
142
0.0
142
0.0
142
1.0
179
     0
270
     2
144
0.0208333333333333
144
0.0
144
0.0
144
0.0
144
0.0
144
0.0208333333333333
144
0.0
144
0.0
144
0.0
144
0.0
144
1.0
144
0.0
144
0.0
144
0.0
144
0.0
144
1.0
274
     2
147
0.0208333333333333
147
0.0
147
0.0
147
0.0
147
0.0
147
0.0208333333333333
147
0.0
147
0.0
147
0.0
147
0.0
147
1.0
147
0.0
147
0.0
147
0.0
147
0.0
147
1.0
  0
MATERIAL
  5
10
102
{ACAD_REACTORS
330
7
102
}
102
{ACAD_XDICTIONARY
360
621
102
}
330
7
100
AcDbMaterial
  1
ByLayer
 72
     0
 73
     2
 43
0.0208333333333333
 43
0.0
 43
0.0
 43
0.0
 43
0.0
 43
0.0208333333333333
 43
0.0
 43
0.0
 43
0.0
 43
0.0
 43
1.0
 43
0.0
 43
0.0
 43
0.0
 43
0.0
 43
1.0
 77
     0
 78
     2
 47
0.0208333333333333
 47
0.0
 47
0.0
 47
0.0
 47
0.0
 47
0.0208333333333333
 47
0.0
 47
0.0
 47
0.0
 47
0.0
 47
1.0
 47
0.0
 47
0.0
 47
0.0
 47
0.0
 47
1.0
171
     0
172
     2
 49
0.0208333333333333
 49
0.0
 49
0.0
 49
0.0
 49
0.0
 49
0.0208333333333333
 49
0.0
 49
0.0
 49
0.0
 49
0.0
 49
1.0
 49
0.0
 49
0.0
 49
0.0
 49
0.0
 49
1.0
175
     0
176
     2
142
0.0208333333333333
142
0.0
142
0.0
142
0.0
142
0.0
142
0.0208333333333333
142
0.0
142
0.0
142
0.0
142
0.0
142
1.0
142
0.0
142
0.0
142
0.0
142
0.0
142
1.0
179
     0
270
     2
144
0.0208333333333333
144
0.0
144
0.0
144
0.0
144
0.0
144
0.0208333333333333
144
0.0
144
0.0
144
0.0
144
0.0
144
1.0
144
0.0
144
0.0
144
0.0
144
0.0
144
1.0
274
     2
147
0.0208333333333333
147
0.0
147
0.0
147
0.0
147
0.0
147
0.0208333333333333
147
0.0
147
0.0
147
0.0
147
0.0
147
1.0
147
0.0
147
0.0
147
0.0
147
0.0
147
1.0
  0
MATERIAL
  5
6
102
{ACAD_REACTORS
330
7
102
}
102
{ACAD_XDICTIONARY
360
623
102
}
330
7
100
AcDbMaterial
  1
Global
 72
     0
 73
     2
 43
0.0208333333333333
 43
0.0
 43
0.0
 43
0.0
 43
0.0
 43
0.0208333333333333
 43
0.0
 43
0.0
 43
0.0
 43
0.0
 43
1.0
 43
0.0
 43
0.0
 43
0.0
 43
0.0
 43
1.0
 77
     0
 78
     2
 47
0.0208333333333333
 47
0.0
 47
0.0
 47
0.0
 47
0.0
 47
0.0208333333333333
 47
0.0
 47
0.0
 47
0.0
 47
0.0
 47
1.0
 47
0.0
 47
0.0
 47
0.0
 47
0.0
 47
1.0
171
     0
172
     2
 49
0.0208333333333333
 49
0.0
 49
0.0
 49
0.0
 49
0.0
 49
0.0208333333333333
 49
0.0
 49
0.0
 49
0.0
 49
0.0
 49
1.0
 49
0.0
 49
0.0
 49
0.0
 49
0.0
 49
1.0
175
     0
176
     2
142
0.0208333333333333
142
0.0
142
0.0
142
0.0
142
0.0
142
0.0208333333333333
142
0.0
142
0.0
142
0.0
142
0.0
142
1.0
142
0.0
142
0.0
142
0.0
142
0.0
142
1.0
179
     0
270
     2
144
0.0208333333333333
144
0.0
144
0.0
144
0.0
144
0.0
144
0.0208333333333333
144
0.0
144
0.0
144
0.0
144
0.0
144
1.0
144
0.0
144
0.0
144
0.0
144
0.0
144
1.0
274
     2
147
0.0208333333333333
147
0.0
147
0.0
147
0.0
147
0.0
147
0.0208333333333333
147
0.0
147
0.0
147
0.0
147
0.0
147
1.0
147
0.0
147
0.0
147
0.0
147
0.0
147
1.0
1001
ACAD
1070
    -1
1070
     3
1070
     0
1000

1071
        0
  0
MLEADERSTYLE
  5
549
102
{ACAD_REACTORS
330
52F
102
}
102
{ACAD_XDICTIONARY
360
657
102
}
330
52F
100
AcDbMLeaderStyle
170
     2
171
     1
172
     0
 90
        2
 40
0.0
 41
0.0
173
     1
 91
-1056964608
340
D
 92
       -2
290
     1
 42
0.09
291
     1
 43
0.36
  3
Standard
341
0
 44
0.18
300

342
E
174
     1
178
     6
175
     1
176
     0
 93
-1056964608
 45
0.18
292
     0
297
     0
 46
0.18
343
0
 94
-1056964608
 47
1.0
 49
1.0
140
1.0
293
     1
141
0.0
294
     1
177
     0
142
1.0
295
     0
296
     0
143
0.125
1001
ACAD_MLEADERVER
1070
     2
  0
MLINESTYLE
  5
14
102
{ACAD_REACTORS
330
15
102
}
330
15
100
AcDbMlineStyle
  2
STANDARD
 70
     0
  3

 62
     0
 51
90.0
 52
90.0
 71
     2
 49
0.5
 62
   256
  6
BYLAYER
 49
-0.5
 62
   256
  6
BYLAYER
  0
ACDBPLACEHOLDER
  5
3
102
{ACAD_REACTORS
330
4
102
}
330
4
  0
SCALE
  5
52
102
{ACAD_REACTORS
330
30
102
}
330
30
100
AcDbScale
 70
     0
300
1:1
140
1.0
141
1.0
290
     1
  0
TABLESTYLE
  5
616
102
{ACAD_REACTORS
330
52E
102
}
330
52E
100
AcDbTableStyle
  3
Standard
 70
     0
 71
     0
 40
0.06
 41
0.06
280
     0
281
     0
  7
STANDARD
140
0.18
170
     2
 62
     0
 63
   257
283
     0
274
    -2
284
     1
 64
     0
275
    -2
285
     1
 65
     0
276
    -2
286
     1
 66
     0
277
    -2
287
     1
 67
     0
278
    -2
288
     1
 68
     0
279
    -2
289
     1
 69
     0
  7
STANDARD
140
0.25
170
     5
 62
     0
 63
   257
283
     0
274
    -2
284
     1
 64
     0
275
    -2
285
     1
 65
     0
276
    -2
286
     1
 66
     0
277
    -2
287
     1
 67
     0
278
    -2
288
     1
 68
     0
279
    -2
289
     1
 69
     0
  7
STANDARD
140
0.18
170
     5
 62
     0
 63
   257
283
     0
274
    -2
284
     1
 64
     0
275
    -2
285
     1
 65
     0
276
    -2
286
     1
 66
     0
277
    -2
287
     1
 67
     0
278
    -2
288
     1
 68
     0
279
    -2
289
     1
 69
     0
  0
VISUALSTYLE
  5
537
102
{ACAD_REACTORS
330
2A
102
}
102
{ACAD_XDICTIONARY
360
633
102
}
330
2A
100
AcDbVisualStyle
  2
2dWireframe
 70
     4
 71
     0
 72
     2
 73
     0
 90
        0
 40
0.6
 41
30.0
 62
     5
 63
     7
 74
     1
 91
        4
 64
     7
 65
   257
 75
     1
175
     1
 42
1.0
 92
        0
 66
   257
 43
1.0
 76
     1
 77
     6
 78
     2
 67
     7
 79
     5
170
     0
171
     0
290
     0
174
     0
 93
        1
 44
0.0
173
     0
291
     0
 45
0.0
1001
ACAD
1000
AcDbSavedByObjectVersion
1070
     0
  0
VISUALSTYLE
  5
539
102
{ACAD_REACTORS
330
2A
102
}
102
{ACAD_XDICTIONARY
360
637
102
}
330
2A
100
AcDbVisualStyle
  2
Basic
 70
     7
 71
     1
 72
     0
 73
     1
 90
        0
 40
0.6
 41
30.0
 62
     5
 63
     7
 74
     0
 91
        4
 64
     7
 65
   257
 75
     1
175
     1
 42
1.0
 92
        8
 66
     7
 43
1.0
 76
     1
 77
     6
 78
     2
 67
     7
 79
     5
170
     0
171
     0
290
     0
174
     0
 93
        1
 44
0.0
173
     0
291
     1
 45
0.0
1001
ACAD
1000
AcDbSavedByObjectVersion
1070
     0
  0
VISUALSTYLE
  5
53C
102
{ACAD_REACTORS
330
2A
102
}
102
{ACAD_XDICTIONARY
360
63D
102
}
330
2A
100
AcDbVisualStyle
  2
Brighten
 70
    12
 71
     2
 72
     2
 73
     0
 90
        0
 40
0.6
 41
30.0
 62
     5
 63
     7
 74
     1
 91
        4
 64
     7
 65
   257
 75
     1
175
     1
 42
1.0
 92
        8
 66
     7
 43
1.0
 76
     1
 77
     6
 78
     2
 67
     7
 79
     5
170
     0
171
     0
290
     0
174
     0
 93
        1
 44
50.0
173
     0
291
     1
 45
0.0
1001
ACAD
1000
AcDbSavedByObjectVersion
1070
     0
  0
VISUALSTYLE
  5
540
102
{ACAD_REACTORS
330
2A
102
}
102
{ACAD_XDICTIONARY
360
645
102
}
330
2A
100
AcDbVisualStyle
  2
ColorChange
 70
    16
 71
     2
 72
     2
 73
     3
 90
        0
 40
0.6
 41
30.0
 62
     5
 63
     8
 74
     1
 91
        4
 64
     7
 65
   257
 75
     1
175
     1
 42
1.0
 92
        8
 66
     8
 43
1.0
 76
     1
 77
     6
 78
     2
 67
     7
 79
     5
170
     0
171
     0
290
     0
174
     0
 93
        1
 44
0.0
173
     0
291
     1
 45
0.0
1001
ACAD
1000
AcDbSavedByObjectVersion
1070
     0
  0
VISUALSTYLE
  5
53A
102
{ACAD_REACTORS
330
2A
102
}
102
{ACAD_XDICTIONARY
360
639
102
}
330
2A
100
AcDbVisualStyle
  2
Conceptual
 70
     9
 71
     3
 72
     2
 73
     0
 90
        0
 40
0.6
 41
30.0
 62
     5
 63
     7
 74
     2
 91
        2
 64
     7
 65
   257
 75
     1
175
     1
 42
40.0
 92
        8
 66
     7
 43
1.0
 76
     1
 77
     6
 78
     2
 67
     7
 79
     3
170
     0
171
     0
290
     0
174
     0
 93
        1
 44
0.0
173
     0
291
     0
 45
0.0
1001
ACAD
1000
AcDbSavedByObjectVersion
1070
     0
  0
VISUALSTYLE
  5
53B
102
{ACAD_REACTORS
330
2A
102
}
102
{ACAD_XDICTIONARY
360
63B
102
}
330
2A
100
AcDbVisualStyle
  2
Dim
 70
    11
 71
     2
 72
     2
 73
     0
 90
        0
 40
0.6
 41
30.0
 62
     5
 63
     7
 74
     1
 91
        4
 64
     7
 65
   257
 75
     1
175
     1
 42
1.0
 92
        8
 66
     7
 43
1.0
 76
     1
 77
     6
 78
     2
 67
     7
 79
     5
170
     0
171
     0
290
     0
174
     0
 93
        1
 44
-50.0
173
     0
291
     1
 45
0.0
1001
ACAD
1000
AcDbSavedByObjectVersion
1070
     0
  0
VISUALSTYLE
  5
543
102
{ACAD_REACTORS
330
2A
102
}
102
{ACAD_XDICTIONARY
360
64B
102
}
330
2A
100
AcDbVisualStyle
  2
EdgeColorOff
 70
    22
 71
     2
 72
     2
 73
     0
 90
        0
 40
0.6
 41
30.0
 62
     5
 63
     7
 74
     1
 91
        4
 64
     7
 65
   257
 75
     1
175
     1
 42
1.0
 92
        8
 66
     7
 43
1.0
 76
     1
 77
     6
 78
     2
 67
     7
 79
     5
170
     0
171
     0
290
     0
174
     0
 93
        1
 44
0.0
173
     0
291
     1
 45
0.0
1001
ACAD
1000
AcDbSavedByObjectVersion
1070
     0
  0
VISUALSTYLE
  5
53F
102
{ACAD_REACTORS
330
2A
102
}
102
{ACAD_XDICTIONARY
360
643
102
}
330
2A
100
AcDbVisualStyle
  2
Facepattern
 70
    15
 71
     2
 72
     2
 73
     0
 90
        0
 40
0.6
 41
30.0
 62
     5
 63
     7
 74
     1
 91
        4
 64
     7
 65
   257
 75
     1
175
     1
 42
1.0
 92
        8
 66
     7
 43
1.0
 76
     1
 77
     6
 78
     2
 67
     7
 79
     5
170
     0
171
     0
290
     0
174
     0
 93
        1
 44
0.0
173
     0
291
     1
 45
0.0
1001
ACAD
1000
AcDbSavedByObjectVersion
1070
     0
  0
VISUALSTYLE
  5
533
102
{ACAD_REACTORS
330
2A
102
}
102
{ACAD_XDICTIONARY
360
62B
102
}
330
2A
100
AcDbVisualStyle
  2
Flat
 70
     0
 71
     2
 72
     1
 73
     1
 90
        2
 40
0.6
 41
30.0
 62
     5
 63
     7
 74
     0
 91
        4
 64
     7
 65
   257
 75
     1
175
     1
 42
1.0
 92
        8
 66
     7
 43
1.0
 76
     1
 77
     6
 78
     2
 67
     7
 79
     5
170
     0
171
     0
290
     0
174
     0
 93
       13
 44
0.0
173
     0
291
     1
 45
0.0
1001
ACAD
1000
AcDbSavedByObjectVersion
1070
     0
  0
VISUALSTYLE
  5
534
102
{ACAD_REACTORS
330
2A
102
}
102
{ACAD_XDICTIONARY
360
62D
102
}
330
2A
100
AcDbVisualStyle
  2
FlatWithEdges
 70
     1
 71
     2
 72
     1
 73
     1
 90
        2
 40
0.6
 41
30.0
 62
     5
 63
     7
 74
     1
 91
        4
 64
     7
 65
   257
 75
     1
175
     1
 42
1.0
 92
        0
 66
   257
 43
1.0
 76
     1
 77
     6
 78
     2
 67
     7
 79
     5
170
     0
171
     0
290
     0
174
     0
 93
       13
 44
0.0
173
     0
291
     1
 45
0.0
1001
ACAD
1000
AcDbSavedByObjectVersion
1070
     0
  0
VISUALSTYLE
  5
535
102
{ACAD_REACTORS
330
2A
102
}
102
{ACAD_XDICTIONARY
360
62F
102
}
330
2A
100
AcDbVisualStyle
  2
Gouraud
 70
     2
 71
     2
 72
     2
 73
     1
 90
        2
 40
0.6
 41
30.0
 62
     5
 63
     7
 74
     0
 91
        4
 64
     7
 65
   257
 75
     1
175
     1
 42
1.0
 92
        0
 66
     7
 43
1.0
 76
     1
 77
     6
 78
     2
 67
     7
 79
     5
170
     0
171
     0
290
     0
174
     0
 93
       13
 44
0.0
173
     0
291
     1
 45
0.0
1001
ACAD
1000
AcDbSavedByObjectVersion
1070
     0
  0
VISUALSTYLE
  5
536
102
{ACAD_REACTORS
330
2A
102
}
102
{ACAD_XDICTIONARY
360
631
102
}
330
2A
100
AcDbVisualStyle
  2
GouraudWithEdges
 70
     3
 71
     2
 72
     2
 73
     1
 90
        2
 40
0.6
 41
30.0
 62
     5
 63
     7
 74
     1
 91
        4
 64
     7
 65
   257
 75
     1
175
     1
 42
1.0
 92
        0
 66
   257
 43
1.0
 76
     1
 77
     6
 78
     2
 67
     7
 79
     5
170
     0
171
     0
290
     0
174
     0
 93
       13
 44
0.0
173
     0
291
     1
 45
0.0
1001
ACAD
1000
AcDbSavedByObjectVersion
1070
     0
  0
VISUALSTYLE
  5
538
102
{ACAD_REACTORS
330
2A
102
}
102
{ACAD_XDICTIONARY
360
635
102
}
330
2A
100
AcDbVisualStyle
  2
Hidden
 70
     6
 71
     1
 72
     2
 73
     2
 90
        0
 40
0.6
 41
30.0
 62
     5
 63
     7
 74
     2
 91
        2
 64
     7
 65
   257
 75
     2
175
     1
 42
40.0
 92
        0
 66
   257
 43
1.0
 76
     1
 77
     6
 78
     2
 67
     7
 79
     3
170
     0
171
     0
290
     0
174
     0
 93
        1
 44
0.0
173
     0
291
     0
 45
0.0
1001
ACAD
1000
AcDbSavedByObjectVersion
1070
     0
  0
VISUALSTYLE
  5
541
102
{ACAD_REACTORS
330
2A
102
}
102
{ACAD_XDICTIONARY
360
647
102
}
330
2A
100
AcDbVisualStyle
  2
JitterOff
 70
    20
 71
     2
 72
     2
 73
     0
 90
        0
 40
0.6
 41
30.0
 62
     5
 63
     7
 74
     1
 91
        4
 64
     7
 65
   257
 75
     1
175
     1
 42
1.0
 92
       10
 66
     7
 43
1.0
 76
     1
 77
     6
 78
     2
 67
     7
 79
     5
170
     0
171
     0
290
     0
174
     0
 93
        1
 44
0.0
173
     0
291
     1
 45
0.0
1001
ACAD
1000
AcDbSavedByObjectVersion
1070
     0
  0
VISUALSTYLE
  5
53E
102
{ACAD_REACTORS
330
2A
102
}
102
{ACAD_XDICTIONARY
360
641
102
}
330
2A
100
AcDbVisualStyle
  2
Linepattern
 70
    14
 71
     2
 72
     2
 73
     0
 90
        0
 40
0.6
 41
30.0
 62
     5
 63
     7
 74
     1
 91
        4
 64
     7
 65
   257
 75
     7
175
     7
 42
1.0
 92
        8
 66
     7
 43
1.0
 76
     1
 77
     6
 78
     2
 67
     7
 79
     5
170
     0
171
     0
290
     0
174
     0
 93
        1
 44
0.0
173
     0
291
     1
 45
0.0
1001
ACAD
1000
AcDbSavedByObjectVersion
1070
     0
  0
VISUALSTYLE
  5
542
102
{ACAD_REACTORS
330
2A
102
}
102
{ACAD_XDICTIONARY
360
649
102
}
330
2A
100
AcDbVisualStyle
  2
OverhangOff
 70
    21
 71
     2
 72
     2
 73
     0
 90
        0
 40
0.6
 41
30.0
 62
     5
 63
     7
 74
     1
 91
        4
 64
     7
 65
   257
 75
     1
175
     1
 42
1.0
 92
        9
 66
     7
 43
1.0
 76
     1
 77
     6
 78
     2
 67
     7
 79
     5
170
     0
171
     0
290
     0
174
     0
 93
        1
 44
0.0
173
     0
291
     1
 45
0.0
1001
ACAD
1000
AcDbSavedByObjectVersion
1070
     0
  0
VISUALSTYLE
  5
2B
102
{ACAD_REACTORS
330
2A
102
}
102
{ACAD_XDICTIONARY
360
627
102
}
330
2A
100
AcDbVisualStyle
  2
Realistic
 70
     8
 71
     2
 72
     3
 73
     0
 90
        2
 40
0.6
 41
30.0
 62
     5
 63
     7
 74
     0
 91
        0
 64
     7
 65
   257
 75
     1
175
     1
 42
1.0
 92
        8
 66
   257
 43
1.0
 76
     1
 77
     6
 78
     2
 67
     7
 79
     3
170
     0
171
     0
290
     0
174
     0
 93
       13
 44
0.0
173
     0
291
     0
 45
0.0
1001
ACAD
1000
AcDbSavedByObjectVersion
1070
     0
  0
VISUALSTYLE
  5
548
102
{ACAD_REACTORS
330
2A
102
}
102
{ACAD_XDICTIONARY
360
655
102
}
330
2A
100
AcDbVisualStyle
  2
Shaded
 70
    27
 71
     2
 72
     2
 73
     1
 90
        2
 40
0.6
 41
30.0
 62
     5
 63
     7
 74
     0
 91
        4
 64
     7
 65
   257
 75
     1
175
     1
 42
1.0
 92
        8
 66
   257
 43
1.0
 76
     1
 77
     6
 78
     2
 67
   251
 79
     3
170
     0
171
     0
290
     0
174
     0
 93
        5
 44
0.0
173
     0
291
     0
 45
0.0
1001
ACAD
1000
AcDbSavedByObjectVersion
1070
     0
  0
VISUALSTYLE
  5
547
102
{ACAD_REACTORS
330
2A
102
}
102
{ACAD_XDICTIONARY
360
653
102
}
330
2A
100
AcDbVisualStyle
  2
Shaded with edges
 70
    26
 71
     2
 72
     2
 73
     1
 90
        2
 40
0.6
 41
30.0
 62
     5
 63
     7
 74
     1
 91
       10
 64
     7
 65
   257
 75
     2
175
     1
 42
1.0
 92
        8
 66
   257
 43
1.0
 76
     1
 77
     6
 78
     2
 67
     7
 79
     3
170
     0
171
     0
290
     0
174
     0
 93
        5
 44
0.0
173
     0
291
     0
 45
0.0
1001
ACAD
1000
AcDbSavedByObjectVersion
1070
     0
  0
VISUALSTYLE
  5
544
102
{ACAD_REACTORS
330
2A
102
}
102
{ACAD_XDICTIONARY
360
64D
102
}
330
2A
100
AcDbVisualStyle
  2
Shades of Gray
 70
    23
 71
     2
 72
     2
 73
     3
 90
        0
 40
0.6
 41
30.0
 62
     5
 63
     7
 74
     2
 91
        2
 64
     7
 65
     7
 75
     1
175
     1
 42
40.0
 92
        8
 66
     7
 43
1.0
 76
     1
 77
     6
 78
     2
 67
     7
 79
     3
170
     0
171
     0
290
     0
174
     0
 93
        1
 44
0.0
173
     0
291
     0
 45
0.0
1001
ACAD
1000
AcDbSavedByObjectVersion
1070
     0
  0
VISUALSTYLE
  5
545
102
{ACAD_REACTORS
330
2A
102
}
102
{ACAD_XDICTIONARY
360
64F
102
}
330
2A
100
AcDbVisualStyle
  2
Sketchy
 70
    24
 71
     1
 72
     2
 73
     2
 90
        0
 40
0.6
 41
30.0
 62
     5
 63
     7
 74
     2
 91
        2
 64
     7
 65
     7
 75
     1
175
     1
 42
40.0
 92
       11
 66
     7
 43
1.0
 76
     1
 77
     6
 78
     2
 67
     7
 79
     6
170
     0
171
     0
290
     0
174
     0
 93
        1
 44
0.0
173
     0
291
     0
 45
0.0
1001
ACAD
1000
AcDbSavedByObjectVersion
1070
     0
  0
VISUALSTYLE
  5
53D
102
{ACAD_REACTORS
330
2A
102
}
102
{ACAD_XDICTIONARY
360
63F
102
}
330
2A
100
AcDbVisualStyle
  2
Thicken
 70
    13
 71
     2
 72
     2
 73
     0
 90
        0
 40
0.6
 41
30.0
 62
     5
 63
     7
 74
     1
 91
        4
 64
     7
 65
   257
 75
     1
175
     1
 42
1.0
 92
       12
 66
     7
 43
1.0
 76
     1
 77
     6
 78
     2
 67
     7
 79
     5
170
     0
171
     0
290
     0
174
     0
 93
        1
 44
0.0
173
     0
291
     1
 45
0.0
1001
ACAD
1000
AcDbSavedByObjectVersion
1070
     0
  0
VISUALSTYLE
  5
2C
102
{ACAD_REACTORS
330
2A
102
}
102
{ACAD_XDICTIONARY
360
629
102
}
330
2A
100
AcDbVisualStyle
  2
Wireframe
 70
     5
 71
     0
 72
     2
 73
     0
 90
        0
 40
0.6
 41
30.0
 62
     5
 63
     7
 74
     1
 91
        4
 64
     7
 65
   257
 75
     1
175
     1
 42
1.0
 92
        0
 66
   257
 43
1.0
 76
     1
 77
     6
 78
     2
 67
     7
 79
     3
170
     0
171
     0
290
     0
174
     0
 93
        1
 44
0.0
173
     0
291
     0
 45
0.0
1001
ACAD
1000
AcDbSavedByObjectVersion
1070
     0
  0
VISUALSTYLE
  5
546
102
{ACAD_REACTORS
330
2A
102
}
102
{ACAD_XDICTIONARY
360
651
102
}
330
2A
100
AcDbVisualStyle
  2
X-Ray
 70
    25
 71
     2
 72
     2
 73
     1
 90
        1
 40
0.5
 41
30.0
 62
     5
 63
     7
 74
     1
 91
        0
 64
     7
 65
   257
 75
     1
175
     1
 42
1.0
 92
        8
 66
     7
 43
1.0
 76
     1
 77
     6
 78
     2
 67
     7
 79
     3
170
     0
171
     0
290
     0
174
     0
 93
       13
 44
0.0
173
     0
291
     0
 45
0.0
1001
ACAD
1000
AcDbSavedByObjectVersion
1070
     0
  0
XRECORD
  5
61B
102
{ACAD_REACTORS
330
61A
102
}
330
61A
100
AcDbXrecord
280
     1
340
29
  0
XRECORD
  5
61C
102
{ACAD_REACTORS
330
61A
102
}
330
61A
100
AcDbXrecord
280
     1
340
7
  0
DICTIONARYVAR
  5
52D
102
{ACAD_REACTORS
330
52C
102
}
330
52C
100
DictionaryVariables
280
     0
  1
1:1
  0
DICTIONARYVAR
  5
54B
102
{ACAD_REACTORS
330
52C
102
}
330
52C
100
DictionaryVariables
280
     0
  1
Standard
  0
DICTIONARYVAR
  5
617
102
{ACAD_REACTORS
330
52C
102
}
330
52C
100
DictionaryVariables
280
     0
  1
Standard
  0
DICTIONARYVAR
  5
618
102
{ACAD_REACTORS
330
52C
102
}
330
52C
100
DictionaryVariables
280
     0
  1
0
  0
DICTIONARYVAR
  5
619
102
{ACAD_REACTORS
330
52C
102
}
330
52C
100
DictionaryVariables
280
     0
  1
1
  0
DICTIONARYVAR
  5
620
102
{ACAD_REACTORS
330
52C
102
}
330
52C
100
DictionaryVariables
280
     0
  1
1
  0
DICTIONARYVAR
  5
530
102
{ACAD_REACTORS
330
52C
102
}
330
52C
100
DictionaryVariables
280
     0
  1
0
  0
DICTIONARY
  5
625
330
53
100
AcDbDictionary
280
     1
281
     1
  3
ACAD_XREC_ROUNDTRIP
360
626
  0
DICTIONARY
  5
621
330
10
100
AcDbDictionary
280
     1
281
     1
  3
ACAD_XREC_ROUNDTRIP
360
622
  0
DICTIONARY
  5
623
330
6
100
AcDbDictionary
280
     1
281
     1
  3
ACAD_XREC_ROUNDTRIP
360
624
  0
DICTIONARY
  5
657
330
549
100
AcDbDictionary
280
     1
281
     1
  3
ACAD_XREC_ROUNDTRIP
360
658
  0
DICTIONARY
  5
633
330
537
100
AcDbDictionary
280
     1
281
     1
  3
ACAD_XREC_ROUNDTRIP
360
634
  0
DICTIONARY
  5
637
330
539
100
AcDbDictionary
280
     1
281
     1
  3
ACAD_XREC_ROUNDTRIP
360
638
  0
DICTIONARY
  5
63D
330
53C
100
AcDbDictionary
280
     1
281
     1
  3
ACAD_XREC_ROUNDTRIP
360
63E
  0
DICTIONARY
  5
645
330
540
100
AcDbDictionary
280
     1
281
     1
  3
ACAD_XREC_ROUNDTRIP
360
646
  0
DICTIONARY
  5
639
330
53A
100
AcDbDictionary
280
     1
281
     1
  3
ACAD_XREC_ROUNDTRIP
360
63A
  0
DICTIONARY
  5
63B
330
53B
100
AcDbDictionary
280
     1
281
     1
  3
ACAD_XREC_ROUNDTRIP
360
63C
  0
DICTIONARY
  5
64B
330
543
100
AcDbDictionary
280
     1
281
     1
  3
ACAD_XREC_ROUNDTRIP
360
64C
  0
DICTIONARY
  5
643
330
53F
100
AcDbDictionary
280
     1
281
     1
  3
ACAD_XREC_ROUNDTRIP
360
644
  0
DICTIONARY
  5
62B
330
533
100
AcDbDictionary
280
     1
281
     1
  3
ACAD_XREC_ROUNDTRIP
360
62C
  0
DICTIONARY
  5
62D
330
534
100
AcDbDictionary
280
     1
281
     1
  3
ACAD_XREC_ROUNDTRIP
360
62E
  0
DICTIONARY
  5
62F
330
535
100
AcDbDictionary
280
     1
281
     1
  3
ACAD_XREC_ROUNDTRIP
360
630
  0
DICTIONARY
  5
631
330
536
100
AcDbDictionary
280
     1
281
     1
  3
ACAD_XREC_ROUNDTRIP
360
632
  0
DICTIONARY
  5
635
330
538
100
AcDbDictionary
280
     1
281
     1
  3
ACAD_XREC_ROUNDTRIP
360
636
  0
DICTIONARY
  5
647
330
541
100
AcDbDictionary
280
     1
281
     1
  3
ACAD_XREC_ROUNDTRIP
360
648
  0
DICTIONARY
  5
641
330
53E
100
AcDbDictionary
280
     1
281
     1
  3
ACAD_XREC_ROUNDTRIP
360
642
  0
DICTIONARY
  5
649
330
542
100
AcDbDictionary
280
     1
281
     1
  3
ACAD_XREC_ROUNDTRIP
360
64A
  0
DICTIONARY
  5
627
330
2B
100
AcDbDictionary
280
     1
281
     1
  3
ACAD_XREC_ROUNDTRIP
360
628
  0
DICTIONARY
  5
655
330
548
100
AcDbDictionary
280
     1
281
     1
  3
ACAD_XREC_ROUNDTRIP
360
656
  0
DICTIONARY
  5
653
330
547
100
AcDbDictionary
280
     1
281
     1
  3
ACAD_XREC_ROUNDTRIP
360
654
  0
DICTIONARY
  5
64D
330
544
100
AcDbDictionary
280
     1
281
     1
  3
ACAD_XREC_ROUNDTRIP
360
64E
  0
DICTIONARY
  5
64F
330
545
100
AcDbDictionary
280
     1
281
     1
  3
ACAD_XREC_ROUNDTRIP
360
650
  0
DICTIONARY
  5
63F
330
53D
100
AcDbDictionary
280
     1
281
     1
  3
ACAD_XREC_ROUNDTRIP
360
640
  0
DICTIONARY
  5
629
330
2C
100
AcDbDictionary
280
     1
281
     1
  3
ACAD_XREC_ROUNDTRIP
360
62A
  0
DICTIONARY
  5
651
330
546
100
AcDbDictionary
280
     1
281
     1
  3
ACAD_XREC_ROUNDTRIP
360
652
  0
XRECORD
  5
626
102
{ACAD_REACTORS
330
625
102
}
330
625
100
AcDbXrecord
280
     1
102
MATERIAL
148
0.0
149
0.0
149
0.0
 93
        0
 94
      127
282
     0
 72
     0
 77
     0
171
     0
175
     0
179
     0
273
     0
  0
XRECORD
  5
622
102
{ACAD_REACTORS
330
621
102
}
330
621
100
AcDbXrecord
280
     1
102
MATERIAL
148
0.0
149
0.0
149
0.0
 93
        0
 94
      127
282
     0
 72
     0
 77
     0
171
     0
175
     0
179
     0
273
     0
  0
XRECORD
  5
624
102
{ACAD_REACTORS
330
623
102
}
330
623
100
AcDbXrecord
280
     1
102
MATERIAL
148
0.0
149
0.0
149
0.0
 93
        0
 94
      127
282
     0
 72
     0
 77
     0
171
     0
175
     0
179
     0
273
     0
  0
XRECORD
  5
658
102
{ACAD_REACTORS
330
657
102
}
330
657
100
AcDbXrecord
280
     1
102
ACAD_ROUNDTRIP_2010_MLEADER_STYLE
  0
XRECORD
  5
634
102
{ACAD_REACTORS
330
633
102
}
330
633
100
AcDbXrecord
280
     1
102
RTVSPropertyOp0
 70
     1
102
RTVSPropertyOp1
 70
     1
102
RTVSPropertyOp2
 70
     1
102
RTVSPropertyOp3
 70
     1
102
RTVSPropertyOp4
 70
     1
102
RTVSPropertyOp5
 70
     1
102
RTVSPropertyOp6
 70
     1
102
RTVSPropertyOp7
 70
     1
102
RTVSPropertyOp8
 70
     1
102
RTVSPropertyOp9
 70
     1
102
RTVSPropertyOp10
 70
     1
102
RTVSPropertyOp11
 70
     1
102
RTVSPropertyOp12
 70
     1
102
RTVSPropertyOp13
 70
     1
102
RTVSPropertyOp14
 70
     1
102
RTVSPropertyOp15
 70
     1
102
RTVSPropertyOp16
 70
     1
102
RTVSPropertyOp17
 70
     1
102
RTVSPropertyOp18
 70
     1
102
RTVSPropertyOp19
 70
     1
102
RTVSPropertyOp20
 70
     1
102
RTVSPropertyOp21
 70
     1
102
RTVSPropertyOp22
 70
     1
102
RTVSPropertyOp23
 70
     1
102
RTVSPropertyOp24
 70
     1
102
RTVSPropertyOp25
 70
     1
102
RTVSPropertyOp26
 70
     1
102
RTVSPropertyOp27
 70
     1
102
RTVSPropertyOp28
 70
     1
102
RTVSPropertyOp29
 70
     1
102
RTVSPropertyOp30
 70
     1
102
RTVSPropertyOp31
 70
     1
102
RTVSPropertyOp32
 70
     1
102
RTVSPropertyOp33
 70
     1
102
RTVSPropertyOp34
 70
     1
102
RTVSPropertyOp35
 70
     1
102
RTVSPropertyOp36
 70
     1
102
RTVSPropertyOp37
 70
     1
102
RTVSPropertyOp38
 70
     1
102
RTVSPropertyOp39
 70
     1
102
RTVSPropertyOp40
 70
     1
102
RTVSPropertyOp41
 70
     1
102
RTVSPropertyOp42
 70
     1
102
RTVSPropertyOp43
 70
     1
102
RTVSPropertyOp44
 70
     1
102
RTVSPropertyOp45
 70
     1
102
RTVSPropertyOp46
 70
     1
102
RTVSPropertyOp47
 70
     1
102
RTVSPropertyOp48
 70
     1
102
RTVSPropertyOp49
 70
     1
102
RTVSPropertyOp50
 70
     1
102
RTVSPropertyOp51
 70
     0
102
RTVSPropertyOp52
 70
     0
102
RTVSPropertyOp53
 70
     1
102
RTVSPropertyOp54
 70
     1
102
RTVSPropertyOp55
 70
     1
102
RTVSPropertyOp56
 70
     1
102
RTVSPropertyOp57
 70
     1
102
RTVSPost2010Prop28
280
     1
102
RTVSPost2010PropOp28
 70
     1
102
RTVSPost2010Prop29
280
     1
102
RTVSPost2010PropOp29
 70
     1
102
RTVSPost2010Prop30
280
     0
102
RTVSPost2010PropOp30
 70
     1
102
RTVSPost2010Prop31
280
     0
102
RTVSPost2010PropOp31
 70
     1
102
RTVSPost2010Prop32
280
     0
102
RTVSPost2010PropOp32
 70
     1
102
RTVSPost2010Prop33
280
     0
102
RTVSPost2010PropOp33
 70
     1
102
RTVSPost2010Prop34
280
     0
102
RTVSPost2010PropOp34
 70
     1
102
RTVSPost2010Prop35
280
     0
102
RTVSPost2010PropOp35
 70
     1
102
RTVSPost2010Prop36
280
     0
102
RTVSPost2010PropOp36
 70
     1
102
RTVSPost2010Prop37
 90
       50
102
RTVSPost2010PropOp37
 70
     1
102
RTVSPost2010Prop38
140
0.0
102
RTVSPost2010PropOp38
 70
     1
102
RTVSPost2010Prop39
140
1.0
102
RTVSPost2010PropOp39
 70
     1
102
RTVSPost2010Prop40
 90
        0
102
RTVSPost2010PropOp40
 70
     1
102
RTVSPost2010Prop41ColorIndex
 90
       18
102
RTVSPost2010Prop41ColorRGB
 90
        0
102
RTVSPost2010PropOp41
 70
     1
102
RTVSPost2010Prop42
 90
       50
102
RTVSPost2010PropOp42
 70
     1
102
RTVSPost2010Prop43
 90
        3
102
RTVSPost2010PropOp43
 70
     1
102
RTVSPost2010Prop44ColorIndex
 90
        5
102
RTVSPost2010Prop44ColorRGB
 90
      255
102
RTVSPost2010PropOp44
 70
     1
102
RTVSPost2010Prop45
280
     0
102
RTVSPost2010PropOp45
 70
     1
102
RTVSPost2010Prop46
 90
       50
102
RTVSPost2010PropOp46
 70
     1
102
RTVSPost2010Prop47
 90
       50
102
RTVSPost2010PropOp47
 70
     1
102
RTVSPost2010Prop48
 90
       50
102
RTVSPost2010PropOp48
 70
     1
102
RTVSPost2010Prop49
280
     0
102
RTVSPost2010PropOp49
 70
     1
102
RTVSPost2010Prop50
 90
       50
102
RTVSPost2010PropOp50
 70
     1
102
RTVSPost2010Prop51ColorIndex
 90
      256
102
RTVSPost2010Prop51ColorRGB
 90
-16777216
102
RTVSPost2010PropOp51
 70
     0
102
RTVSPost2010Prop52
140
1.0
102
RTVSPost2010PropOp52
 70
     0
102
RTVSPost2010Prop53
 90
        2
102
RTVSPost2010PropOp53
 70
     1
102
RTVSPost2010Prop54
  1
strokes_ogs.tif
102
RTVSPost2010PropOp54
 70
     1
102
RTVSPost2010Prop55
280
     0
102
RTVSPost2010PropOp55
 70
     1
102
RTVSPost2010Prop56
140
1.0
102
RTVSPost2010PropOp56
 70
     1
102
RTVSPost2010Prop57
140
1.0
102
RTVSPost2010PropOp57
 70
     1
  0
XRECORD
  5
638
102
{ACAD_REACTORS
330
637
102
}
330
637
100
AcDbXrecord
280
     1
102
RTVSPropertyOp0
 70
     1
102
RTVSPropertyOp1
 70
     1
102
RTVSPropertyOp2
 70
     1
102
RTVSPropertyOp3
 70
     1
102
RTVSPropertyOp4
 70
     1
102
RTVSPropertyOp5
 70
     1
102
RTVSPropertyOp6
 70
     1
102
RTVSPropertyOp7
 70
     1
102
RTVSPropertyOp8
 70
     1
102
RTVSPropertyOp9
 70
     1
102
RTVSPropertyOp10
 70
     1
102
RTVSPropertyOp11
 70
     1
102
RTVSPropertyOp12
 70
     1
102
RTVSPropertyOp13
 70
     1
102
RTVSPropertyOp14
 70
     1
102
RTVSPropertyOp15
 70
     1
102
RTVSPropertyOp16
 70
     1
102
RTVSPropertyOp17
 70
     1
102
RTVSPropertyOp18
 70
     1
102
RTVSPropertyOp19
 70
     1
102
RTVSPropertyOp20
 70
     1
102
RTVSPropertyOp21
 70
     1
102
RTVSPropertyOp22
 70
     1
102
RTVSPropertyOp23
 70
     1
102
RTVSPropertyOp24
 70
     1
102
RTVSPropertyOp25
 70
     1
102
RTVSPropertyOp26
 70
     1
102
RTVSPropertyOp27
 70
     1
102
RTVSPropertyOp28
 70
     1
102
RTVSPropertyOp29
 70
     1
102
RTVSPropertyOp30
 70
     1
102
RTVSPropertyOp31
 70
     1
102
RTVSPropertyOp32
 70
     1
102
RTVSPropertyOp33
 70
     1
102
RTVSPropertyOp34
 70
     1
102
RTVSPropertyOp35
 70
     1
102
RTVSPropertyOp36
 70
     1
102
RTVSPropertyOp37
 70
     1
102
RTVSPropertyOp38
 70
     1
102
RTVSPropertyOp39
 70
     1
102
RTVSPropertyOp40
 70
     1
102
RTVSPropertyOp41
 70
     1
102
RTVSPropertyOp42
 70
     1
102
RTVSPropertyOp43
 70
     1
102
RTVSPropertyOp44
 70
     1
102
RTVSPropertyOp45
 70
     1
102
RTVSPropertyOp46
 70
     1
102
RTVSPropertyOp47
 70
     1
102
RTVSPropertyOp48
 70
     1
102
RTVSPropertyOp49
 70
     1
102
RTVSPropertyOp50
 70
     1
102
RTVSPropertyOp51
 70
     0
102
RTVSPropertyOp52
 70
     0
102
RTVSPropertyOp53
 70
     1
102
RTVSPropertyOp54
 70
     1
102
RTVSPropertyOp55
 70
     1
102
RTVSPropertyOp56
 70
     1
102
RTVSPropertyOp57
 70
     1
102
RTVSPost2010Prop28
280
     0
102
RTVSPost2010PropOp28
 70
     1
102
RTVSPost2010Prop29
280
     1
102
RTVSPost2010PropOp29
 70
     1
102
RTVSPost2010Prop30
280
     1
102
RTVSPost2010PropOp30
 70
     1
102
RTVSPost2010Prop31
280
     0
102
RTVSPost2010PropOp31
 70
     1
102
RTVSPost2010Prop32
280
     0
102
RTVSPost2010PropOp32
 70
     1
102
RTVSPost2010Prop33
280
     0
102
RTVSPost2010PropOp33
 70
     1
102
RTVSPost2010Prop34
280
     0
102
RTVSPost2010PropOp34
 70
     1
102
RTVSPost2010Prop35
280
     0
102
RTVSPost2010PropOp35
 70
     1
102
RTVSPost2010Prop36
280
     0
102
RTVSPost2010PropOp36
 70
     1
102
RTVSPost2010Prop37
 90
       50
102
RTVSPost2010PropOp37
 70
     1
102
RTVSPost2010Prop38
140
0.0
102
RTVSPost2010PropOp38
 70
     1
102
RTVSPost2010Prop39
140
1.0
102
RTVSPost2010PropOp39
 70
     1
102
RTVSPost2010Prop40
 90
        0
102
RTVSPost2010PropOp40
 70
     1
102
RTVSPost2010Prop41ColorIndex
 90
       18
102
RTVSPost2010Prop41ColorRGB
 90
        0
102
RTVSPost2010PropOp41
 70
     1
102
RTVSPost2010Prop42
 90
       50
102
RTVSPost2010PropOp42
 70
     1
102
RTVSPost2010Prop43
 90
        3
102
RTVSPost2010PropOp43
 70
     1
102
RTVSPost2010Prop44ColorIndex
 90
        5
102
RTVSPost2010Prop44ColorRGB
 90
      255
102
RTVSPost2010PropOp44
 70
     1
102
RTVSPost2010Prop45
280
     0
102
RTVSPost2010PropOp45
 70
     1
102
RTVSPost2010Prop46
 90
       50
102
RTVSPost2010PropOp46
 70
     1
102
RTVSPost2010Prop47
 90
       50
102
RTVSPost2010PropOp47
 70
     1
102
RTVSPost2010Prop48
 90
       50
102
RTVSPost2010PropOp48
 70
     1
102
RTVSPost2010Prop49
280
     0
102
RTVSPost2010PropOp49
 70
     1
102
RTVSPost2010Prop50
 90
       50
102
RTVSPost2010PropOp50
 70
     1
102
RTVSPost2010Prop51ColorIndex
 90
      256
102
RTVSPost2010Prop51ColorRGB
 90
-16777216
102
RTVSPost2010PropOp51
 70
     0
102
RTVSPost2010Prop52
140
1.0
102
RTVSPost2010PropOp52
 70
     0
102
RTVSPost2010Prop53
 90
        2
102
RTVSPost2010PropOp53
 70
     1
102
RTVSPost2010Prop54
  1
strokes_ogs.tif
102
RTVSPost2010PropOp54
 70
     1
102
RTVSPost2010Prop55
280
     0
102
RTVSPost2010PropOp55
 70
     1
102
RTVSPost2010Prop56
140
1.0
102
RTVSPost2010PropOp56
 70
     1
102
RTVSPost2010Prop57
140
1.0
102
RTVSPost2010PropOp57
 70
     1
  0
XRECORD
  5
63E
102
{ACAD_REACTORS
330
63D
102
}
330
63D
100
AcDbXrecord
280
     1
102
RTVSPropertyOp0
 70
     1
102
RTVSPropertyOp1
 70
     1
102
RTVSPropertyOp2
 70
     1
102
RTVSPropertyOp3
 70
     1
102
RTVSPropertyOp4
 70
     1
102
RTVSPropertyOp5
 70
     1
102
RTVSPropertyOp6
 70
     1
102
RTVSPropertyOp7
 70
     1
102
RTVSPropertyOp8
 70
     1
102
RTVSPropertyOp9
 70
     1
102
RTVSPropertyOp10
 70
     1
102
RTVSPropertyOp11
 70
     1
102
RTVSPropertyOp12
 70
     1
102
RTVSPropertyOp13
 70
     1
102
RTVSPropertyOp14
 70
     1
102
RTVSPropertyOp15
 70
     1
102
RTVSPropertyOp16
 70
     1
102
RTVSPropertyOp17
 70
     1
102
RTVSPropertyOp18
 70
     1
102
RTVSPropertyOp19
 70
     1
102
RTVSPropertyOp20
 70
     1
102
RTVSPropertyOp21
 70
     1
102
RTVSPropertyOp22
 70
     1
102
RTVSPropertyOp23
 70
     1
102
RTVSPropertyOp24
 70
     1
102
RTVSPropertyOp25
 70
     1
102
RTVSPropertyOp26
 70
     1
102
RTVSPropertyOp27
 70
     1
102
RTVSPropertyOp28
 70
     1
102
RTVSPropertyOp29
 70
     1
102
RTVSPropertyOp30
 70
     1
102
RTVSPropertyOp31
 70
     1
102
RTVSPropertyOp32
 70
     1
102
RTVSPropertyOp33
 70
     1
102
RTVSPropertyOp34
 70
     1
102
RTVSPropertyOp35
 70
     1
102
RTVSPropertyOp36
 70
     1
102
RTVSPropertyOp37
 70
     1
102
RTVSPropertyOp38
 70
     1
102
RTVSPropertyOp39
 70
     1
102
RTVSPropertyOp40
 70
     1
102
RTVSPropertyOp41
 70
     1
102
RTVSPropertyOp42
 70
     1
102
RTVSPropertyOp43
 70
     1
102
RTVSPropertyOp44
 70
     1
102
RTVSPropertyOp45
 70
     1
102
RTVSPropertyOp46
 70
     1
102
RTVSPropertyOp47
 70
     1
102
RTVSPropertyOp48
 70
     1
102
RTVSPropertyOp49
 70
     1
102
RTVSPropertyOp50
 70
     1
102
RTVSPropertyOp51
 70
     0
102
RTVSPropertyOp52
 70
     0
102
RTVSPropertyOp53
 70
     1
102
RTVSPropertyOp54
 70
     1
102
RTVSPropertyOp55
 70
     1
102
RTVSPropertyOp56
 70
     1
102
RTVSPropertyOp57
 70
     1
102
RTVSPost2010Prop28
280
     0
102
RTVSPost2010PropOp28
 70
     1
102
RTVSPost2010Prop29
280
     1
102
RTVSPost2010PropOp29
 70
     1
102
RTVSPost2010Prop30
280
     1
102
RTVSPost2010PropOp30
 70
     1
102
RTVSPost2010Prop31
280
     0
102
RTVSPost2010PropOp31
 70
     1
102
RTVSPost2010Prop32
280
     0
102
RTVSPost2010PropOp32
 70
     1
102
RTVSPost2010Prop33
280
     0
102
RTVSPost2010PropOp33
 70
     1
102
RTVSPost2010Prop34
280
     0
102
RTVSPost2010PropOp34
 70
     1
102
RTVSPost2010Prop35
280
     0
102
RTVSPost2010PropOp35
 70
     1
102
RTVSPost2010Prop36
280
     0
102
RTVSPost2010PropOp36
 70
     1
102
RTVSPost2010Prop37
 90
       50
102
RTVSPost2010PropOp37
 70
     1
102
RTVSPost2010Prop38
140
0.0
102
RTVSPost2010PropOp38
 70
     1
102
RTVSPost2010Prop39
140
1.0
102
RTVSPost2010PropOp39
 70
     1
102
RTVSPost2010Prop40
 90
        0
102
RTVSPost2010PropOp40
 70
     1
102
RTVSPost2010Prop41ColorIndex
 90
       18
102
RTVSPost2010Prop41ColorRGB
 90
        0
102
RTVSPost2010PropOp41
 70
     1
102
RTVSPost2010Prop42
 90
       50
102
RTVSPost2010PropOp42
 70
     1
102
RTVSPost2010Prop43
 90
        3
102
RTVSPost2010PropOp43
 70
     1
102
RTVSPost2010Prop44ColorIndex
 90
        5
102
RTVSPost2010Prop44ColorRGB
 90
      255
102
RTVSPost2010PropOp44
 70
     1
102
RTVSPost2010Prop45
280
     0
102
RTVSPost2010PropOp45
 70
     1
102
RTVSPost2010Prop46
 90
       50
102
RTVSPost2010PropOp46
 70
     1
102
RTVSPost2010Prop47
 90
       50
102
RTVSPost2010PropOp47
 70
     1
102
RTVSPost2010Prop48
 90
       50
102
RTVSPost2010PropOp48
 70
     1
102
RTVSPost2010Prop49
280
     0
102
RTVSPost2010PropOp49
 70
     1
102
RTVSPost2010Prop50
 90
       50
102
RTVSPost2010PropOp50
 70
     1
102
RTVSPost2010Prop51ColorIndex
 90
      256
102
RTVSPost2010Prop51ColorRGB
 90
-16777216
102
RTVSPost2010PropOp51
 70
     0
102
RTVSPost2010Prop52
140
1.0
102
RTVSPost2010PropOp52
 70
     0
102
RTVSPost2010Prop53
 90
        2
102
RTVSPost2010PropOp53
 70
     1
102
RTVSPost2010Prop54
  1
strokes_ogs.tif
102
RTVSPost2010PropOp54
 70
     1
102
RTVSPost2010Prop55
280
     0
102
RTVSPost2010PropOp55
 70
     1
102
RTVSPost2010Prop56
140
1.0
102
RTVSPost2010PropOp56
 70
     1
102
RTVSPost2010Prop57
140
1.0
102
RTVSPost2010PropOp57
 70
     1
  0
XRECORD
  5
646
102
{ACAD_REACTORS
330
645
102
}
330
645
100
AcDbXrecord
280
     1
102
RTVSPropertyOp0
 70
     1
102
RTVSPropertyOp1
 70
     1
102
RTVSPropertyOp2
 70
     1
102
RTVSPropertyOp3
 70
     1
102
RTVSPropertyOp4
 70
     1
102
RTVSPropertyOp5
 70
     1
102
RTVSPropertyOp6
 70
     1
102
RTVSPropertyOp7
 70
     1
102
RTVSPropertyOp8
 70
     1
102
RTVSPropertyOp9
 70
     1
102
RTVSPropertyOp10
 70
     1
102
RTVSPropertyOp11
 70
     1
102
RTVSPropertyOp12
 70
     1
102
RTVSPropertyOp13
 70
     1
102
RTVSPropertyOp14
 70
     1
102
RTVSPropertyOp15
 70
     1
102
RTVSPropertyOp16
 70
     1
102
RTVSPropertyOp17
 70
     1
102
RTVSPropertyOp18
 70
     1
102
RTVSPropertyOp19
 70
     1
102
RTVSPropertyOp20
 70
     1
102
RTVSPropertyOp21
 70
     1
102
RTVSPropertyOp22
 70
     1
102
RTVSPropertyOp23
 70
     1
102
RTVSPropertyOp24
 70
     1
102
RTVSPropertyOp25
 70
     1
102
RTVSPropertyOp26
 70
     1
102
RTVSPropertyOp27
 70
     1
102
RTVSPropertyOp28
 70
     1
102
RTVSPropertyOp29
 70
     1
102
RTVSPropertyOp30
 70
     1
102
RTVSPropertyOp31
 70
     1
102
RTVSPropertyOp32
 70
     1
102
RTVSPropertyOp33
 70
     1
102
RTVSPropertyOp34
 70
     1
102
RTVSPropertyOp35
 70
     1
102
RTVSPropertyOp36
 70
     1
102
RTVSPropertyOp37
 70
     1
102
RTVSPropertyOp38
 70
     1
102
RTVSPropertyOp39
 70
     1
102
RTVSPropertyOp40
 70
     1
102
RTVSPropertyOp41
 70
     1
102
RTVSPropertyOp42
 70
     1
102
RTVSPropertyOp43
 70
     1
102
RTVSPropertyOp44
 70
     1
102
RTVSPropertyOp45
 70
     1
102
RTVSPropertyOp46
 70
     1
102
RTVSPropertyOp47
 70
     1
102
RTVSPropertyOp48
 70
     1
102
RTVSPropertyOp49
 70
     1
102
RTVSPropertyOp50
 70
     1
102
RTVSPropertyOp51
 70
     0
102
RTVSPropertyOp52
 70
     0
102
RTVSPropertyOp53
 70
     1
102
RTVSPropertyOp54
 70
     1
102
RTVSPropertyOp55
 70
     1
102
RTVSPropertyOp56
 70
     1
102
RTVSPropertyOp57
 70
     1
102
RTVSPost2010Prop28
280
     0
102
RTVSPost2010PropOp28
 70
     1
102
RTVSPost2010Prop29
280
     1
102
RTVSPost2010PropOp29
 70
     1
102
RTVSPost2010Prop30
280
     1
102
RTVSPost2010PropOp30
 70
     1
102
RTVSPost2010Prop31
280
     0
102
RTVSPost2010PropOp31
 70
     1
102
RTVSPost2010Prop32
280
     0
102
RTVSPost2010PropOp32
 70
     1
102
RTVSPost2010Prop33
280
     0
102
RTVSPost2010PropOp33
 70
     1
102
RTVSPost2010Prop34
280
     0
102
RTVSPost2010PropOp34
 70
     1
102
RTVSPost2010Prop35
280
     0
102
RTVSPost2010PropOp35
 70
     1
102
RTVSPost2010Prop36
280
     0
102
RTVSPost2010PropOp36
 70
     1
102
RTVSPost2010Prop37
 90
       50
102
RTVSPost2010PropOp37
 70
     1
102
RTVSPost2010Prop38
140
0.0
102
RTVSPost2010PropOp38
 70
     1
102
RTVSPost2010Prop39
140
1.0
102
RTVSPost2010PropOp39
 70
     1
102
RTVSPost2010Prop40
 90
        0
102
RTVSPost2010PropOp40
 70
     1
102
RTVSPost2010Prop41ColorIndex
 90
       18
102
RTVSPost2010Prop41ColorRGB
 90
        0
102
RTVSPost2010PropOp41
 70
     1
102
RTVSPost2010Prop42
 90
       50
102
RTVSPost2010PropOp42
 70
     1
102
RTVSPost2010Prop43
 90
        3
102
RTVSPost2010PropOp43
 70
     1
102
RTVSPost2010Prop44ColorIndex
 90
        5
102
RTVSPost2010Prop44ColorRGB
 90
      255
102
RTVSPost2010PropOp44
 70
     1
102
RTVSPost2010Prop45
280
     0
102
RTVSPost2010PropOp45
 70
     1
102
RTVSPost2010Prop46
 90
       50
102
RTVSPost2010PropOp46
 70
     1
102
RTVSPost2010Prop47
 90
       50
102
RTVSPost2010PropOp47
 70
     1
102
RTVSPost2010Prop48
 90
       50
102
RTVSPost2010PropOp48
 70
     1
102
RTVSPost2010Prop49
280
     0
102
RTVSPost2010PropOp49
 70
     1
102
RTVSPost2010Prop50
 90
       50
102
RTVSPost2010PropOp50
 70
     1
102
RTVSPost2010Prop51ColorIndex
 90
      256
102
RTVSPost2010Prop51ColorRGB
 90
-16777216
102
RTVSPost2010PropOp51
 70
     0
102
RTVSPost2010Prop52
140
1.0
102
RTVSPost2010PropOp52
 70
     0
102
RTVSPost2010Prop53
 90
        2
102
RTVSPost2010PropOp53
 70
     1
102
RTVSPost2010Prop54
  1
strokes_ogs.tif
102
RTVSPost2010PropOp54
 70
     1
102
RTVSPost2010Prop55
280
     0
102
RTVSPost2010PropOp55
 70
     1
102
RTVSPost2010Prop56
140
1.0
102
RTVSPost2010PropOp56
 70
     1
102
RTVSPost2010Prop57
140
1.0
102
RTVSPost2010PropOp57
 70
     1
  0
XRECORD
  5
63A
102
{ACAD_REACTORS
330
639
102
}
330
639
100
AcDbXrecord
280
     1
102
RTVSPropertyOp0
 70
     1
102
RTVSPropertyOp1
 70
     1
102
RTVSPropertyOp2
 70
     1
102
RTVSPropertyOp3
 70
     1
102
RTVSPropertyOp4
 70
     1
102
RTVSPropertyOp5
 70
     1
102
RTVSPropertyOp6
 70
     1
102
RTVSPropertyOp7
 70
     1
102
RTVSPropertyOp8
 70
     1
102
RTVSPropertyOp9
 70
     1
102
RTVSPropertyOp10
 70
     1
102
RTVSPropertyOp11
 70
     1
102
RTVSPropertyOp12
 70
     1
102
RTVSPropertyOp13
 70
     1
102
RTVSPropertyOp14
 70
     1
102
RTVSPropertyOp15
 70
     1
102
RTVSPropertyOp16
 70
     1
102
RTVSPropertyOp17
 70
     1
102
RTVSPropertyOp18
 70
     1
102
RTVSPropertyOp19
 70
     1
102
RTVSPropertyOp20
 70
     1
102
RTVSPropertyOp21
 70
     1
102
RTVSPropertyOp22
 70
     1
102
RTVSPropertyOp23
 70
     1
102
RTVSPropertyOp24
 70
     1
102
RTVSPropertyOp25
 70
     1
102
RTVSPropertyOp26
 70
     1
102
RTVSPropertyOp27
 70
     1
102
RTVSPropertyOp28
 70
     1
102
RTVSPropertyOp29
 70
     1
102
RTVSPropertyOp30
 70
     1
102
RTVSPropertyOp31
 70
     1
102
RTVSPropertyOp32
 70
     1
102
RTVSPropertyOp33
 70
     1
102
RTVSPropertyOp34
 70
     1
102
RTVSPropertyOp35
 70
     1
102
RTVSPropertyOp36
 70
     1
102
RTVSPropertyOp37
 70
     1
102
RTVSPropertyOp38
 70
     1
102
RTVSPropertyOp39
 70
     1
102
RTVSPropertyOp40
 70
     1
102
RTVSPropertyOp41
 70
     1
102
RTVSPropertyOp42
 70
     1
102
RTVSPropertyOp43
 70
     1
102
RTVSPropertyOp44
 70
     1
102
RTVSPropertyOp45
 70
     1
102
RTVSPropertyOp46
 70
     1
102
RTVSPropertyOp47
 70
     1
102
RTVSPropertyOp48
 70
     1
102
RTVSPropertyOp49
 70
     1
102
RTVSPropertyOp50
 70
     1
102
RTVSPropertyOp51
 70
     0
102
RTVSPropertyOp52
 70
     0
102
RTVSPropertyOp53
 70
     1
102
RTVSPropertyOp54
 70
     1
102
RTVSPropertyOp55
 70
     1
102
RTVSPropertyOp56
 70
     1
102
RTVSPropertyOp57
 70
     1
102
RTVSPost2010Prop28
280
     0
102
RTVSPost2010PropOp28
 70
     1
102
RTVSPost2010Prop29
280
     1
102
RTVSPost2010PropOp29
 70
     1
102
RTVSPost2010Prop30
280
     1
102
RTVSPost2010PropOp30
 70
     1
102
RTVSPost2010Prop31
280
     0
102
RTVSPost2010PropOp31
 70
     1
102
RTVSPost2010Prop32
280
     0
102
RTVSPost2010PropOp32
 70
     1
102
RTVSPost2010Prop33
280
     0
102
RTVSPost2010PropOp33
 70
     1
102
RTVSPost2010Prop34
280
     0
102
RTVSPost2010PropOp34
 70
     1
102
RTVSPost2010Prop35
280
     0
102
RTVSPost2010PropOp35
 70
     1
102
RTVSPost2010Prop36
280
     0
102
RTVSPost2010PropOp36
 70
     1
102
RTVSPost2010Prop37
 90
       50
102
RTVSPost2010PropOp37
 70
     1
102
RTVSPost2010Prop38
140
0.0
102
RTVSPost2010PropOp38
 70
     1
102
RTVSPost2010Prop39
140
1.0
102
RTVSPost2010PropOp39
 70
     1
102
RTVSPost2010Prop40
 90
        0
102
RTVSPost2010PropOp40
 70
     1
102
RTVSPost2010Prop41ColorIndex
 90
       18
102
RTVSPost2010Prop41ColorRGB
 90
        0
102
RTVSPost2010PropOp41
 70
     1
102
RTVSPost2010Prop42
 90
       50
102
RTVSPost2010PropOp42
 70
     1
102
RTVSPost2010Prop43
 90
        3
102
RTVSPost2010PropOp43
 70
     1
102
RTVSPost2010Prop44ColorIndex
 90
        5
102
RTVSPost2010Prop44ColorRGB
 90
      255
102
RTVSPost2010PropOp44
 70
     1
102
RTVSPost2010Prop45
280
     0
102
RTVSPost2010PropOp45
 70
     1
102
RTVSPost2010Prop46
 90
       50
102
RTVSPost2010PropOp46
 70
     1
102
RTVSPost2010Prop47
 90
       50
102
RTVSPost2010PropOp47
 70
     1
102
RTVSPost2010Prop48
 90
       50
102
RTVSPost2010PropOp48
 70
     1
102
RTVSPost2010Prop49
280
     0
102
RTVSPost2010PropOp49
 70
     1
102
RTVSPost2010Prop50
 90
       50
102
RTVSPost2010PropOp50
 70
     1
102
RTVSPost2010Prop51ColorIndex
 90
      256
102
RTVSPost2010Prop51ColorRGB
 90
-16777216
102
RTVSPost2010PropOp51
 70
     0
102
RTVSPost2010Prop52
140
1.0
102
RTVSPost2010PropOp52
 70
     0
102
RTVSPost2010Prop53
 90
        2
102
RTVSPost2010PropOp53
 70
     1
102
RTVSPost2010Prop54
  1
strokes_ogs.tif
102
RTVSPost2010PropOp54
 70
     1
102
RTVSPost2010Prop55
280
     0
102
RTVSPost2010PropOp55
 70
     1
102
RTVSPost2010Prop56
140
1.0
102
RTVSPost2010PropOp56
 70
     1
102
RTVSPost2010Prop57
140
1.0
102
RTVSPost2010PropOp57
 70
     1
  0
XRECORD
  5
63C
102
{ACAD_REACTORS
330
63B
102
}
330
63B
100
AcDbXrecord
280
     1
102
RTVSPropertyOp0
 70
     1
102
RTVSPropertyOp1
 70
     1
102
RTVSPropertyOp2
 70
     1
102
RTVSPropertyOp3
 70
     1
102
RTVSPropertyOp4
 70
     1
102
RTVSPropertyOp5
 70
     1
102
RTVSPropertyOp6
 70
     1
102
RTVSPropertyOp7
 70
     1
102
RTVSPropertyOp8
 70
     1
102
RTVSPropertyOp9
 70
     1
102
RTVSPropertyOp10
 70
     1
102
RTVSPropertyOp11
 70
     1
102
RTVSPropertyOp12
 70
     1
102
RTVSPropertyOp13
 70
     1
102
RTVSPropertyOp14
 70
     1
102
RTVSPropertyOp15
 70
     1
102
RTVSPropertyOp16
 70
     1
102
RTVSPropertyOp17
 70
     1
102
RTVSPropertyOp18
 70
     1
102
RTVSPropertyOp19
 70
     1
102
RTVSPropertyOp20
 70
     1
102
RTVSPropertyOp21
 70
     1
102
RTVSPropertyOp22
 70
     1
102
RTVSPropertyOp23
 70
     1
102
RTVSPropertyOp24
 70
     1
102
RTVSPropertyOp25
 70
     1
102
RTVSPropertyOp26
 70
     1
102
RTVSPropertyOp27
 70
     1
102
RTVSPropertyOp28
 70
     1
102
RTVSPropertyOp29
 70
     1
102
RTVSPropertyOp30
 70
     1
102
RTVSPropertyOp31
 70
     1
102
RTVSPropertyOp32
 70
     1
102
RTVSPropertyOp33
 70
     1
102
RTVSPropertyOp34
 70
     1
102
RTVSPropertyOp35
 70
     1
102
RTVSPropertyOp36
 70
     1
102
RTVSPropertyOp37
 70
     1
102
RTVSPropertyOp38
 70
     1
102
RTVSPropertyOp39
 70
     1
102
RTVSPropertyOp40
 70
     1
102
RTVSPropertyOp41
 70
     1
102
RTVSPropertyOp42
 70
     1
102
RTVSPropertyOp43
 70
     1
102
RTVSPropertyOp44
 70
     1
102
RTVSPropertyOp45
 70
     1
102
RTVSPropertyOp46
 70
     1
102
RTVSPropertyOp47
 70
     1
102
RTVSPropertyOp48
 70
     1
102
RTVSPropertyOp49
 70
     1
102
RTVSPropertyOp50
 70
     1
102
RTVSPropertyOp51
 70
     0
102
RTVSPropertyOp52
 70
     0
102
RTVSPropertyOp53
 70
     1
102
RTVSPropertyOp54
 70
     1
102
RTVSPropertyOp55
 70
     1
102
RTVSPropertyOp56
 70
     1
102
RTVSPropertyOp57
 70
     1
102
RTVSPost2010Prop28
280
     0
102
RTVSPost2010PropOp28
 70
     1
102
RTVSPost2010Prop29
280
     1
102
RTVSPost2010PropOp29
 70
     1
102
RTVSPost2010Prop30
280
     1
102
RTVSPost2010PropOp30
 70
     1
102
RTVSPost2010Prop31
280
     0
102
RTVSPost2010PropOp31
 70
     1
102
RTVSPost2010Prop32
280
     0
102
RTVSPost2010PropOp32
 70
     1
102
RTVSPost2010Prop33
280
     0
102
RTVSPost2010PropOp33
 70
     1
102
RTVSPost2010Prop34
280
     0
102
RTVSPost2010PropOp34
 70
     1
102
RTVSPost2010Prop35
280
     0
102
RTVSPost2010PropOp35
 70
     1
102
RTVSPost2010Prop36
280
     0
102
RTVSPost2010PropOp36
 70
     1
102
RTVSPost2010Prop37
 90
       50
102
RTVSPost2010PropOp37
 70
     1
102
RTVSPost2010Prop38
140
0.0
102
RTVSPost2010PropOp38
 70
     1
102
RTVSPost2010Prop39
140
1.0
102
RTVSPost2010PropOp39
 70
     1
102
RTVSPost2010Prop40
 90
        0
102
RTVSPost2010PropOp40
 70
     1
102
RTVSPost2010Prop41ColorIndex
 90
       18
102
RTVSPost2010Prop41ColorRGB
 90
        0
102
RTVSPost2010PropOp41
 70
     1
102
RTVSPost2010Prop42
 90
       50
102
RTVSPost2010PropOp42
 70
     1
102
RTVSPost2010Prop43
 90
        3
102
RTVSPost2010PropOp43
 70
     1
102
RTVSPost2010Prop44ColorIndex
 90
        5
102
RTVSPost2010Prop44ColorRGB
 90
      255
102
RTVSPost2010PropOp44
 70
     1
102
RTVSPost2010Prop45
280
     0
102
RTVSPost2010PropOp45
 70
     1
102
RTVSPost2010Prop46
 90
       50
102
RTVSPost2010PropOp46
 70
     1
102
RTVSPost2010Prop47
 90
       50
102
RTVSPost2010PropOp47
 70
     1
102
RTVSPost2010Prop48
 90
       50
102
RTVSPost2010PropOp48
 70
     1
102
RTVSPost2010Prop49
280
     0
102
RTVSPost2010PropOp49
 70
     1
102
RTVSPost2010Prop50
 90
       50
102
RTVSPost2010PropOp50
 70
     1
102
RTVSPost2010Prop51ColorIndex
 90
      256
102
RTVSPost2010Prop51ColorRGB
 90
-16777216
102
RTVSPost2010PropOp51
 70
     0
102
RTVSPost2010Prop52
140
1.0
102
RTVSPost2010PropOp52
 70
     0
102
RTVSPost2010Prop53
 90
        2
102
RTVSPost2010PropOp53
 70
     1
102
RTVSPost2010Prop54
  1
strokes_ogs.tif
102
RTVSPost2010PropOp54
 70
     1
102
RTVSPost2010Prop55
280
     0
102
RTVSPost2010PropOp55
 70
     1
102
RTVSPost2010Prop56
140
1.0
102
RTVSPost2010PropOp56
 70
     1
102
RTVSPost2010Prop57
140
1.0
102
RTVSPost2010PropOp57
 70
     1
  0
XRECORD
  5
64C
102
{ACAD_REACTORS
330
64B
102
}
330
64B
100
AcDbXrecord
280
     1
102
RTVSPropertyOp0
 70
     0
102
RTVSPropertyOp1
 70
     0
102
RTVSPropertyOp2
 70
     0
102
RTVSPropertyOp3
 70
     0
102
RTVSPropertyOp4
 70
     0
102
RTVSPropertyOp5
 70
     0
102
RTVSPropertyOp6
 70
     0
102
RTVSPropertyOp7
 70
     0
102
RTVSPropertyOp8
 70
     0
102
RTVSPropertyOp9
 70
     0
102
RTVSPropertyOp10
 70
     0
102
RTVSPropertyOp11
 70
     0
102
RTVSPropertyOp12
 70
     0
102
RTVSPropertyOp13
 70
     0
102
RTVSPropertyOp14
 70
     0
102
RTVSPropertyOp15
 70
     0
102
RTVSPropertyOp16
 70
     0
102
RTVSPropertyOp17
 70
     0
102
RTVSPropertyOp18
 70
     0
102
RTVSPropertyOp19
 70
     0
102
RTVSPropertyOp20
 70
     0
102
RTVSPropertyOp21
 70
     0
102
RTVSPropertyOp22
 70
     0
102
RTVSPropertyOp23
 70
     0
102
RTVSPropertyOp24
 70
     0
102
RTVSPropertyOp25
 70
     0
102
RTVSPropertyOp26
 70
     0
102
RTVSPropertyOp27
 70
     0
102
RTVSPropertyOp28
 70
     1
102
RTVSPropertyOp29
 70
     1
102
RTVSPropertyOp30
 70
     1
102
RTVSPropertyOp31
 70
     1
102
RTVSPropertyOp32
 70
     1
102
RTVSPropertyOp33
 70
     1
102
RTVSPropertyOp34
 70
     1
102
RTVSPropertyOp35
 70
     1
102
RTVSPropertyOp36
 70
     1
102
RTVSPropertyOp37
 70
     1
102
RTVSPropertyOp38
 70
     1
102
RTVSPropertyOp39
 70
     1
102
RTVSPropertyOp40
 70
     1
102
RTVSPropertyOp41
 70
     1
102
RTVSPropertyOp42
 70
     1
102
RTVSPropertyOp43
 70
     1
102
RTVSPropertyOp44
 70
     1
102
RTVSPropertyOp45
 70
     1
102
RTVSPropertyOp46
 70
     1
102
RTVSPropertyOp47
 70
     1
102
RTVSPropertyOp48
 70
     1
102
RTVSPropertyOp49
 70
     1
102
RTVSPropertyOp50
 70
     1
102
RTVSPropertyOp51
 70
     0
102
RTVSPropertyOp52
 70
     0
102
RTVSPropertyOp53
 70
     1
102
RTVSPropertyOp54
 70
     1
102
RTVSPropertyOp55
 70
     1
102
RTVSPropertyOp56
 70
     1
102
RTVSPropertyOp57
 70
     1
102
RTVSPost2010Prop28
280
     0
102
RTVSPost2010PropOp28
 70
     1
102
RTVSPost2010Prop29
280
     1
102
RTVSPost2010PropOp29
 70
     1
102
RTVSPost2010Prop30
280
     1
102
RTVSPost2010PropOp30
 70
     1
102
RTVSPost2010Prop31
280
     0
102
RTVSPost2010PropOp31
 70
     1
102
RTVSPost2010Prop32
280
     0
102
RTVSPost2010PropOp32
 70
     1
102
RTVSPost2010Prop33
280
     0
102
RTVSPost2010PropOp33
 70
     1
102
RTVSPost2010Prop34
280
     0
102
RTVSPost2010PropOp34
 70
     1
102
RTVSPost2010Prop35
280
     0
102
RTVSPost2010PropOp35
 70
     1
102
RTVSPost2010Prop36
280
     0
102
RTVSPost2010PropOp36
 70
     1
102
RTVSPost2010Prop37
 90
       50
102
RTVSPost2010PropOp37
 70
     1
102
RTVSPost2010Prop38
140
0.0
102
RTVSPost2010PropOp38
 70
     1
102
RTVSPost2010Prop39
140
1.0
102
RTVSPost2010PropOp39
 70
     1
102
RTVSPost2010Prop40
 90
        0
102
RTVSPost2010PropOp40
 70
     1
102
RTVSPost2010Prop41ColorIndex
 90
       18
102
RTVSPost2010Prop41ColorRGB
 90
        0
102
RTVSPost2010PropOp41
 70
     1
102
RTVSPost2010Prop42
 90
       50
102
RTVSPost2010PropOp42
 70
     1
102
RTVSPost2010Prop43
 90
        3
102
RTVSPost2010PropOp43
 70
     1
102
RTVSPost2010Prop44ColorIndex
 90
        5
102
RTVSPost2010Prop44ColorRGB
 90
      255
102
RTVSPost2010PropOp44
 70
     1
102
RTVSPost2010Prop45
280
     0
102
RTVSPost2010PropOp45
 70
     1
102
RTVSPost2010Prop46
 90
       50
102
RTVSPost2010PropOp46
 70
     1
102
RTVSPost2010Prop47
 90
       50
102
RTVSPost2010PropOp47
 70
     1
102
RTVSPost2010Prop48
 90
       50
102
RTVSPost2010PropOp48
 70
     1
102
RTVSPost2010Prop49
280
     0
102
RTVSPost2010PropOp49
 70
     1
102
RTVSPost2010Prop50
 90
       50
102
RTVSPost2010PropOp50
 70
     1
102
RTVSPost2010Prop51ColorIndex
 90
      256
102
RTVSPost2010Prop51ColorRGB
 90
-16777216
102
RTVSPost2010PropOp51
 70
     0
102
RTVSPost2010Prop52
140
1.0
102
RTVSPost2010PropOp52
 70
     0
102
RTVSPost2010Prop53
 90
        2
102
RTVSPost2010PropOp53
 70
     1
102
RTVSPost2010Prop54
  1
strokes_ogs.tif
102
RTVSPost2010PropOp54
 70
     1
102
RTVSPost2010Prop55
280
     0
102
RTVSPost2010PropOp55
 70
     1
102
RTVSPost2010Prop56
140
1.0
102
RTVSPost2010PropOp56
 70
     1
102
RTVSPost2010Prop57
140
1.0
102
RTVSPost2010PropOp57
 70
     1
  0
XRECORD
  5
644
102
{ACAD_REACTORS
330
643
102
}
330
643
100
AcDbXrecord
280
     1
102
RTVSPropertyOp0
 70
     1
102
RTVSPropertyOp1
 70
     1
102
RTVSPropertyOp2
 70
     1
102
RTVSPropertyOp3
 70
     1
102
RTVSPropertyOp4
 70
     1
102
RTVSPropertyOp5
 70
     1
102
RTVSPropertyOp6
 70
     1
102
RTVSPropertyOp7
 70
     1
102
RTVSPropertyOp8
 70
     1
102
RTVSPropertyOp9
 70
     1
102
RTVSPropertyOp10
 70
     1
102
RTVSPropertyOp11
 70
     1
102
RTVSPropertyOp12
 70
     1
102
RTVSPropertyOp13
 70
     1
102
RTVSPropertyOp14
 70
     1
102
RTVSPropertyOp15
 70
     1
102
RTVSPropertyOp16
 70
     1
102
RTVSPropertyOp17
 70
     1
102
RTVSPropertyOp18
 70
     1
102
RTVSPropertyOp19
 70
     1
102
RTVSPropertyOp20
 70
     1
102
RTVSPropertyOp21
 70
     1
102
RTVSPropertyOp22
 70
     1
102
RTVSPropertyOp23
 70
     1
102
RTVSPropertyOp24
 70
     1
102
RTVSPropertyOp25
 70
     1
102
RTVSPropertyOp26
 70
     1
102
RTVSPropertyOp27
 70
     1
102
RTVSPropertyOp28
 70
     1
102
RTVSPropertyOp29
 70
     1
102
RTVSPropertyOp30
 70
     1
102
RTVSPropertyOp31
 70
     1
102
RTVSPropertyOp32
 70
     1
102
RTVSPropertyOp33
 70
     1
102
RTVSPropertyOp34
 70
     1
102
RTVSPropertyOp35
 70
     1
102
RTVSPropertyOp36
 70
     1
102
RTVSPropertyOp37
 70
     1
102
RTVSPropertyOp38
 70
     1
102
RTVSPropertyOp39
 70
     1
102
RTVSPropertyOp40
 70
     1
102
RTVSPropertyOp41
 70
     1
102
RTVSPropertyOp42
 70
     1
102
RTVSPropertyOp43
 70
     1
102
RTVSPropertyOp44
 70
     1
102
RTVSPropertyOp45
 70
     1
102
RTVSPropertyOp46
 70
     1
102
RTVSPropertyOp47
 70
     1
102
RTVSPropertyOp48
 70
     1
102
RTVSPropertyOp49
 70
     1
102
RTVSPropertyOp50
 70
     1
102
RTVSPropertyOp51
 70
     0
102
RTVSPropertyOp52
 70
     0
102
RTVSPropertyOp53
 70
     1
102
RTVSPropertyOp54
 70
     1
102
RTVSPropertyOp55
 70
     1
102
RTVSPropertyOp56
 70
     1
102
RTVSPropertyOp57
 70
     1
102
RTVSPost2010Prop28
280
     0
102
RTVSPost2010PropOp28
 70
     1
102
RTVSPost2010Prop29
280
     1
102
RTVSPost2010PropOp29
 70
     1
102
RTVSPost2010Prop30
280
     1
102
RTVSPost2010PropOp30
 70
     1
102
RTVSPost2010Prop31
280
     0
102
RTVSPost2010PropOp31
 70
     1
102
RTVSPost2010Prop32
280
     0
102
RTVSPost2010PropOp32
 70
     1
102
RTVSPost2010Prop33
280
     0
102
RTVSPost2010PropOp33
 70
     1
102
RTVSPost2010Prop34
280
     0
102
RTVSPost2010PropOp34
 70
     1
102
RTVSPost2010Prop35
280
     0
102
RTVSPost2010PropOp35
 70
     1
102
RTVSPost2010Prop36
280
     0
102
RTVSPost2010PropOp36
 70
     1
102
RTVSPost2010Prop37
 90
       50
102
RTVSPost2010PropOp37
 70
     1
102
RTVSPost2010Prop38
140
0.0
102
RTVSPost2010PropOp38
 70
     1
102
RTVSPost2010Prop39
140
1.0
102
RTVSPost2010PropOp39
 70
     1
102
RTVSPost2010Prop40
 90
        0
102
RTVSPost2010PropOp40
 70
     1
102
RTVSPost2010Prop41ColorIndex
 90
       18
102
RTVSPost2010Prop41ColorRGB
 90
        0
102
RTVSPost2010PropOp41
 70
     1
102
RTVSPost2010Prop42
 90
       50
102
RTVSPost2010PropOp42
 70
     1
102
RTVSPost2010Prop43
 90
        3
102
RTVSPost2010PropOp43
 70
     1
102
RTVSPost2010Prop44ColorIndex
 90
        5
102
RTVSPost2010Prop44ColorRGB
 90
      255
102
RTVSPost2010PropOp44
 70
     1
102
RTVSPost2010Prop45
280
     0
102
RTVSPost2010PropOp45
 70
     1
102
RTVSPost2010Prop46
 90
       50
102
RTVSPost2010PropOp46
 70
     1
102
RTVSPost2010Prop47
 90
       50
102
RTVSPost2010PropOp47
 70
     1
102
RTVSPost2010Prop48
 90
       50
102
RTVSPost2010PropOp48
 70
     1
102
RTVSPost2010Prop49
280
     0
102
RTVSPost2010PropOp49
 70
     1
102
RTVSPost2010Prop50
 90
       50
102
RTVSPost2010PropOp50
 70
     1
102
RTVSPost2010Prop51ColorIndex
 90
      256
102
RTVSPost2010Prop51ColorRGB
 90
-16777216
102
RTVSPost2010PropOp51
 70
     0
102
RTVSPost2010Prop52
140
1.0
102
RTVSPost2010PropOp52
 70
     0
102
RTVSPost2010Prop53
 90
        2
102
RTVSPost2010PropOp53
 70
     1
102
RTVSPost2010Prop54
  1
strokes_ogs.tif
102
RTVSPost2010PropOp54
 70
     1
102
RTVSPost2010Prop55
280
     0
102
RTVSPost2010PropOp55
 70
     1
102
RTVSPost2010Prop56
140
1.0
102
RTVSPost2010PropOp56
 70
     1
102
RTVSPost2010Prop57
140
1.0
102
RTVSPost2010PropOp57
 70
     1
  0
XRECORD
  5
62C
102
{ACAD_REACTORS
330
62B
102
}
330
62B
100
AcDbXrecord
280
     1
102
RTVSPropertyOp0
 70
     1
102
RTVSPropertyOp1
 70
     1
102
RTVSPropertyOp2
 70
     1
102
RTVSPropertyOp3
 70
     1
102
RTVSPropertyOp4
 70
     1
102
RTVSPropertyOp5
 70
     1
102
RTVSPropertyOp6
 70
     1
102
RTVSPropertyOp7
 70
     1
102
RTVSPropertyOp8
 70
     1
102
RTVSPropertyOp9
 70
     1
102
RTVSPropertyOp10
 70
     1
102
RTVSPropertyOp11
 70
     1
102
RTVSPropertyOp12
 70
     1
102
RTVSPropertyOp13
 70
     1
102
RTVSPropertyOp14
 70
     1
102
RTVSPropertyOp15
 70
     1
102
RTVSPropertyOp16
 70
     1
102
RTVSPropertyOp17
 70
     1
102
RTVSPropertyOp18
 70
     1
102
RTVSPropertyOp19
 70
     1
102
RTVSPropertyOp20
 70
     1
102
RTVSPropertyOp21
 70
     1
102
RTVSPropertyOp22
 70
     1
102
RTVSPropertyOp23
 70
     1
102
RTVSPropertyOp24
 70
     1
102
RTVSPropertyOp25
 70
     1
102
RTVSPropertyOp26
 70
     1
102
RTVSPropertyOp27
 70
     1
102
RTVSPropertyOp28
 70
     1
102
RTVSPropertyOp29
 70
     1
102
RTVSPropertyOp30
 70
     1
102
RTVSPropertyOp31
 70
     1
102
RTVSPropertyOp32
 70
     1
102
RTVSPropertyOp33
 70
     1
102
RTVSPropertyOp34
 70
     1
102
RTVSPropertyOp35
 70
     1
102
RTVSPropertyOp36
 70
     1
102
RTVSPropertyOp37
 70
     1
102
RTVSPropertyOp38
 70
     1
102
RTVSPropertyOp39
 70
     1
102
RTVSPropertyOp40
 70
     1
102
RTVSPropertyOp41
 70
     1
102
RTVSPropertyOp42
 70
     1
102
RTVSPropertyOp43
 70
     1
102
RTVSPropertyOp44
 70
     1
102
RTVSPropertyOp45
 70
     1
102
RTVSPropertyOp46
 70
     1
102
RTVSPropertyOp47
 70
     1
102
RTVSPropertyOp48
 70
     1
102
RTVSPropertyOp49
 70
     1
102
RTVSPropertyOp50
 70
     1
102
RTVSPropertyOp51
 70
     0
102
RTVSPropertyOp52
 70
     0
102
RTVSPropertyOp53
 70
     1
102
RTVSPropertyOp54
 70
     1
102
RTVSPropertyOp55
 70
     1
102
RTVSPropertyOp56
 70
     1
102
RTVSPropertyOp57
 70
     1
102
RTVSPost2010Prop28
280
     0
102
RTVSPost2010PropOp28
 70
     1
102
RTVSPost2010Prop29
280
     1
102
RTVSPost2010PropOp29
 70
     1
102
RTVSPost2010Prop30
280
     1
102
RTVSPost2010PropOp30
 70
     1
102
RTVSPost2010Prop31
280
     0
102
RTVSPost2010PropOp31
 70
     1
102
RTVSPost2010Prop32
280
     0
102
RTVSPost2010PropOp32
 70
     1
102
RTVSPost2010Prop33
280
     0
102
RTVSPost2010PropOp33
 70
     1
102
RTVSPost2010Prop34
280
     0
102
RTVSPost2010PropOp34
 70
     1
102
RTVSPost2010Prop35
280
     0
102
RTVSPost2010PropOp35
 70
     1
102
RTVSPost2010Prop36
280
     0
102
RTVSPost2010PropOp36
 70
     1
102
RTVSPost2010Prop37
 90
       50
102
RTVSPost2010PropOp37
 70
     1
102
RTVSPost2010Prop38
140
0.0
102
RTVSPost2010PropOp38
 70
     1
102
RTVSPost2010Prop39
140
1.0
102
RTVSPost2010PropOp39
 70
     1
102
RTVSPost2010Prop40
 90
        0
102
RTVSPost2010PropOp40
 70
     1
102
RTVSPost2010Prop41ColorIndex
 90
       18
102
RTVSPost2010Prop41ColorRGB
 90
        0
102
RTVSPost2010PropOp41
 70
     1
102
RTVSPost2010Prop42
 90
       50
102
RTVSPost2010PropOp42
 70
     1
102
RTVSPost2010Prop43
 90
        3
102
RTVSPost2010PropOp43
 70
     1
102
RTVSPost2010Prop44ColorIndex
 90
        5
102
RTVSPost2010Prop44ColorRGB
 90
      255
102
RTVSPost2010PropOp44
 70
     1
102
RTVSPost2010Prop45
280
     0
102
RTVSPost2010PropOp45
 70
     1
102
RTVSPost2010Prop46
 90
       50
102
RTVSPost2010PropOp46
 70
     1
102
RTVSPost2010Prop47
 90
       50
102
RTVSPost2010PropOp47
 70
     1
102
RTVSPost2010Prop48
 90
       50
102
RTVSPost2010PropOp48
 70
     1
102
RTVSPost2010Prop49
280
     0
102
RTVSPost2010PropOp49
 70
     1
102
RTVSPost2010Prop50
 90
       50
102
RTVSPost2010PropOp50
 70
     1
102
RTVSPost2010Prop51ColorIndex
 90
      256
102
RTVSPost2010Prop51ColorRGB
 90
-16777216
102
RTVSPost2010PropOp51
 70
     0
102
RTVSPost2010Prop52
140
1.0
102
RTVSPost2010PropOp52
 70
     0
102
RTVSPost2010Prop53
 90
        2
102
RTVSPost2010PropOp53
 70
     1
102
RTVSPost2010Prop54
  1
strokes_ogs.tif
102
RTVSPost2010PropOp54
 70
     1
102
RTVSPost2010Prop55
280
     0
102
RTVSPost2010PropOp55
 70
     1
102
RTVSPost2010Prop56
140
1.0
102
RTVSPost2010PropOp56
 70
     1
102
RTVSPost2010Prop57
140
1.0
102
RTVSPost2010PropOp57
 70
     1
  0
XRECORD
  5
62E
102
{ACAD_REACTORS
330
62D
102
}
330
62D
100
AcDbXrecord
280
     1
102
RTVSPropertyOp0
 70
     1
102
RTVSPropertyOp1
 70
     1
102
RTVSPropertyOp2
 70
     1
102
RTVSPropertyOp3
 70
     1
102
RTVSPropertyOp4
 70
     1
102
RTVSPropertyOp5
 70
     1
102
RTVSPropertyOp6
 70
     1
102
RTVSPropertyOp7
 70
     1
102
RTVSPropertyOp8
 70
     1
102
RTVSPropertyOp9
 70
     1
102
RTVSPropertyOp10
 70
     1
102
RTVSPropertyOp11
 70
     1
102
RTVSPropertyOp12
 70
     1
102
RTVSPropertyOp13
 70
     1
102
RTVSPropertyOp14
 70
     1
102
RTVSPropertyOp15
 70
     1
102
RTVSPropertyOp16
 70
     1
102
RTVSPropertyOp17
 70
     1
102
RTVSPropertyOp18
 70
     1
102
RTVSPropertyOp19
 70
     1
102
RTVSPropertyOp20
 70
     1
102
RTVSPropertyOp21
 70
     1
102
RTVSPropertyOp22
 70
     1
102
RTVSPropertyOp23
 70
     1
102
RTVSPropertyOp24
 70
     1
102
RTVSPropertyOp25
 70
     1
102
RTVSPropertyOp26
 70
     1
102
RTVSPropertyOp27
 70
     1
102
RTVSPropertyOp28
 70
     1
102
RTVSPropertyOp29
 70
     1
102
RTVSPropertyOp30
 70
     1
102
RTVSPropertyOp31
 70
     1
102
RTVSPropertyOp32
 70
     1
102
RTVSPropertyOp33
 70
     1
102
RTVSPropertyOp34
 70
     1
102
RTVSPropertyOp35
 70
     1
102
RTVSPropertyOp36
 70
     1
102
RTVSPropertyOp37
 70
     1
102
RTVSPropertyOp38
 70
     1
102
RTVSPropertyOp39
 70
     1
102
RTVSPropertyOp40
 70
     1
102
RTVSPropertyOp41
 70
     1
102
RTVSPropertyOp42
 70
     1
102
RTVSPropertyOp43
 70
     1
102
RTVSPropertyOp44
 70
     1
102
RTVSPropertyOp45
 70
     1
102
RTVSPropertyOp46
 70
     1
102
RTVSPropertyOp47
 70
     1
102
RTVSPropertyOp48
 70
     1
102
RTVSPropertyOp49
 70
     1
102
RTVSPropertyOp50
 70
     1
102
RTVSPropertyOp51
 70
     0
102
RTVSPropertyOp52
 70
     0
102
RTVSPropertyOp53
 70
     1
102
RTVSPropertyOp54
 70
     1
102
RTVSPropertyOp55
 70
     1
102
RTVSPropertyOp56
 70
     1
102
RTVSPropertyOp57
 70
     1
102
RTVSPost2010Prop28
280
     0
102
RTVSPost2010PropOp28
 70
     1
102
RTVSPost2010Prop29
280
     1
102
RTVSPost2010PropOp29
 70
     1
102
RTVSPost2010Prop30
280
     1
102
RTVSPost2010PropOp30
 70
     1
102
RTVSPost2010Prop31
280
     0
102
RTVSPost2010PropOp31
 70
     1
102
RTVSPost2010Prop32
280
     0
102
RTVSPost2010PropOp32
 70
     1
102
RTVSPost2010Prop33
280
     0
102
RTVSPost2010PropOp33
 70
     1
102
RTVSPost2010Prop34
280
     0
102
RTVSPost2010PropOp34
 70
     1
102
RTVSPost2010Prop35
280
     0
102
RTVSPost2010PropOp35
 70
     1
102
RTVSPost2010Prop36
280
     0
102
RTVSPost2010PropOp36
 70
     1
102
RTVSPost2010Prop37
 90
       50
102
RTVSPost2010PropOp37
 70
     1
102
RTVSPost2010Prop38
140
0.0
102
RTVSPost2010PropOp38
 70
     1
102
RTVSPost2010Prop39
140
1.0
102
RTVSPost2010PropOp39
 70
     1
102
RTVSPost2010Prop40
 90
        0
102
RTVSPost2010PropOp40
 70
     1
102
RTVSPost2010Prop41ColorIndex
 90
       18
102
RTVSPost2010Prop41ColorRGB
 90
        0
102
RTVSPost2010PropOp41
 70
     1
102
RTVSPost2010Prop42
 90
       50
102
RTVSPost2010PropOp42
 70
     1
102
RTVSPost2010Prop43
 90
        3
102
RTVSPost2010PropOp43
 70
     1
102
RTVSPost2010Prop44ColorIndex
 90
        5
102
RTVSPost2010Prop44ColorRGB
 90
      255
102
RTVSPost2010PropOp44
 70
     1
102
RTVSPost2010Prop45
280
     0
102
RTVSPost2010PropOp45
 70
     1
102
RTVSPost2010Prop46
 90
       50
102
RTVSPost2010PropOp46
 70
     1
102
RTVSPost2010Prop47
 90
       50
102
RTVSPost2010PropOp47
 70
     1
102
RTVSPost2010Prop48
 90
       50
102
RTVSPost2010PropOp48
 70
     1
102
RTVSPost2010Prop49
280
     0
102
RTVSPost2010PropOp49
 70
     1
102
RTVSPost2010Prop50
 90
       50
102
RTVSPost2010PropOp50
 70
     1
102
RTVSPost2010Prop51ColorIndex
 90
      256
102
RTVSPost2010Prop51ColorRGB
 90
-16777216
102
RTVSPost2010PropOp51
 70
     0
102
RTVSPost2010Prop52
140
1.0
102
RTVSPost2010PropOp52
 70
     0
102
RTVSPost2010Prop53
 90
        2
102
RTVSPost2010PropOp53
 70
     1
102
RTVSPost2010Prop54
  1
strokes_ogs.tif
102
RTVSPost2010PropOp54
 70
     1
102
RTVSPost2010Prop55
280
     0
102
RTVSPost2010PropOp55
 70
     1
102
RTVSPost2010Prop56
140
1.0
102
RTVSPost2010PropOp56
 70
     1
102
RTVSPost2010Prop57
140
1.0
102
RTVSPost2010PropOp57
 70
     1
  0
XRECORD
  5
630
102
{ACAD_REACTORS
330
62F
102
}
330
62F
100
AcDbXrecord
280
     1
102
RTVSPropertyOp0
 70
     1
102
RTVSPropertyOp1
 70
     1
102
RTVSPropertyOp2
 70
     1
102
RTVSPropertyOp3
 70
     1
102
RTVSPropertyOp4
 70
     1
102
RTVSPropertyOp5
 70
     1
102
RTVSPropertyOp6
 70
     1
102
RTVSPropertyOp7
 70
     1
102
RTVSPropertyOp8
 70
     1
102
RTVSPropertyOp9
 70
     1
102
RTVSPropertyOp10
 70
     1
102
RTVSPropertyOp11
 70
     1
102
RTVSPropertyOp12
 70
     1
102
RTVSPropertyOp13
 70
     1
102
RTVSPropertyOp14
 70
     1
102
RTVSPropertyOp15
 70
     1
102
RTVSPropertyOp16
 70
     1
102
RTVSPropertyOp17
 70
     1
102
RTVSPropertyOp18
 70
     1
102
RTVSPropertyOp19
 70
     1
102
RTVSPropertyOp20
 70
     1
102
RTVSPropertyOp21
 70
     1
102
RTVSPropertyOp22
 70
     1
102
RTVSPropertyOp23
 70
     1
102
RTVSPropertyOp24
 70
     1
102
RTVSPropertyOp25
 70
     1
102
RTVSPropertyOp26
 70
     1
102
RTVSPropertyOp27
 70
     1
102
RTVSPropertyOp28
 70
     1
102
RTVSPropertyOp29
 70
     1
102
RTVSPropertyOp30
 70
     1
102
RTVSPropertyOp31
 70
     1
102
RTVSPropertyOp32
 70
     1
102
RTVSPropertyOp33
 70
     1
102
RTVSPropertyOp34
 70
     1
102
RTVSPropertyOp35
 70
     1
102
RTVSPropertyOp36
 70
     1
102
RTVSPropertyOp37
 70
     1
102
RTVSPropertyOp38
 70
     1
102
RTVSPropertyOp39
 70
     1
102
RTVSPropertyOp40
 70
     1
102
RTVSPropertyOp41
 70
     1
102
RTVSPropertyOp42
 70
     1
102
RTVSPropertyOp43
 70
     1
102
RTVSPropertyOp44
 70
     1
102
RTVSPropertyOp45
 70
     1
102
RTVSPropertyOp46
 70
     1
102
RTVSPropertyOp47
 70
     1
102
RTVSPropertyOp48
 70
     1
102
RTVSPropertyOp49
 70
     1
102
RTVSPropertyOp50
 70
     1
102
RTVSPropertyOp51
 70
     0
102
RTVSPropertyOp52
 70
     0
102
RTVSPropertyOp53
 70
     1
102
RTVSPropertyOp54
 70
     1
102
RTVSPropertyOp55
 70
     1
102
RTVSPropertyOp56
 70
     1
102
RTVSPropertyOp57
 70
     1
102
RTVSPost2010Prop28
280
     0
102
RTVSPost2010PropOp28
 70
     1
102
RTVSPost2010Prop29
280
     1
102
RTVSPost2010PropOp29
 70
     1
102
RTVSPost2010Prop30
280
     1
102
RTVSPost2010PropOp30
 70
     1
102
RTVSPost2010Prop31
280
     0
102
RTVSPost2010PropOp31
 70
     1
102
RTVSPost2010Prop32
280
     0
102
RTVSPost2010PropOp32
 70
     1
102
RTVSPost2010Prop33
280
     0
102
RTVSPost2010PropOp33
 70
     1
102
RTVSPost2010Prop34
280
     0
102
RTVSPost2010PropOp34
 70
     1
102
RTVSPost2010Prop35
280
     0
102
RTVSPost2010PropOp35
 70
     1
102
RTVSPost2010Prop36
280
     0
102
RTVSPost2010PropOp36
 70
     1
102
RTVSPost2010Prop37
 90
       50
102
RTVSPost2010PropOp37
 70
     1
102
RTVSPost2010Prop38
140
0.0
102
RTVSPost2010PropOp38
 70
     1
102
RTVSPost2010Prop39
140
1.0
102
RTVSPost2010PropOp39
 70
     1
102
RTVSPost2010Prop40
 90
        0
102
RTVSPost2010PropOp40
 70
     1
102
RTVSPost2010Prop41ColorIndex
 90
       18
102
RTVSPost2010Prop41ColorRGB
 90
        0
102
RTVSPost2010PropOp41
 70
     1
102
RTVSPost2010Prop42
 90
       50
102
RTVSPost2010PropOp42
 70
     1
102
RTVSPost2010Prop43
 90
        3
102
RTVSPost2010PropOp43
 70
     1
102
RTVSPost2010Prop44ColorIndex
 90
        5
102
RTVSPost2010Prop44ColorRGB
 90
      255
102
RTVSPost2010PropOp44
 70
     1
102
RTVSPost2010Prop45
280
     0
102
RTVSPost2010PropOp45
 70
     1
102
RTVSPost2010Prop46
 90
       50
102
RTVSPost2010PropOp46
 70
     1
102
RTVSPost2010Prop47
 90
       50
102
RTVSPost2010PropOp47
 70
     1
102
RTVSPost2010Prop48
 90
       50
102
RTVSPost2010PropOp48
 70
     1
102
RTVSPost2010Prop49
280
     0
102
RTVSPost2010PropOp49
 70
     1
102
RTVSPost2010Prop50
 90
       50
102
RTVSPost2010PropOp50
 70
     1
102
RTVSPost2010Prop51ColorIndex
 90
      256
102
RTVSPost2010Prop51ColorRGB
 90
-16777216
102
RTVSPost2010PropOp51
 70
     0
102
RTVSPost2010Prop52
140
1.0
102
RTVSPost2010PropOp52
 70
     0
102
RTVSPost2010Prop53
 90
        2
102
RTVSPost2010PropOp53
 70
     1
102
RTVSPost2010Prop54
  1
strokes_ogs.tif
102
RTVSPost2010PropOp54
 70
     1
102
RTVSPost2010Prop55
280
     0
102
RTVSPost2010PropOp55
 70
     1
102
RTVSPost2010Prop56
140
1.0
102
RTVSPost2010PropOp56
 70
     1
102
RTVSPost2010Prop57
140
1.0
102
RTVSPost2010PropOp57
 70
     1
  0
XRECORD
  5
632
102
{ACAD_REACTORS
330
631
102
}
330
631
100
AcDbXrecord
280
     1
102
RTVSPropertyOp0
 70
     1
102
RTVSPropertyOp1
 70
     1
102
RTVSPropertyOp2
 70
     1
102
RTVSPropertyOp3
 70
     1
102
RTVSPropertyOp4
 70
     1
102
RTVSPropertyOp5
 70
     1
102
RTVSPropertyOp6
 70
     1
102
RTVSPropertyOp7
 70
     1
102
RTVSPropertyOp8
 70
     1
102
RTVSPropertyOp9
 70
     1
102
RTVSPropertyOp10
 70
     1
102
RTVSPropertyOp11
 70
     1
102
RTVSPropertyOp12
 70
     1
102
RTVSPropertyOp13
 70
     1
102
RTVSPropertyOp14
 70
     1
102
RTVSPropertyOp15
 70
     1
102
RTVSPropertyOp16
 70
     1
102
RTVSPropertyOp17
 70
     1
102
RTVSPropertyOp18
 70
     1
102
RTVSPropertyOp19
 70
     1
102
RTVSPropertyOp20
 70
     1
102
RTVSPropertyOp21
 70
     1
102
RTVSPropertyOp22
 70
     1
102
RTVSPropertyOp23
 70
     1
102
RTVSPropertyOp24
 70
     1
102
RTVSPropertyOp25
 70
     1
102
RTVSPropertyOp26
 70
     1
102
RTVSPropertyOp27
 70
     1
102
RTVSPropertyOp28
 70
     1
102
RTVSPropertyOp29
 70
     1
102
RTVSPropertyOp30
 70
     1
102
RTVSPropertyOp31
 70
     1
102
RTVSPropertyOp32
 70
     1
102
RTVSPropertyOp33
 70
     1
102
RTVSPropertyOp34
 70
     1
102
RTVSPropertyOp35
 70
     1
102
RTVSPropertyOp36
 70
     1
102
RTVSPropertyOp37
 70
     1
102
RTVSPropertyOp38
 70
     1
102
RTVSPropertyOp39
 70
     1
102
RTVSPropertyOp40
 70
     1
102
RTVSPropertyOp41
 70
     1
102
RTVSPropertyOp42
 70
     1
102
RTVSPropertyOp43
 70
     1
102
RTVSPropertyOp44
 70
     1
102
RTVSPropertyOp45
 70
     1
102
RTVSPropertyOp46
 70
     1
102
RTVSPropertyOp47
 70
     1
102
RTVSPropertyOp48
 70
     1
102
RTVSPropertyOp49
 70
     1
102
RTVSPropertyOp50
 70
     1
102
RTVSPropertyOp51
 70
     0
102
RTVSPropertyOp52
 70
     0
102
RTVSPropertyOp53
 70
     1
102
RTVSPropertyOp54
 70
     1
102
RTVSPropertyOp55
 70
     1
102
RTVSPropertyOp56
 70
     1
102
RTVSPropertyOp57
 70
     1
102
RTVSPost2010Prop28
280
     0
102
RTVSPost2010PropOp28
 70
     1
102
RTVSPost2010Prop29
280
     1
102
RTVSPost2010PropOp29
 70
     1
102
RTVSPost2010Prop30
280
     1
102
RTVSPost2010PropOp30
 70
     1
102
RTVSPost2010Prop31
280
     0
102
RTVSPost2010PropOp31
 70
     1
102
RTVSPost2010Prop32
280
     0
102
RTVSPost2010PropOp32
 70
     1
102
RTVSPost2010Prop33
280
     0
102
RTVSPost2010PropOp33
 70
     1
102
RTVSPost2010Prop34
280
     0
102
RTVSPost2010PropOp34
 70
     1
102
RTVSPost2010Prop35
280
     0
102
RTVSPost2010PropOp35
 70
     1
102
RTVSPost2010Prop36
280
     0
102
RTVSPost2010PropOp36
 70
     1
102
RTVSPost2010Prop37
 90
       50
102
RTVSPost2010PropOp37
 70
     1
102
RTVSPost2010Prop38
140
0.0
102
RTVSPost2010PropOp38
 70
     1
102
RTVSPost2010Prop39
140
1.0
102
RTVSPost2010PropOp39
 70
     1
102
RTVSPost2010Prop40
 90
        0
102
RTVSPost2010PropOp40
 70
     1
102
RTVSPost2010Prop41ColorIndex
 90
       18
102
RTVSPost2010Prop41ColorRGB
 90
        0
102
RTVSPost2010PropOp41
 70
     1
102
RTVSPost2010Prop42
 90
       50
102
RTVSPost2010PropOp42
 70
     1
102
RTVSPost2010Prop43
 90
        3
102
RTVSPost2010PropOp43
 70
     1
102
RTVSPost2010Prop44ColorIndex
 90
        5
102
RTVSPost2010Prop44ColorRGB
 90
      255
102
RTVSPost2010PropOp44
 70
     1
102
RTVSPost2010Prop45
280
     0
102
RTVSPost2010PropOp45
 70
     1
102
RTVSPost2010Prop46
 90
       50
102
RTVSPost2010PropOp46
 70
     1
102
RTVSPost2010Prop47
 90
       50
102
RTVSPost2010PropOp47
 70
     1
102
RTVSPost2010Prop48
 90
       50
102
RTVSPost2010PropOp48
 70
     1
102
RTVSPost2010Prop49
280
     0
102
RTVSPost2010PropOp49
 70
     1
102
RTVSPost2010Prop50
 90
       50
102
RTVSPost2010PropOp50
 70
     1
102
RTVSPost2010Prop51ColorIndex
 90
      256
102
RTVSPost2010Prop51ColorRGB
 90
-16777216
102
RTVSPost2010PropOp51
 70
     0
102
RTVSPost2010Prop52
140
1.0
102
RTVSPost2010PropOp52
 70
     0
102
RTVSPost2010Prop53
 90
        2
102
RTVSPost2010PropOp53
 70
     1
102
RTVSPost2010Prop54
  1
strokes_ogs.tif
102
RTVSPost2010PropOp54
 70
     1
102
RTVSPost2010Prop55
280
     0
102
RTVSPost2010PropOp55
 70
     1
102
RTVSPost2010Prop56
140
1.0
102
RTVSPost2010PropOp56
 70
     1
102
RTVSPost2010Prop57
140
1.0
102
RTVSPost2010PropOp57
 70
     1
  0
XRECORD
  5
636
102
{ACAD_REACTORS
330
635
102
}
330
635
100
AcDbXrecord
280
     1
102
RTVSPropertyOp0
 70
     1
102
RTVSPropertyOp1
 70
     1
102
RTVSPropertyOp2
 70
     1
102
RTVSPropertyOp3
 70
     1
102
RTVSPropertyOp4
 70
     1
102
RTVSPropertyOp5
 70
     1
102
RTVSPropertyOp6
 70
     1
102
RTVSPropertyOp7
 70
     1
102
RTVSPropertyOp8
 70
     1
102
RTVSPropertyOp9
 70
     1
102
RTVSPropertyOp10
 70
     1
102
RTVSPropertyOp11
 70
     1
102
RTVSPropertyOp12
 70
     1
102
RTVSPropertyOp13
 70
     1
102
RTVSPropertyOp14
 70
     1
102
RTVSPropertyOp15
 70
     1
102
RTVSPropertyOp16
 70
     1
102
RTVSPropertyOp17
 70
     1
102
RTVSPropertyOp18
 70
     1
102
RTVSPropertyOp19
 70
     1
102
RTVSPropertyOp20
 70
     1
102
RTVSPropertyOp21
 70
     1
102
RTVSPropertyOp22
 70
     1
102
RTVSPropertyOp23
 70
     1
102
RTVSPropertyOp24
 70
     1
102
RTVSPropertyOp25
 70
     1
102
RTVSPropertyOp26
 70
     1
102
RTVSPropertyOp27
 70
     1
102
RTVSPropertyOp28
 70
     1
102
RTVSPropertyOp29
 70
     1
102
RTVSPropertyOp30
 70
     1
102
RTVSPropertyOp31
 70
     1
102
RTVSPropertyOp32
 70
     1
102
RTVSPropertyOp33
 70
     1
102
RTVSPropertyOp34
 70
     1
102
RTVSPropertyOp35
 70
     1
102
RTVSPropertyOp36
 70
     1
102
RTVSPropertyOp37
 70
     1
102
RTVSPropertyOp38
 70
     1
102
RTVSPropertyOp39
 70
     1
102
RTVSPropertyOp40
 70
     1
102
RTVSPropertyOp41
 70
     1
102
RTVSPropertyOp42
 70
     1
102
RTVSPropertyOp43
 70
     1
102
RTVSPropertyOp44
 70
     1
102
RTVSPropertyOp45
 70
     1
102
RTVSPropertyOp46
 70
     1
102
RTVSPropertyOp47
 70
     1
102
RTVSPropertyOp48
 70
     1
102
RTVSPropertyOp49
 70
     1
102
RTVSPropertyOp50
 70
     1
102
RTVSPropertyOp51
 70
     0
102
RTVSPropertyOp52
 70
     0
102
RTVSPropertyOp53
 70
     1
102
RTVSPropertyOp54
 70
     1
102
RTVSPropertyOp55
 70
     1
102
RTVSPropertyOp56
 70
     1
102
RTVSPropertyOp57
 70
     1
102
RTVSPost2010Prop28
280
     0
102
RTVSPost2010PropOp28
 70
     1
102
RTVSPost2010Prop29
280
     1
102
RTVSPost2010PropOp29
 70
     1
102
RTVSPost2010Prop30
280
     1
102
RTVSPost2010PropOp30
 70
     1
102
RTVSPost2010Prop31
280
     0
102
RTVSPost2010PropOp31
 70
     1
102
RTVSPost2010Prop32
280
     0
102
RTVSPost2010PropOp32
 70
     1
102
RTVSPost2010Prop33
280
     0
102
RTVSPost2010PropOp33
 70
     1
102
RTVSPost2010Prop34
280
     0
102
RTVSPost2010PropOp34
 70
     1
102
RTVSPost2010Prop35
280
     0
102
RTVSPost2010PropOp35
 70
     1
102
RTVSPost2010Prop36
280
     0
102
RTVSPost2010PropOp36
 70
     1
102
RTVSPost2010Prop37
 90
       50
102
RTVSPost2010PropOp37
 70
     1
102
RTVSPost2010Prop38
140
0.0
102
RTVSPost2010PropOp38
 70
     1
102
RTVSPost2010Prop39
140
1.0
102
RTVSPost2010PropOp39
 70
     1
102
RTVSPost2010Prop40
 90
        0
102
RTVSPost2010PropOp40
 70
     1
102
RTVSPost2010Prop41ColorIndex
 90
       18
102
RTVSPost2010Prop41ColorRGB
 90
        0
102
RTVSPost2010PropOp41
 70
     1
102
RTVSPost2010Prop42
 90
       50
102
RTVSPost2010PropOp42
 70
     1
102
RTVSPost2010Prop43
 90
        3
102
RTVSPost2010PropOp43
 70
     1
102
RTVSPost2010Prop44ColorIndex
 90
        5
102
RTVSPost2010Prop44ColorRGB
 90
      255
102
RTVSPost2010PropOp44
 70
     1
102
RTVSPost2010Prop45
280
     0
102
RTVSPost2010PropOp45
 70
     1
102
RTVSPost2010Prop46
 90
       50
102
RTVSPost2010PropOp46
 70
     1
102
RTVSPost2010Prop47
 90
       50
102
RTVSPost2010PropOp47
 70
     1
102
RTVSPost2010Prop48
 90
       50
102
RTVSPost2010PropOp48
 70
     1
102
RTVSPost2010Prop49
280
     0
102
RTVSPost2010PropOp49
 70
     1
102
RTVSPost2010Prop50
 90
       50
102
RTVSPost2010PropOp50
 70
     1
102
RTVSPost2010Prop51ColorIndex
 90
      256
102
RTVSPost2010Prop51ColorRGB
 90
-16777216
102
RTVSPost2010PropOp51
 70
     0
102
RTVSPost2010Prop52
140
1.0
102
RTVSPost2010PropOp52
 70
     0
102
RTVSPost2010Prop53
 90
        2
102
RTVSPost2010PropOp53
 70
     1
102
RTVSPost2010Prop54
  1
strokes_ogs.tif
102
RTVSPost2010PropOp54
 70
     1
102
RTVSPost2010Prop55
280
     0
102
RTVSPost2010PropOp55
 70
     1
102
RTVSPost2010Prop56
140
1.0
102
RTVSPost2010PropOp56
 70
     1
102
RTVSPost2010Prop57
140
1.0
102
RTVSPost2010PropOp57
 70
     1
  0
XRECORD
  5
648
102
{ACAD_REACTORS
330
647
102
}
330
647
100
AcDbXrecord
280
     1
102
RTVSPropertyOp0
 70
     0
102
RTVSPropertyOp1
 70
     0
102
RTVSPropertyOp2
 70
     0
102
RTVSPropertyOp3
 70
     0
102
RTVSPropertyOp4
 70
     0
102
RTVSPropertyOp5
 70
     0
102
RTVSPropertyOp6
 70
     0
102
RTVSPropertyOp7
 70
     0
102
RTVSPropertyOp8
 70
     0
102
RTVSPropertyOp9
 70
     0
102
RTVSPropertyOp10
 70
     0
102
RTVSPropertyOp11
 70
     0
102
RTVSPropertyOp12
 70
     0
102
RTVSPropertyOp13
 70
     0
102
RTVSPropertyOp14
 70
     0
102
RTVSPropertyOp15
 70
     0
102
RTVSPropertyOp16
 70
     0
102
RTVSPropertyOp17
 70
     0
102
RTVSPropertyOp18
 70
     0
102
RTVSPropertyOp19
 70
     0
102
RTVSPropertyOp20
 70
     0
102
RTVSPropertyOp21
 70
     0
102
RTVSPropertyOp22
 70
     0
102
RTVSPropertyOp23
 70
     0
102
RTVSPropertyOp24
 70
     0
102
RTVSPropertyOp25
 70
     0
102
RTVSPropertyOp26
 70
     0
102
RTVSPropertyOp27
 70
     0
102
RTVSPropertyOp28
 70
     1
102
RTVSPropertyOp29
 70
     1
102
RTVSPropertyOp30
 70
     1
102
RTVSPropertyOp31
 70
     1
102
RTVSPropertyOp32
 70
     1
102
RTVSPropertyOp33
 70
     1
102
RTVSPropertyOp34
 70
     1
102
RTVSPropertyOp35
 70
     1
102
RTVSPropertyOp36
 70
     1
102
RTVSPropertyOp37
 70
     1
102
RTVSPropertyOp38
 70
     1
102
RTVSPropertyOp39
 70
     1
102
RTVSPropertyOp40
 70
     1
102
RTVSPropertyOp41
 70
     1
102
RTVSPropertyOp42
 70
     1
102
RTVSPropertyOp43
 70
     1
102
RTVSPropertyOp44
 70
     1
102
RTVSPropertyOp45
 70
     1
102
RTVSPropertyOp46
 70
     1
102
RTVSPropertyOp47
 70
     1
102
RTVSPropertyOp48
 70
     1
102
RTVSPropertyOp49
 70
     1
102
RTVSPropertyOp50
 70
     1
102
RTVSPropertyOp51
 70
     0
102
RTVSPropertyOp52
 70
     0
102
RTVSPropertyOp53
 70
     1
102
RTVSPropertyOp54
 70
     1
102
RTVSPropertyOp55
 70
     1
102
RTVSPropertyOp56
 70
     1
102
RTVSPropertyOp57
 70
     1
102
RTVSPost2010Prop28
280
     0
102
RTVSPost2010PropOp28
 70
     1
102
RTVSPost2010Prop29
280
     1
102
RTVSPost2010PropOp29
 70
     1
102
RTVSPost2010Prop30
280
     1
102
RTVSPost2010PropOp30
 70
     1
102
RTVSPost2010Prop31
280
     0
102
RTVSPost2010PropOp31
 70
     1
102
RTVSPost2010Prop32
280
     0
102
RTVSPost2010PropOp32
 70
     1
102
RTVSPost2010Prop33
280
     0
102
RTVSPost2010PropOp33
 70
     1
102
RTVSPost2010Prop34
280
     0
102
RTVSPost2010PropOp34
 70
     1
102
RTVSPost2010Prop35
280
     0
102
RTVSPost2010PropOp35
 70
     1
102
RTVSPost2010Prop36
280
     0
102
RTVSPost2010PropOp36
 70
     1
102
RTVSPost2010Prop37
 90
       50
102
RTVSPost2010PropOp37
 70
     1
102
RTVSPost2010Prop38
140
0.0
102
RTVSPost2010PropOp38
 70
     1
102
RTVSPost2010Prop39
140
1.0
102
RTVSPost2010PropOp39
 70
     1
102
RTVSPost2010Prop40
 90
        0
102
RTVSPost2010PropOp40
 70
     1
102
RTVSPost2010Prop41ColorIndex
 90
       18
102
RTVSPost2010Prop41ColorRGB
 90
        0
102
RTVSPost2010PropOp41
 70
     1
102
RTVSPost2010Prop42
 90
       50
102
RTVSPost2010PropOp42
 70
     1
102
RTVSPost2010Prop43
 90
        3
102
RTVSPost2010PropOp43
 70
     1
102
RTVSPost2010Prop44ColorIndex
 90
        5
102
RTVSPost2010Prop44ColorRGB
 90
      255
102
RTVSPost2010PropOp44
 70
     1
102
RTVSPost2010Prop45
280
     0
102
RTVSPost2010PropOp45
 70
     1
102
RTVSPost2010Prop46
 90
       50
102
RTVSPost2010PropOp46
 70
     1
102
RTVSPost2010Prop47
 90
       50
102
RTVSPost2010PropOp47
 70
     1
102
RTVSPost2010Prop48
 90
       50
102
RTVSPost2010PropOp48
 70
     1
102
RTVSPost2010Prop49
280
     0
102
RTVSPost2010PropOp49
 70
     1
102
RTVSPost2010Prop50
 90
       50
102
RTVSPost2010PropOp50
 70
     1
102
RTVSPost2010Prop51ColorIndex
 90
      256
102
RTVSPost2010Prop51ColorRGB
 90
-16777216
102
RTVSPost2010PropOp51
 70
     0
102
RTVSPost2010Prop52
140
1.0
102
RTVSPost2010PropOp52
 70
     0
102
RTVSPost2010Prop53
 90
        2
102
RTVSPost2010PropOp53
 70
     1
102
RTVSPost2010Prop54
  1
strokes_ogs.tif
102
RTVSPost2010PropOp54
 70
     1
102
RTVSPost2010Prop55
280
     0
102
RTVSPost2010PropOp55
 70
     1
102
RTVSPost2010Prop56
140
1.0
102
RTVSPost2010PropOp56
 70
     1
102
RTVSPost2010Prop57
140
1.0
102
RTVSPost2010PropOp57
 70
     1
  0
XRECORD
  5
642
102
{ACAD_REACTORS
330
641
102
}
330
641
100
AcDbXrecord
280
     1
102
RTVSPropertyOp0
 70
     1
102
RTVSPropertyOp1
 70
     1
102
RTVSPropertyOp2
 70
     1
102
RTVSPropertyOp3
 70
     1
102
RTVSPropertyOp4
 70
     1
102
RTVSPropertyOp5
 70
     1
102
RTVSPropertyOp6
 70
     1
102
RTVSPropertyOp7
 70
     1
102
RTVSPropertyOp8
 70
     1
102
RTVSPropertyOp9
 70
     1
102
RTVSPropertyOp10
 70
     1
102
RTVSPropertyOp11
 70
     1
102
RTVSPropertyOp12
 70
     1
102
RTVSPropertyOp13
 70
     1
102
RTVSPropertyOp14
 70
     1
102
RTVSPropertyOp15
 70
     1
102
RTVSPropertyOp16
 70
     1
102
RTVSPropertyOp17
 70
     1
102
RTVSPropertyOp18
 70
     1
102
RTVSPropertyOp19
 70
     1
102
RTVSPropertyOp20
 70
     1
102
RTVSPropertyOp21
 70
     1
102
RTVSPropertyOp22
 70
     1
102
RTVSPropertyOp23
 70
     1
102
RTVSPropertyOp24
 70
     1
102
RTVSPropertyOp25
 70
     1
102
RTVSPropertyOp26
 70
     1
102
RTVSPropertyOp27
 70
     1
102
RTVSPropertyOp28
 70
     1
102
RTVSPropertyOp29
 70
     1
102
RTVSPropertyOp30
 70
     1
102
RTVSPropertyOp31
 70
     1
102
RTVSPropertyOp32
 70
     1
102
RTVSPropertyOp33
 70
     1
102
RTVSPropertyOp34
 70
     1
102
RTVSPropertyOp35
 70
     1
102
RTVSPropertyOp36
 70
     1
102
RTVSPropertyOp37
 70
     1
102
RTVSPropertyOp38
 70
     1
102
RTVSPropertyOp39
 70
     1
102
RTVSPropertyOp40
 70
     1
102
RTVSPropertyOp41
 70
     1
102
RTVSPropertyOp42
 70
     1
102
RTVSPropertyOp43
 70
     1
102
RTVSPropertyOp44
 70
     1
102
RTVSPropertyOp45
 70
     1
102
RTVSPropertyOp46
 70
     1
102
RTVSPropertyOp47
 70
     1
102
RTVSPropertyOp48
 70
     1
102
RTVSPropertyOp49
 70
     1
102
RTVSPropertyOp50
 70
     1
102
RTVSPropertyOp51
 70
     0
102
RTVSPropertyOp52
 70
     0
102
RTVSPropertyOp53
 70
     1
102
RTVSPropertyOp54
 70
     1
102
RTVSPropertyOp55
 70
     1
102
RTVSPropertyOp56
 70
     1
102
RTVSPropertyOp57
 70
     1
102
RTVSPost2010Prop28
280
     0
102
RTVSPost2010PropOp28
 70
     1
102
RTVSPost2010Prop29
280
     1
102
RTVSPost2010PropOp29
 70
     1
102
RTVSPost2010Prop30
280
     1
102
RTVSPost2010PropOp30
 70
     1
102
RTVSPost2010Prop31
280
     0
102
RTVSPost2010PropOp31
 70
     1
102
RTVSPost2010Prop32
280
     0
102
RTVSPost2010PropOp32
 70
     1
102
RTVSPost2010Prop33
280
     0
102
RTVSPost2010PropOp33
 70
     1
102
RTVSPost2010Prop34
280
     0
102
RTVSPost2010PropOp34
 70
     1
102
RTVSPost2010Prop35
280
     0
102
RTVSPost2010PropOp35
 70
     1
102
RTVSPost2010Prop36
280
     0
102
RTVSPost2010PropOp36
 70
     1
102
RTVSPost2010Prop37
 90
       50
102
RTVSPost2010PropOp37
 70
     1
102
RTVSPost2010Prop38
140
0.0
102
RTVSPost2010PropOp38
 70
     1
102
RTVSPost2010Prop39
140
1.0
102
RTVSPost2010PropOp39
 70
     1
102
RTVSPost2010Prop40
 90
        0
102
RTVSPost2010PropOp40
 70
     1
102
RTVSPost2010Prop41ColorIndex
 90
       18
102
RTVSPost2010Prop41ColorRGB
 90
        0
102
RTVSPost2010PropOp41
 70
     1
102
RTVSPost2010Prop42
 90
       50
102
RTVSPost2010PropOp42
 70
     1
102
RTVSPost2010Prop43
 90
        3
102
RTVSPost2010PropOp43
 70
     1
102
RTVSPost2010Prop44ColorIndex
 90
        5
102
RTVSPost2010Prop44ColorRGB
 90
      255
102
RTVSPost2010PropOp44
 70
     1
102
RTVSPost2010Prop45
280
     0
102
RTVSPost2010PropOp45
 70
     1
102
RTVSPost2010Prop46
 90
       50
102
RTVSPost2010PropOp46
 70
     1
102
RTVSPost2010Prop47
 90
       50
102
RTVSPost2010PropOp47
 70
     1
102
RTVSPost2010Prop48
 90
       50
102
RTVSPost2010PropOp48
 70
     1
102
RTVSPost2010Prop49
280
     0
102
RTVSPost2010PropOp49
 70
     1
102
RTVSPost2010Prop50
 90
       50
102
RTVSPost2010PropOp50
 70
     1
102
RTVSPost2010Prop51ColorIndex
 90
      256
102
RTVSPost2010Prop51ColorRGB
 90
-16777216
102
RTVSPost2010PropOp51
 70
     0
102
RTVSPost2010Prop52
140
1.0
102
RTVSPost2010PropOp52
 70
     0
102
RTVSPost2010Prop53
 90
        2
102
RTVSPost2010PropOp53
 70
     1
102
RTVSPost2010Prop54
  1
strokes_ogs.tif
102
RTVSPost2010PropOp54
 70
     1
102
RTVSPost2010Prop55
280
     0
102
RTVSPost2010PropOp55
 70
     1
102
RTVSPost2010Prop56
140
1.0
102
RTVSPost2010PropOp56
 70
     1
102
RTVSPost2010Prop57
140
1.0
102
RTVSPost2010PropOp57
 70
     1
  0
XRECORD
  5
64A
102
{ACAD_REACTORS
330
649
102
}
330
649
100
AcDbXrecord
280
     1
102
RTVSPropertyOp0
 70
     0
102
RTVSPropertyOp1
 70
     0
102
RTVSPropertyOp2
 70
     0
102
RTVSPropertyOp3
 70
     0
102
RTVSPropertyOp4
 70
     0
102
RTVSPropertyOp5
 70
     0
102
RTVSPropertyOp6
 70
     0
102
RTVSPropertyOp7
 70
     0
102
RTVSPropertyOp8
 70
     0
102
RTVSPropertyOp9
 70
     0
102
RTVSPropertyOp10
 70
     0
102
RTVSPropertyOp11
 70
     0
102
RTVSPropertyOp12
 70
     0
102
RTVSPropertyOp13
 70
     0
102
RTVSPropertyOp14
 70
     0
102
RTVSPropertyOp15
 70
     0
102
RTVSPropertyOp16
 70
     0
102
RTVSPropertyOp17
 70
     0
102
RTVSPropertyOp18
 70
     0
102
RTVSPropertyOp19
 70
     0
102
RTVSPropertyOp20
 70
     0
102
RTVSPropertyOp21
 70
     0
102
RTVSPropertyOp22
 70
     0
102
RTVSPropertyOp23
 70
     0
102
RTVSPropertyOp24
 70
     0
102
RTVSPropertyOp25
 70
     0
102
RTVSPropertyOp26
 70
     0
102
RTVSPropertyOp27
 70
     0
102
RTVSPropertyOp28
 70
     1
102
RTVSPropertyOp29
 70
     1
102
RTVSPropertyOp30
 70
     1
102
RTVSPropertyOp31
 70
     1
102
RTVSPropertyOp32
 70
     1
102
RTVSPropertyOp33
 70
     1
102
RTVSPropertyOp34
 70
     1
102
RTVSPropertyOp35
 70
     1
102
RTVSPropertyOp36
 70
     1
102
RTVSPropertyOp37
 70
     1
102
RTVSPropertyOp38
 70
     1
102
RTVSPropertyOp39
 70
     1
102
RTVSPropertyOp40
 70
     1
102
RTVSPropertyOp41
 70
     1
102
RTVSPropertyOp42
 70
     1
102
RTVSPropertyOp43
 70
     1
102
RTVSPropertyOp44
 70
     1
102
RTVSPropertyOp45
 70
     1
102
RTVSPropertyOp46
 70
     1
102
RTVSPropertyOp47
 70
     1
102
RTVSPropertyOp48
 70
     1
102
RTVSPropertyOp49
 70
     1
102
RTVSPropertyOp50
 70
     1
102
RTVSPropertyOp51
 70
     0
102
RTVSPropertyOp52
 70
     0
102
RTVSPropertyOp53
 70
     1
102
RTVSPropertyOp54
 70
     1
102
RTVSPropertyOp55
 70
     1
102
RTVSPropertyOp56
 70
     1
102
RTVSPropertyOp57
 70
     1
102
RTVSPost2010Prop28
280
     0
102
RTVSPost2010PropOp28
 70
     1
102
RTVSPost2010Prop29
280
     1
102
RTVSPost2010PropOp29
 70
     1
102
RTVSPost2010Prop30
280
     1
102
RTVSPost2010PropOp30
 70
     1
102
RTVSPost2010Prop31
280
     0
102
RTVSPost2010PropOp31
 70
     1
102
RTVSPost2010Prop32
280
     0
102
RTVSPost2010PropOp32
 70
     1
102
RTVSPost2010Prop33
280
     0
102
RTVSPost2010PropOp33
 70
     1
102
RTVSPost2010Prop34
280
     0
102
RTVSPost2010PropOp34
 70
     1
102
RTVSPost2010Prop35
280
     0
102
RTVSPost2010PropOp35
 70
     1
102
RTVSPost2010Prop36
280
     0
102
RTVSPost2010PropOp36
 70
     1
102
RTVSPost2010Prop37
 90
       50
102
RTVSPost2010PropOp37
 70
     1
102
RTVSPost2010Prop38
140
0.0
102
RTVSPost2010PropOp38
 70
     1
102
RTVSPost2010Prop39
140
1.0
102
RTVSPost2010PropOp39
 70
     1
102
RTVSPost2010Prop40
 90
        0
102
RTVSPost2010PropOp40
 70
     1
102
RTVSPost2010Prop41ColorIndex
 90
       18
102
RTVSPost2010Prop41ColorRGB
 90
        0
102
RTVSPost2010PropOp41
 70
     1
102
RTVSPost2010Prop42
 90
       50
102
RTVSPost2010PropOp42
 70
     1
102
RTVSPost2010Prop43
 90
        3
102
RTVSPost2010PropOp43
 70
     1
102
RTVSPost2010Prop44ColorIndex
 90
        5
102
RTVSPost2010Prop44ColorRGB
 90
      255
102
RTVSPost2010PropOp44
 70
     1
102
RTVSPost2010Prop45
280
     0
102
RTVSPost2010PropOp45
 70
     1
102
RTVSPost2010Prop46
 90
       50
102
RTVSPost2010PropOp46
 70
     1
102
RTVSPost2010Prop47
 90
       50
102
RTVSPost2010PropOp47
 70
     1
102
RTVSPost2010Prop48
 90
       50
102
RTVSPost2010PropOp48
 70
     1
102
RTVSPost2010Prop49
280
     0
102
RTVSPost2010PropOp49
 70
     1
102
RTVSPost2010Prop50
 90
       50
102
RTVSPost2010PropOp50
 70
     1
102
RTVSPost2010Prop51ColorIndex
 90
      256
102
RTVSPost2010Prop51ColorRGB
 90
-16777216
102
RTVSPost2010PropOp51
 70
     0
102
RTVSPost2010Prop52
140
1.0
102
RTVSPost2010PropOp52
 70
     0
102
RTVSPost2010Prop53
 90
        2
102
RTVSPost2010PropOp53
 70
     1
102
RTVSPost2010Prop54
  1
strokes_ogs.tif
102
RTVSPost2010PropOp54
 70
     1
102
RTVSPost2010Prop55
280
     0
102
RTVSPost2010PropOp55
 70
     1
102
RTVSPost2010Prop56
140
1.0
102
RTVSPost2010PropOp56
 70
     1
102
RTVSPost2010Prop57
140
1.0
102
RTVSPost2010PropOp57
 70
     1
  0
XRECORD
  5
628
102
{ACAD_REACTORS
330
627
102
}
330
627
100
AcDbXrecord
280
     1
102
RTVSPropertyOp0
 70
     1
102
RTVSPropertyOp1
 70
     1
102
RTVSPropertyOp2
 70
     1
102
RTVSPropertyOp3
 70
     1
102
RTVSPropertyOp4
 70
     1
102
RTVSPropertyOp5
 70
     1
102
RTVSPropertyOp6
 70
     1
102
RTVSPropertyOp7
 70
     1
102
RTVSPropertyOp8
 70
     1
102
RTVSPropertyOp9
 70
     1
102
RTVSPropertyOp10
 70
     1
102
RTVSPropertyOp11
 70
     1
102
RTVSPropertyOp12
 70
     1
102
RTVSPropertyOp13
 70
     1
102
RTVSPropertyOp14
 70
     1
102
RTVSPropertyOp15
 70
     1
102
RTVSPropertyOp16
 70
     1
102
RTVSPropertyOp17
 70
     1
102
RTVSPropertyOp18
 70
     1
102
RTVSPropertyOp19
 70
     1
102
RTVSPropertyOp20
 70
     1
102
RTVSPropertyOp21
 70
     1
102
RTVSPropertyOp22
 70
     1
102
RTVSPropertyOp23
 70
     1
102
RTVSPropertyOp24
 70
     1
102
RTVSPropertyOp25
 70
     1
102
RTVSPropertyOp26
 70
     1
102
RTVSPropertyOp27
 70
     1
102
RTVSPropertyOp28
 70
     1
102
RTVSPropertyOp29
 70
     1
102
RTVSPropertyOp30
 70
     1
102
RTVSPropertyOp31
 70
     1
102
RTVSPropertyOp32
 70
     1
102
RTVSPropertyOp33
 70
     1
102
RTVSPropertyOp34
 70
     1
102
RTVSPropertyOp35
 70
     1
102
RTVSPropertyOp36
 70
     1
102
RTVSPropertyOp37
 70
     1
102
RTVSPropertyOp38
 70
     1
102
RTVSPropertyOp39
 70
     1
102
RTVSPropertyOp40
 70
     1
102
RTVSPropertyOp41
 70
     1
102
RTVSPropertyOp42
 70
     1
102
RTVSPropertyOp43
 70
     1
102
RTVSPropertyOp44
 70
     1
102
RTVSPropertyOp45
 70
     1
102
RTVSPropertyOp46
 70
     1
102
RTVSPropertyOp47
 70
     1
102
RTVSPropertyOp48
 70
     1
102
RTVSPropertyOp49
 70
     1
102
RTVSPropertyOp50
 70
     1
102
RTVSPropertyOp51
 70
     0
102
RTVSPropertyOp52
 70
     0
102
RTVSPropertyOp53
 70
     1
102
RTVSPropertyOp54
 70
     1
102
RTVSPropertyOp55
 70
     1
102
RTVSPropertyOp56
 70
     1
102
RTVSPropertyOp57
 70
     1
102
RTVSPost2010Prop28
280
     0
102
RTVSPost2010PropOp28
 70
     1
102
RTVSPost2010Prop29
280
     1
102
RTVSPost2010PropOp29
 70
     1
102
RTVSPost2010Prop30
280
     1
102
RTVSPost2010PropOp30
 70
     1
102
RTVSPost2010Prop31
280
     0
102
RTVSPost2010PropOp31
 70
     1
102
RTVSPost2010Prop32
280
     0
102
RTVSPost2010PropOp32
 70
     1
102
RTVSPost2010Prop33
280
     0
102
RTVSPost2010PropOp33
 70
     1
102
RTVSPost2010Prop34
280
     0
102
RTVSPost2010PropOp34
 70
     1
102
RTVSPost2010Prop35
280
     0
102
RTVSPost2010PropOp35
 70
     1
102
RTVSPost2010Prop36
280
     0
102
RTVSPost2010PropOp36
 70
     1
102
RTVSPost2010Prop37
 90
       50
102
RTVSPost2010PropOp37
 70
     1
102
RTVSPost2010Prop38
140
0.0
102
RTVSPost2010PropOp38
 70
     1
102
RTVSPost2010Prop39
140
1.0
102
RTVSPost2010PropOp39
 70
     1
102
RTVSPost2010Prop40
 90
        0
102
RTVSPost2010PropOp40
 70
     1
102
RTVSPost2010Prop41ColorIndex
 90
       18
102
RTVSPost2010Prop41ColorRGB
 90
        0
102
RTVSPost2010PropOp41
 70
     1
102
RTVSPost2010Prop42
 90
       50
102
RTVSPost2010PropOp42
 70
     1
102
RTVSPost2010Prop43
 90
        3
102
RTVSPost2010PropOp43
 70
     1
102
RTVSPost2010Prop44ColorIndex
 90
        5
102
RTVSPost2010Prop44ColorRGB
 90
      255
102
RTVSPost2010PropOp44
 70
     1
102
RTVSPost2010Prop45
280
     0
102
RTVSPost2010PropOp45
 70
     1
102
RTVSPost2010Prop46
 90
       50
102
RTVSPost2010PropOp46
 70
     1
102
RTVSPost2010Prop47
 90
       50
102
RTVSPost2010PropOp47
 70
     1
102
RTVSPost2010Prop48
 90
       50
102
RTVSPost2010PropOp48
 70
     1
102
RTVSPost2010Prop49
280
     0
102
RTVSPost2010PropOp49
 70
     1
102
RTVSPost2010Prop50
 90
       50
102
RTVSPost2010PropOp50
 70
     1
102
RTVSPost2010Prop51ColorIndex
 90
      256
102
RTVSPost2010Prop51ColorRGB
 90
-16777216
102
RTVSPost2010PropOp51
 70
     0
102
RTVSPost2010Prop52
140
1.0
102
RTVSPost2010PropOp52
 70
     0
102
RTVSPost2010Prop53
 90
        2
102
RTVSPost2010PropOp53
 70
     1
102
RTVSPost2010Prop54
  1
strokes_ogs.tif
102
RTVSPost2010PropOp54
 70
     1
102
RTVSPost2010Prop55
280
     0
102
RTVSPost2010PropOp55
 70
     1
102
RTVSPost2010Prop56
140
1.0
102
RTVSPost2010PropOp56
 70
     1
102
RTVSPost2010Prop57
140
1.0
102
RTVSPost2010PropOp57
 70
     1
  0
XRECORD
  5
656
102
{ACAD_REACTORS
330
655
102
}
330
655
100
AcDbXrecord
280
     1
102
RTVSPropertyOp0
 70
     1
102
RTVSPropertyOp1
 70
     1
102
RTVSPropertyOp2
 70
     1
102
RTVSPropertyOp3
 70
     1
102
RTVSPropertyOp4
 70
     1
102
RTVSPropertyOp5
 70
     1
102
RTVSPropertyOp6
 70
     1
102
RTVSPropertyOp7
 70
     1
102
RTVSPropertyOp8
 70
     1
102
RTVSPropertyOp9
 70
     1
102
RTVSPropertyOp10
 70
     1
102
RTVSPropertyOp11
 70
     1
102
RTVSPropertyOp12
 70
     1
102
RTVSPropertyOp13
 70
     1
102
RTVSPropertyOp14
 70
     1
102
RTVSPropertyOp15
 70
     1
102
RTVSPropertyOp16
 70
     1
102
RTVSPropertyOp17
 70
     1
102
RTVSPropertyOp18
 70
     1
102
RTVSPropertyOp19
 70
     1
102
RTVSPropertyOp20
 70
     1
102
RTVSPropertyOp21
 70
     1
102
RTVSPropertyOp22
 70
     1
102
RTVSPropertyOp23
 70
     1
102
RTVSPropertyOp24
 70
     1
102
RTVSPropertyOp25
 70
     1
102
RTVSPropertyOp26
 70
     1
102
RTVSPropertyOp27
 70
     1
102
RTVSPropertyOp28
 70
     1
102
RTVSPropertyOp29
 70
     1
102
RTVSPropertyOp30
 70
     1
102
RTVSPropertyOp31
 70
     1
102
RTVSPropertyOp32
 70
     1
102
RTVSPropertyOp33
 70
     1
102
RTVSPropertyOp34
 70
     1
102
RTVSPropertyOp35
 70
     1
102
RTVSPropertyOp36
 70
     1
102
RTVSPropertyOp37
 70
     1
102
RTVSPropertyOp38
 70
     1
102
RTVSPropertyOp39
 70
     1
102
RTVSPropertyOp40
 70
     1
102
RTVSPropertyOp41
 70
     1
102
RTVSPropertyOp42
 70
     1
102
RTVSPropertyOp43
 70
     1
102
RTVSPropertyOp44
 70
     1
102
RTVSPropertyOp45
 70
     1
102
RTVSPropertyOp46
 70
     1
102
RTVSPropertyOp47
 70
     1
102
RTVSPropertyOp48
 70
     1
102
RTVSPropertyOp49
 70
     1
102
RTVSPropertyOp50
 70
     1
102
RTVSPropertyOp51
 70
     0
102
RTVSPropertyOp52
 70
     0
102
RTVSPropertyOp53
 70
     1
102
RTVSPropertyOp54
 70
     1
102
RTVSPropertyOp55
 70
     1
102
RTVSPropertyOp56
 70
     1
102
RTVSPropertyOp57
 70
     1
102
RTVSPost2010Prop28
280
     0
102
RTVSPost2010PropOp28
 70
     1
102
RTVSPost2010Prop29
280
     1
102
RTVSPost2010PropOp29
 70
     1
102
RTVSPost2010Prop30
280
     1
102
RTVSPost2010PropOp30
 70
     1
102
RTVSPost2010Prop31
280
     0
102
RTVSPost2010PropOp31
 70
     1
102
RTVSPost2010Prop32
280
     0
102
RTVSPost2010PropOp32
 70
     1
102
RTVSPost2010Prop33
280
     0
102
RTVSPost2010PropOp33
 70
     1
102
RTVSPost2010Prop34
280
     0
102
RTVSPost2010PropOp34
 70
     1
102
RTVSPost2010Prop35
280
     0
102
RTVSPost2010PropOp35
 70
     1
102
RTVSPost2010Prop36
280
     0
102
RTVSPost2010PropOp36
 70
     1
102
RTVSPost2010Prop37
 90
       50
102
RTVSPost2010PropOp37
 70
     1
102
RTVSPost2010Prop38
140
0.0
102
RTVSPost2010PropOp38
 70
     1
102
RTVSPost2010Prop39
140
1.0
102
RTVSPost2010PropOp39
 70
     1
102
RTVSPost2010Prop40
 90
        0
102
RTVSPost2010PropOp40
 70
     1
102
RTVSPost2010Prop41ColorIndex
 90
       18
102
RTVSPost2010Prop41ColorRGB
 90
        0
102
RTVSPost2010PropOp41
 70
     1
102
RTVSPost2010Prop42
 90
       50
102
RTVSPost2010PropOp42
 70
     1
102
RTVSPost2010Prop43
 90
        3
102
RTVSPost2010PropOp43
 70
     1
102
RTVSPost2010Prop44ColorIndex
 90
        5
102
RTVSPost2010Prop44ColorRGB
 90
      255
102
RTVSPost2010PropOp44
 70
     1
102
RTVSPost2010Prop45
280
     0
102
RTVSPost2010PropOp45
 70
     1
102
RTVSPost2010Prop46
 90
       50
102
RTVSPost2010PropOp46
 70
     1
102
RTVSPost2010Prop47
 90
       50
102
RTVSPost2010PropOp47
 70
     1
102
RTVSPost2010Prop48
 90
       50
102
RTVSPost2010PropOp48
 70
     1
102
RTVSPost2010Prop49
280
     0
102
RTVSPost2010PropOp49
 70
     1
102
RTVSPost2010Prop50
 90
       50
102
RTVSPost2010PropOp50
 70
     1
102
RTVSPost2010Prop51ColorIndex
 90
      256
102
RTVSPost2010Prop51ColorRGB
 90
-16777216
102
RTVSPost2010PropOp51
 70
     0
102
RTVSPost2010Prop52
140
1.0
102
RTVSPost2010PropOp52
 70
     0
102
RTVSPost2010Prop53
 90
        2
102
RTVSPost2010PropOp53
 70
     1
102
RTVSPost2010Prop54
  1
strokes_ogs.tif
102
RTVSPost2010PropOp54
 70
     1
102
RTVSPost2010Prop55
280
     0
102
RTVSPost2010PropOp55
 70
     1
102
RTVSPost2010Prop56
140
1.0
102
RTVSPost2010PropOp56
 70
     1
102
RTVSPost2010Prop57
140
1.0
102
RTVSPost2010PropOp57
 70
     1
  0
XRECORD
  5
654
102
{ACAD_REACTORS
330
653
102
}
330
653
100
AcDbXrecord
280
     1
102
RTVSPropertyOp0
 70
     1
102
RTVSPropertyOp1
 70
     1
102
RTVSPropertyOp2
 70
     1
102
RTVSPropertyOp3
 70
     1
102
RTVSPropertyOp4
 70
     1
102
RTVSPropertyOp5
 70
     1
102
RTVSPropertyOp6
 70
     1
102
RTVSPropertyOp7
 70
     1
102
RTVSPropertyOp8
 70
     1
102
RTVSPropertyOp9
 70
     1
102
RTVSPropertyOp10
 70
     1
102
RTVSPropertyOp11
 70
     1
102
RTVSPropertyOp12
 70
     1
102
RTVSPropertyOp13
 70
     1
102
RTVSPropertyOp14
 70
     1
102
RTVSPropertyOp15
 70
     1
102
RTVSPropertyOp16
 70
     1
102
RTVSPropertyOp17
 70
     1
102
RTVSPropertyOp18
 70
     1
102
RTVSPropertyOp19
 70
     1
102
RTVSPropertyOp20
 70
     1
102
RTVSPropertyOp21
 70
     1
102
RTVSPropertyOp22
 70
     1
102
RTVSPropertyOp23
 70
     1
102
RTVSPropertyOp24
 70
     1
102
RTVSPropertyOp25
 70
     1
102
RTVSPropertyOp26
 70
     1
102
RTVSPropertyOp27
 70
     1
102
RTVSPropertyOp28
 70
     1
102
RTVSPropertyOp29
 70
     1
102
RTVSPropertyOp30
 70
     1
102
RTVSPropertyOp31
 70
     1
102
RTVSPropertyOp32
 70
     1
102
RTVSPropertyOp33
 70
     1
102
RTVSPropertyOp34
 70
     1
102
RTVSPropertyOp35
 70
     1
102
RTVSPropertyOp36
 70
     1
102
RTVSPropertyOp37
 70
     1
102
RTVSPropertyOp38
 70
     1
102
RTVSPropertyOp39
 70
     1
102
RTVSPropertyOp40
 70
     1
102
RTVSPropertyOp41
 70
     1
102
RTVSPropertyOp42
 70
     1
102
RTVSPropertyOp43
 70
     1
102
RTVSPropertyOp44
 70
     1
102
RTVSPropertyOp45
 70
     1
102
RTVSPropertyOp46
 70
     1
102
RTVSPropertyOp47
 70
     1
102
RTVSPropertyOp48
 70
     1
102
RTVSPropertyOp49
 70
     1
102
RTVSPropertyOp50
 70
     1
102
RTVSPropertyOp51
 70
     0
102
RTVSPropertyOp52
 70
     0
102
RTVSPropertyOp53
 70
     1
102
RTVSPropertyOp54
 70
     1
102
RTVSPropertyOp55
 70
     1
102
RTVSPropertyOp56
 70
     1
102
RTVSPropertyOp57
 70
     1
102
RTVSPost2010Prop28
280
     0
102
RTVSPost2010PropOp28
 70
     1
102
RTVSPost2010Prop29
280
     1
102
RTVSPost2010PropOp29
 70
     1
102
RTVSPost2010Prop30
280
     1
102
RTVSPost2010PropOp30
 70
     1
102
RTVSPost2010Prop31
280
     0
102
RTVSPost2010PropOp31
 70
     1
102
RTVSPost2010Prop32
280
     0
102
RTVSPost2010PropOp32
 70
     1
102
RTVSPost2010Prop33
280
     0
102
RTVSPost2010PropOp33
 70
     1
102
RTVSPost2010Prop34
280
     0
102
RTVSPost2010PropOp34
 70
     1
102
RTVSPost2010Prop35
280
     0
102
RTVSPost2010PropOp35
 70
     1
102
RTVSPost2010Prop36
280
     0
102
RTVSPost2010PropOp36
 70
     1
102
RTVSPost2010Prop37
 90
       50
102
RTVSPost2010PropOp37
 70
     1
102
RTVSPost2010Prop38
140
0.0
102
RTVSPost2010PropOp38
 70
     1
102
RTVSPost2010Prop39
140
1.0
102
RTVSPost2010PropOp39
 70
     1
102
RTVSPost2010Prop40
 90
        0
102
RTVSPost2010PropOp40
 70
     1
102
RTVSPost2010Prop41ColorIndex
 90
       18
102
RTVSPost2010Prop41ColorRGB
 90
        0
102
RTVSPost2010PropOp41
 70
     1
102
RTVSPost2010Prop42
 90
       50
102
RTVSPost2010PropOp42
 70
     1
102
RTVSPost2010Prop43
 90
        3
102
RTVSPost2010PropOp43
 70
     1
102
RTVSPost2010Prop44ColorIndex
 90
        5
102
RTVSPost2010Prop44ColorRGB
 90
      255
102
RTVSPost2010PropOp44
 70
     1
102
RTVSPost2010Prop45
280
     0
102
RTVSPost2010PropOp45
 70
     1
102
RTVSPost2010Prop46
 90
       50
102
RTVSPost2010PropOp46
 70
     1
102
RTVSPost2010Prop47
 90
       50
102
RTVSPost2010PropOp47
 70
     1
102
RTVSPost2010Prop48
 90
       50
102
RTVSPost2010PropOp48
 70
     1
102
RTVSPost2010Prop49
280
     0
102
RTVSPost2010PropOp49
 70
     1
102
RTVSPost2010Prop50
 90
       50
102
RTVSPost2010PropOp50
 70
     1
102
RTVSPost2010Prop51ColorIndex
 90
      256
102
RTVSPost2010Prop51ColorRGB
 90
-16777216
102
RTVSPost2010PropOp51
 70
     0
102
RTVSPost2010Prop52
140
1.0
102
RTVSPost2010PropOp52
 70
     0
102
RTVSPost2010Prop53
 90
        2
102
RTVSPost2010PropOp53
 70
     1
102
RTVSPost2010Prop54
  1
strokes_ogs.tif
102
RTVSPost2010PropOp54
 70
     1
102
RTVSPost2010Prop55
280
     0
102
RTVSPost2010PropOp55
 70
     1
102
RTVSPost2010Prop56
140
1.0
102
RTVSPost2010PropOp56
 70
     1
102
RTVSPost2010Prop57
140
1.0
102
RTVSPost2010PropOp57
 70
     1
  0
XRECORD
  5
64E
102
{ACAD_REACTORS
330
64D
102
}
330
64D
100
AcDbXrecord
280
     1
102
RTVSPropertyOp0
 70
     1
102
RTVSPropertyOp1
 70
     1
102
RTVSPropertyOp2
 70
     1
102
RTVSPropertyOp3
 70
     1
102
RTVSPropertyOp4
 70
     1
102
RTVSPropertyOp5
 70
     1
102
RTVSPropertyOp6
 70
     1
102
RTVSPropertyOp7
 70
     1
102
RTVSPropertyOp8
 70
     1
102
RTVSPropertyOp9
 70
     1
102
RTVSPropertyOp10
 70
     1
102
RTVSPropertyOp11
 70
     1
102
RTVSPropertyOp12
 70
     1
102
RTVSPropertyOp13
 70
     1
102
RTVSPropertyOp14
 70
     1
102
RTVSPropertyOp15
 70
     1
102
RTVSPropertyOp16
 70
     1
102
RTVSPropertyOp17
 70
     1
102
RTVSPropertyOp18
 70
     1
102
RTVSPropertyOp19
 70
     1
102
RTVSPropertyOp20
 70
     1
102
RTVSPropertyOp21
 70
     1
102
RTVSPropertyOp22
 70
     1
102
RTVSPropertyOp23
 70
     1
102
RTVSPropertyOp24
 70
     1
102
RTVSPropertyOp25
 70
     1
102
RTVSPropertyOp26
 70
     1
102
RTVSPropertyOp27
 70
     1
102
RTVSPropertyOp28
 70
     1
102
RTVSPropertyOp29
 70
     1
102
RTVSPropertyOp30
 70
     1
102
RTVSPropertyOp31
 70
     1
102
RTVSPropertyOp32
 70
     1
102
RTVSPropertyOp33
 70
     1
102
RTVSPropertyOp34
 70
     1
102
RTVSPropertyOp35
 70
     1
102
RTVSPropertyOp36
 70
     1
102
RTVSPropertyOp37
 70
     1
102
RTVSPropertyOp38
 70
     1
102
RTVSPropertyOp39
 70
     1
102
RTVSPropertyOp40
 70
     1
102
RTVSPropertyOp41
 70
     1
102
RTVSPropertyOp42
 70
     1
102
RTVSPropertyOp43
 70
     1
102
RTVSPropertyOp44
 70
     1
102
RTVSPropertyOp45
 70
     1
102
RTVSPropertyOp46
 70
     1
102
RTVSPropertyOp47
 70
     1
102
RTVSPropertyOp48
 70
     1
102
RTVSPropertyOp49
 70
     1
102
RTVSPropertyOp50
 70
     1
102
RTVSPropertyOp51
 70
     0
102
RTVSPropertyOp52
 70
     0
102
RTVSPropertyOp53
 70
     1
102
RTVSPropertyOp54
 70
     1
102
RTVSPropertyOp55
 70
     1
102
RTVSPropertyOp56
 70
     1
102
RTVSPropertyOp57
 70
     1
102
RTVSPost2010Prop28
280
     0
102
RTVSPost2010PropOp28
 70
     1
102
RTVSPost2010Prop29
280
     1
102
RTVSPost2010PropOp29
 70
     1
102
RTVSPost2010Prop30
280
     1
102
RTVSPost2010PropOp30
 70
     1
102
RTVSPost2010Prop31
280
     0
102
RTVSPost2010PropOp31
 70
     1
102
RTVSPost2010Prop32
280
     0
102
RTVSPost2010PropOp32
 70
     1
102
RTVSPost2010Prop33
280
     0
102
RTVSPost2010PropOp33
 70
     1
102
RTVSPost2010Prop34
280
     0
102
RTVSPost2010PropOp34
 70
     1
102
RTVSPost2010Prop35
280
     0
102
RTVSPost2010PropOp35
 70
     1
102
RTVSPost2010Prop36
280
     0
102
RTVSPost2010PropOp36
 70
     1
102
RTVSPost2010Prop37
 90
       50
102
RTVSPost2010PropOp37
 70
     1
102
RTVSPost2010Prop38
140
0.0
102
RTVSPost2010PropOp38
 70
     1
102
RTVSPost2010Prop39
140
1.0
102
RTVSPost2010PropOp39
 70
     1
102
RTVSPost2010Prop40
 90
        0
102
RTVSPost2010PropOp40
 70
     1
102
RTVSPost2010Prop41ColorIndex
 90
       18
102
RTVSPost2010Prop41ColorRGB
 90
        0
102
RTVSPost2010PropOp41
 70
     1
102
RTVSPost2010Prop42
 90
       50
102
RTVSPost2010PropOp42
 70
     1
102
RTVSPost2010Prop43
 90
        3
102
RTVSPost2010PropOp43
 70
     1
102
RTVSPost2010Prop44ColorIndex
 90
        5
102
RTVSPost2010Prop44ColorRGB
 90
      255
102
RTVSPost2010PropOp44
 70
     1
102
RTVSPost2010Prop45
280
     0
102
RTVSPost2010PropOp45
 70
     1
102
RTVSPost2010Prop46
 90
       50
102
RTVSPost2010PropOp46
 70
     1
102
RTVSPost2010Prop47
 90
       50
102
RTVSPost2010PropOp47
 70
     1
102
RTVSPost2010Prop48
 90
       50
102
RTVSPost2010PropOp48
 70
     1
102
RTVSPost2010Prop49
280
     0
102
RTVSPost2010PropOp49
 70
     1
102
RTVSPost2010Prop50
 90
       50
102
RTVSPost2010PropOp50
 70
     1
102
RTVSPost2010Prop51ColorIndex
 90
      256
102
RTVSPost2010Prop51ColorRGB
 90
-16777216
102
RTVSPost2010PropOp51
 70
     0
102
RTVSPost2010Prop52
140
1.0
102
RTVSPost2010PropOp52
 70
     0
102
RTVSPost2010Prop53
 90
        2
102
RTVSPost2010PropOp53
 70
     1
102
RTVSPost2010Prop54
  1
strokes_ogs.tif
102
RTVSPost2010PropOp54
 70
     1
102
RTVSPost2010Prop55
280
     0
102
RTVSPost2010PropOp55
 70
     1
102
RTVSPost2010Prop56
140
1.0
102
RTVSPost2010PropOp56
 70
     1
102
RTVSPost2010Prop57
140
1.0
102
RTVSPost2010PropOp57
 70
     1
  0
XRECORD
  5
650
102
{ACAD_REACTORS
330
64F
102
}
330
64F
100
AcDbXrecord
280
     1
102
RTVSPropertyOp0
 70
     1
102
RTVSPropertyOp1
 70
     1
102
RTVSPropertyOp2
 70
     1
102
RTVSPropertyOp3
 70
     1
102
RTVSPropertyOp4
 70
     1
102
RTVSPropertyOp5
 70
     1
102
RTVSPropertyOp6
 70
     1
102
RTVSPropertyOp7
 70
     1
102
RTVSPropertyOp8
 70
     1
102
RTVSPropertyOp9
 70
     1
102
RTVSPropertyOp10
 70
     1
102
RTVSPropertyOp11
 70
     1
102
RTVSPropertyOp12
 70
     1
102
RTVSPropertyOp13
 70
     1
102
RTVSPropertyOp14
 70
     1
102
RTVSPropertyOp15
 70
     1
102
RTVSPropertyOp16
 70
     1
102
RTVSPropertyOp17
 70
     1
102
RTVSPropertyOp18
 70
     1
102
RTVSPropertyOp19
 70
     1
102
RTVSPropertyOp20
 70
     1
102
RTVSPropertyOp21
 70
     1
102
RTVSPropertyOp22
 70
     1
102
RTVSPropertyOp23
 70
     1
102
RTVSPropertyOp24
 70
     1
102
RTVSPropertyOp25
 70
     1
102
RTVSPropertyOp26
 70
     1
102
RTVSPropertyOp27
 70
     1
102
RTVSPropertyOp28
 70
     1
102
RTVSPropertyOp29
 70
     1
102
RTVSPropertyOp30
 70
     1
102
RTVSPropertyOp31
 70
     1
102
RTVSPropertyOp32
 70
     1
102
RTVSPropertyOp33
 70
     1
102
RTVSPropertyOp34
 70
     1
102
RTVSPropertyOp35
 70
     1
102
RTVSPropertyOp36
 70
     1
102
RTVSPropertyOp37
 70
     1
102
RTVSPropertyOp38
 70
     1
102
RTVSPropertyOp39
 70
     1
102
RTVSPropertyOp40
 70
     1
102
RTVSPropertyOp41
 70
     1
102
RTVSPropertyOp42
 70
     1
102
RTVSPropertyOp43
 70
     1
102
RTVSPropertyOp44
 70
     1
102
RTVSPropertyOp45
 70
     1
102
RTVSPropertyOp46
 70
     1
102
RTVSPropertyOp47
 70
     1
102
RTVSPropertyOp48
 70
     1
102
RTVSPropertyOp49
 70
     1
102
RTVSPropertyOp50
 70
     1
102
RTVSPropertyOp51
 70
     0
102
RTVSPropertyOp52
 70
     0
102
RTVSPropertyOp53
 70
     1
102
RTVSPropertyOp54
 70
     1
102
RTVSPropertyOp55
 70
     1
102
RTVSPropertyOp56
 70
     1
102
RTVSPropertyOp57
 70
     1
102
RTVSPost2010Prop28
280
     0
102
RTVSPost2010PropOp28
 70
     1
102
RTVSPost2010Prop29
280
     1
102
RTVSPost2010PropOp29
 70
     1
102
RTVSPost2010Prop30
280
     1
102
RTVSPost2010PropOp30
 70
     1
102
RTVSPost2010Prop31
280
     0
102
RTVSPost2010PropOp31
 70
     1
102
RTVSPost2010Prop32
280
     0
102
RTVSPost2010PropOp32
 70
     1
102
RTVSPost2010Prop33
280
     0
102
RTVSPost2010PropOp33
 70
     1
102
RTVSPost2010Prop34
280
     0
102
RTVSPost2010PropOp34
 70
     1
102
RTVSPost2010Prop35
280
     0
102
RTVSPost2010PropOp35
 70
     1
102
RTVSPost2010Prop36
280
     0
102
RTVSPost2010PropOp36
 70
     1
102
RTVSPost2010Prop37
 90
       50
102
RTVSPost2010PropOp37
 70
     1
102
RTVSPost2010Prop38
140
0.0
102
RTVSPost2010PropOp38
 70
     1
102
RTVSPost2010Prop39
140
1.0
102
RTVSPost2010PropOp39
 70
     1
102
RTVSPost2010Prop40
 90
        0
102
RTVSPost2010PropOp40
 70
     1
102
RTVSPost2010Prop41ColorIndex
 90
       18
102
RTVSPost2010Prop41ColorRGB
 90
        0
102
RTVSPost2010PropOp41
 70
     1
102
RTVSPost2010Prop42
 90
       50
102
RTVSPost2010PropOp42
 70
     1
102
RTVSPost2010Prop43
 90
        3
102
RTVSPost2010PropOp43
 70
     1
102
RTVSPost2010Prop44ColorIndex
 90
        5
102
RTVSPost2010Prop44ColorRGB
 90
      255
102
RTVSPost2010PropOp44
 70
     1
102
RTVSPost2010Prop45
280
     0
102
RTVSPost2010PropOp45
 70
     1
102
RTVSPost2010Prop46
 90
       50
102
RTVSPost2010PropOp46
 70
     1
102
RTVSPost2010Prop47
 90
       50
102
RTVSPost2010PropOp47
 70
     1
102
RTVSPost2010Prop48
 90
       50
102
RTVSPost2010PropOp48
 70
     1
102
RTVSPost2010Prop49
280
     0
102
RTVSPost2010PropOp49
 70
     1
102
RTVSPost2010Prop50
 90
       50
102
RTVSPost2010PropOp50
 70
     1
102
RTVSPost2010Prop51ColorIndex
 90
      256
102
RTVSPost2010Prop51ColorRGB
 90
-16777216
102
RTVSPost2010PropOp51
 70
     0
102
RTVSPost2010Prop52
140
1.0
102
RTVSPost2010PropOp52
 70
     0
102
RTVSPost2010Prop53
 90
        2
102
RTVSPost2010PropOp53
 70
     1
102
RTVSPost2010Prop54
  1
strokes_ogs.tif
102
RTVSPost2010PropOp54
 70
     1
102
RTVSPost2010Prop55
280
     0
102
RTVSPost2010PropOp55
 70
     1
102
RTVSPost2010Prop56
140
1.0
102
RTVSPost2010PropOp56
 70
     1
102
RTVSPost2010Prop57
140
1.0
102
RTVSPost2010PropOp57
 70
     1
  0
XRECORD
  5
640
102
{ACAD_REACTORS
330
63F
102
}
330
63F
100
AcDbXrecord
280
     1
102
RTVSPropertyOp0
 70
     1
102
RTVSPropertyOp1
 70
     1
102
RTVSPropertyOp2
 70
     1
102
RTVSPropertyOp3
 70
     1
102
RTVSPropertyOp4
 70
     1
102
RTVSPropertyOp5
 70
     1
102
RTVSPropertyOp6
 70
     1
102
RTVSPropertyOp7
 70
     1
102
RTVSPropertyOp8
 70
     1
102
RTVSPropertyOp9
 70
     1
102
RTVSPropertyOp10
 70
     1
102
RTVSPropertyOp11
 70
     1
102
RTVSPropertyOp12
 70
     1
102
RTVSPropertyOp13
 70
     1
102
RTVSPropertyOp14
 70
     1
102
RTVSPropertyOp15
 70
     1
102
RTVSPropertyOp16
 70
     1
102
RTVSPropertyOp17
 70
     1
102
RTVSPropertyOp18
 70
     1
102
RTVSPropertyOp19
 70
     1
102
RTVSPropertyOp20
 70
     1
102
RTVSPropertyOp21
 70
     1
102
RTVSPropertyOp22
 70
     1
102
RTVSPropertyOp23
 70
     1
102
RTVSPropertyOp24
 70
     1
102
RTVSPropertyOp25
 70
     1
102
RTVSPropertyOp26
 70
     1
102
RTVSPropertyOp27
 70
     1
102
RTVSPropertyOp28
 70
     1
102
RTVSPropertyOp29
 70
     1
102
RTVSPropertyOp30
 70
     1
102
RTVSPropertyOp31
 70
     1
102
RTVSPropertyOp32
 70
     1
102
RTVSPropertyOp33
 70
     1
102
RTVSPropertyOp34
 70
     1
102
RTVSPropertyOp35
 70
     1
102
RTVSPropertyOp36
 70
     1
102
RTVSPropertyOp37
 70
     1
102
RTVSPropertyOp38
 70
     1
102
RTVSPropertyOp39
 70
     1
102
RTVSPropertyOp40
 70
     1
102
RTVSPropertyOp41
 70
     1
102
RTVSPropertyOp42
 70
     1
102
RTVSPropertyOp43
 70
     1
102
RTVSPropertyOp44
 70
     1
102
RTVSPropertyOp45
 70
     1
102
RTVSPropertyOp46
 70
     1
102
RTVSPropertyOp47
 70
     1
102
RTVSPropertyOp48
 70
     1
102
RTVSPropertyOp49
 70
     1
102
RTVSPropertyOp50
 70
     1
102
RTVSPropertyOp51
 70
     0
102
RTVSPropertyOp52
 70
     0
102
RTVSPropertyOp53
 70
     1
102
RTVSPropertyOp54
 70
     1
102
RTVSPropertyOp55
 70
     1
102
RTVSPropertyOp56
 70
     1
102
RTVSPropertyOp57
 70
     1
102
RTVSPost2010Prop28
280
     0
102
RTVSPost2010PropOp28
 70
     1
102
RTVSPost2010Prop29
280
     1
102
RTVSPost2010PropOp29
 70
     1
102
RTVSPost2010Prop30
280
     1
102
RTVSPost2010PropOp30
 70
     1
102
RTVSPost2010Prop31
280
     0
102
RTVSPost2010PropOp31
 70
     1
102
RTVSPost2010Prop32
280
     0
102
RTVSPost2010PropOp32
 70
     1
102
RTVSPost2010Prop33
280
     0
102
RTVSPost2010PropOp33
 70
     1
102
RTVSPost2010Prop34
280
     0
102
RTVSPost2010PropOp34
 70
     1
102
RTVSPost2010Prop35
280
     0
102
RTVSPost2010PropOp35
 70
     1
102
RTVSPost2010Prop36
280
     0
102
RTVSPost2010PropOp36
 70
     1
102
RTVSPost2010Prop37
 90
       50
102
RTVSPost2010PropOp37
 70
     1
102
RTVSPost2010Prop38
140
0.0
102
RTVSPost2010PropOp38
 70
     1
102
RTVSPost2010Prop39
140
1.0
102
RTVSPost2010PropOp39
 70
     1
102
RTVSPost2010Prop40
 90
        0
102
RTVSPost2010PropOp40
 70
     1
102
RTVSPost2010Prop41ColorIndex
 90
       18
102
RTVSPost2010Prop41ColorRGB
 90
        0
102
RTVSPost2010PropOp41
 70
     1
102
RTVSPost2010Prop42
 90
       50
102
RTVSPost2010PropOp42
 70
     1
102
RTVSPost2010Prop43
 90
        3
102
RTVSPost2010PropOp43
 70
     1
102
RTVSPost2010Prop44ColorIndex
 90
        5
102
RTVSPost2010Prop44ColorRGB
 90
      255
102
RTVSPost2010PropOp44
 70
     1
102
RTVSPost2010Prop45
280
     0
102
RTVSPost2010PropOp45
 70
     1
102
RTVSPost2010Prop46
 90
       50
102
RTVSPost2010PropOp46
 70
     1
102
RTVSPost2010Prop47
 90
       50
102
RTVSPost2010PropOp47
 70
     1
102
RTVSPost2010Prop48
 90
       50
102
RTVSPost2010PropOp48
 70
     1
102
RTVSPost2010Prop49
280
     0
102
RTVSPost2010PropOp49
 70
     1
102
RTVSPost2010Prop50
 90
       50
102
RTVSPost2010PropOp50
 70
     1
102
RTVSPost2010Prop51ColorIndex
 90
      256
102
RTVSPost2010Prop51ColorRGB
 90
-16777216
102
RTVSPost2010PropOp51
 70
     0
102
RTVSPost2010Prop52
140
1.0
102
RTVSPost2010PropOp52
 70
     0
102
RTVSPost2010Prop53
 90
        2
102
RTVSPost2010PropOp53
 70
     1
102
RTVSPost2010Prop54
  1
strokes_ogs.tif
102
RTVSPost2010PropOp54
 70
     1
102
RTVSPost2010Prop55
280
     0
102
RTVSPost2010PropOp55
 70
     1
102
RTVSPost2010Prop56
140
1.0
102
RTVSPost2010PropOp56
 70
     1
102
RTVSPost2010Prop57
140
1.0
102
RTVSPost2010PropOp57
 70
     1
  0
XRECORD
  5
62A
102
{ACAD_REACTORS
330
629
102
}
330
629
100
AcDbXrecord
280
     1
102
RTVSPropertyOp0
 70
     1
102
RTVSPropertyOp1
 70
     1
102
RTVSPropertyOp2
 70
     1
102
RTVSPropertyOp3
 70
     1
102
RTVSPropertyOp4
 70
     1
102
RTVSPropertyOp5
 70
     1
102
RTVSPropertyOp6
 70
     1
102
RTVSPropertyOp7
 70
     1
102
RTVSPropertyOp8
 70
     1
102
RTVSPropertyOp9
 70
     1
102
RTVSPropertyOp10
 70
     1
102
RTVSPropertyOp11
 70
     1
102
RTVSPropertyOp12
 70
     1
102
RTVSPropertyOp13
 70
     1
102
RTVSPropertyOp14
 70
     1
102
RTVSPropertyOp15
 70
     1
102
RTVSPropertyOp16
 70
     1
102
RTVSPropertyOp17
 70
     1
102
RTVSPropertyOp18
 70
     1
102
RTVSPropertyOp19
 70
     1
102
RTVSPropertyOp20
 70
     1
102
RTVSPropertyOp21
 70
     1
102
RTVSPropertyOp22
 70
     1
102
RTVSPropertyOp23
 70
     1
102
RTVSPropertyOp24
 70
     1
102
RTVSPropertyOp25
 70
     1
102
RTVSPropertyOp26
 70
     1
102
RTVSPropertyOp27
 70
     1
102
RTVSPropertyOp28
 70
     1
102
RTVSPropertyOp29
 70
     1
102
RTVSPropertyOp30
 70
     1
102
RTVSPropertyOp31
 70
     1
102
RTVSPropertyOp32
 70
     1
102
RTVSPropertyOp33
 70
     1
102
RTVSPropertyOp34
 70
     1
102
RTVSPropertyOp35
 70
     1
102
RTVSPropertyOp36
 70
     1
102
RTVSPropertyOp37
 70
     1
102
RTVSPropertyOp38
 70
     1
102
RTVSPropertyOp39
 70
     1
102
RTVSPropertyOp40
 70
     1
102
RTVSPropertyOp41
 70
     1
102
RTVSPropertyOp42
 70
     1
102
RTVSPropertyOp43
 70
     1
102
RTVSPropertyOp44
 70
     1
102
RTVSPropertyOp45
 70
     1
102
RTVSPropertyOp46
 70
     1
102
RTVSPropertyOp47
 70
     1
102
RTVSPropertyOp48
 70
     1
102
RTVSPropertyOp49
 70
     1
102
RTVSPropertyOp50
 70
     1
102
RTVSPropertyOp51
 70
     0
102
RTVSPropertyOp52
 70
     0
102
RTVSPropertyOp53
 70
     1
102
RTVSPropertyOp54
 70
     1
102
RTVSPropertyOp55
 70
     1
102
RTVSPropertyOp56
 70
     1
102
RTVSPropertyOp57
 70
     1
102
RTVSPost2010Prop28
280
     0
102
RTVSPost2010PropOp28
 70
     1
102
RTVSPost2010Prop29
280
     1
102
RTVSPost2010PropOp29
 70
     1
102
RTVSPost2010Prop30
280
     1
102
RTVSPost2010PropOp30
 70
     1
102
RTVSPost2010Prop31
280
     0
102
RTVSPost2010PropOp31
 70
     1
102
RTVSPost2010Prop32
280
     0
102
RTVSPost2010PropOp32
 70
     1
102
RTVSPost2010Prop33
280
     0
102
RTVSPost2010PropOp33
 70
     1
102
RTVSPost2010Prop34
280
     0
102
RTVSPost2010PropOp34
 70
     1
102
RTVSPost2010Prop35
280
     0
102
RTVSPost2010PropOp35
 70
     1
102
RTVSPost2010Prop36
280
     0
102
RTVSPost2010PropOp36
 70
     1
102
RTVSPost2010Prop37
 90
       50
102
RTVSPost2010PropOp37
 70
     1
102
RTVSPost2010Prop38
140
0.0
102
RTVSPost2010PropOp38
 70
     1
102
RTVSPost2010Prop39
140
1.0
102
RTVSPost2010PropOp39
 70
     1
102
RTVSPost2010Prop40
 90
        0
102
RTVSPost2010PropOp40
 70
     1
102
RTVSPost2010Prop41ColorIndex
 90
       18
102
RTVSPost2010Prop41ColorRGB
 90
        0
102
RTVSPost2010PropOp41
 70
     1
102
RTVSPost2010Prop42
 90
       50
102
RTVSPost2010PropOp42
 70
     1
102
RTVSPost2010Prop43
 90
        3
102
RTVSPost2010PropOp43
 70
     1
102
RTVSPost2010Prop44ColorIndex
 90
        5
102
RTVSPost2010Prop44ColorRGB
 90
      255
102
RTVSPost2010PropOp44
 70
     1
102
RTVSPost2010Prop45
280
     0
102
RTVSPost2010PropOp45
 70
     1
102
RTVSPost2010Prop46
 90
       50
102
RTVSPost2010PropOp46
 70
     1
102
RTVSPost2010Prop47
 90
       50
102
RTVSPost2010PropOp47
 70
     1
102
RTVSPost2010Prop48
 90
       50
102
RTVSPost2010PropOp48
 70
     1
102
RTVSPost2010Prop49
280
     0
102
RTVSPost2010PropOp49
 70
     1
102
RTVSPost2010Prop50
 90
       50
102
RTVSPost2010PropOp50
 70
     1
102
RTVSPost2010Prop51ColorIndex
 90
      256
102
RTVSPost2010Prop51ColorRGB
 90
-16777216
102
RTVSPost2010PropOp51
 70
     0
102
RTVSPost2010Prop52
140
1.0
102
RTVSPost2010PropOp52
 70
     0
102
RTVSPost2010Prop53
 90
        2
102
RTVSPost2010PropOp53
 70
     1
102
RTVSPost2010Prop54
  1
strokes_ogs.tif
102
RTVSPost2010PropOp54
 70
     1
102
RTVSPost2010Prop55
280
     0
102
RTVSPost2010PropOp55
 70
     1
102
RTVSPost2010Prop56
140
1.0
102
RTVSPost2010PropOp56
 70
     1
102
RTVSPost2010Prop57
140
1.0
102
RTVSPost2010PropOp57
 70
     1
  0
XRECORD
  5
652
102
{ACAD_REACTORS
330
651
102
}
330
651
100
AcDbXrecord
280
     1
102
RTVSPropertyOp0
 70
     1
102
RTVSPropertyOp1
 70
     1
102
RTVSPropertyOp2
 70
     1
102
RTVSPropertyOp3
 70
     1
102
RTVSPropertyOp4
 70
     1
102
RTVSPropertyOp5
 70
     1
102
RTVSPropertyOp6
 70
     1
102
RTVSPropertyOp7
 70
     1
102
RTVSPropertyOp8
 70
     1
102
RTVSPropertyOp9
 70
     1
102
RTVSPropertyOp10
 70
     1
102
RTVSPropertyOp11
 70
     1
102
RTVSPropertyOp12
 70
     1
102
RTVSPropertyOp13
 70
     1
102
RTVSPropertyOp14
 70
     1
102
RTVSPropertyOp15
 70
     1
102
RTVSPropertyOp16
 70
     1
102
RTVSPropertyOp17
 70
     1
102
RTVSPropertyOp18
 70
     1
102
RTVSPropertyOp19
 70
     1
102
RTVSPropertyOp20
 70
     1
102
RTVSPropertyOp21
 70
     1
102
RTVSPropertyOp22
 70
     1
102
RTVSPropertyOp23
 70
     1
102
RTVSPropertyOp24
 70
     1
102
RTVSPropertyOp25
 70
     1
102
RTVSPropertyOp26
 70
     1
102
RTVSPropertyOp27
 70
     1
102
RTVSPropertyOp28
 70
     1
102
RTVSPropertyOp29
 70
     1
102
RTVSPropertyOp30
 70
     1
102
RTVSPropertyOp31
 70
     1
102
RTVSPropertyOp32
 70
     1
102
RTVSPropertyOp33
 70
     1
102
RTVSPropertyOp34
 70
     1
102
RTVSPropertyOp35
 70
     1
102
RTVSPropertyOp36
 70
     1
102
RTVSPropertyOp37
 70
     1
102
RTVSPropertyOp38
 70
     1
102
RTVSPropertyOp39
 70
     1
102
RTVSPropertyOp40
 70
     1
102
RTVSPropertyOp41
 70
     1
102
RTVSPropertyOp42
 70
     1
102
RTVSPropertyOp43
 70
     1
102
RTVSPropertyOp44
 70
     1
102
RTVSPropertyOp45
 70
     1
102
RTVSPropertyOp46
 70
     1
102
RTVSPropertyOp47
 70
     1
102
RTVSPropertyOp48
 70
     1
102
RTVSPropertyOp49
 70
     1
102
RTVSPropertyOp50
 70
     1
102
RTVSPropertyOp51
 70
     0
102
RTVSPropertyOp52
 70
     0
102
RTVSPropertyOp53
 70
     1
102
RTVSPropertyOp54
 70
     1
102
RTVSPropertyOp55
 70
     1
102
RTVSPropertyOp56
 70
     1
102
RTVSPropertyOp57
 70
     1
102
RTVSPost2010Prop28
280
     0
102
RTVSPost2010PropOp28
 70
     1
102
RTVSPost2010Prop29
280
     1
102
RTVSPost2010PropOp29
 70
     1
102
RTVSPost2010Prop30
280
     1
102
RTVSPost2010PropOp30
 70
     1
102
RTVSPost2010Prop31
280
     0
102
RTVSPost2010PropOp31
 70
     1
102
RTVSPost2010Prop32
280
     0
102
RTVSPost2010PropOp32
 70
     1
102
RTVSPost2010Prop33
280
     0
102
RTVSPost2010PropOp33
 70
     1
102
RTVSPost2010Prop34
280
     0
102
RTVSPost2010PropOp34
 70
     1
102
RTVSPost2010Prop35
280
     0
102
RTVSPost2010PropOp35
 70
     1
102
RTVSPost2010Prop36
280
     0
102
RTVSPost2010PropOp36
 70
     1
102
RTVSPost2010Prop37
 90
       50
102
RTVSPost2010PropOp37
 70
     1
102
RTVSPost2010Prop38
140
0.0
102
RTVSPost2010PropOp38
 70
     1
102
RTVSPost2010Prop39
140
1.0
102
RTVSPost2010PropOp39
 70
     1
102
RTVSPost2010Prop40
 90
        0
102
RTVSPost2010PropOp40
 70
     1
102
RTVSPost2010Prop41ColorIndex
 90
       18
102
RTVSPost2010Prop41ColorRGB
 90
        0
102
RTVSPost2010PropOp41
 70
     1
102
RTVSPost2010Prop42
 90
       50
102
RTVSPost2010PropOp42
 70
     1
102
RTVSPost2010Prop43
 90
        3
102
RTVSPost2010PropOp43
 70
     1
102
RTVSPost2010Prop44ColorIndex
 90
        5
102
RTVSPost2010Prop44ColorRGB
 90
      255
102
RTVSPost2010PropOp44
 70
     1
102
RTVSPost2010Prop45
280
     0
102
RTVSPost2010PropOp45
 70
     1
102
RTVSPost2010Prop46
 90
       50
102
RTVSPost2010PropOp46
 70
     1
102
RTVSPost2010Prop47
 90
       50
102
RTVSPost2010PropOp47
 70
     1
102
RTVSPost2010Prop48
 90
       50
102
RTVSPost2010PropOp48
 70
     1
102
RTVSPost2010Prop49
280
     0
102
RTVSPost2010PropOp49
 70
     1
102
RTVSPost2010Prop50
 90
       50
102
RTVSPost2010PropOp50
 70
     1
102
RTVSPost2010Prop51ColorIndex
 90
      256
102
RTVSPost2010Prop51ColorRGB
 90
-16777216
102
RTVSPost2010PropOp51
 70
     0
102
RTVSPost2010Prop52
140
1.0
102
RTVSPost2010PropOp52
 70
     0
102
RTVSPost2010Prop53
 90
        2
102
RTVSPost2010PropOp53
 70
     1
102
RTVSPost2010Prop54
  1
strokes_ogs.tif
102
RTVSPost2010PropOp54
 70
     1
102
RTVSPost2010Prop55
280
     0
102
RTVSPost2010PropOp55
 70
     1
102
RTVSPost2010Prop56
140
1.0
102
RTVSPost2010PropOp56
 70
     1
102
RTVSPost2010Prop57
140
1.0
102
RTVSPost2010PropOp57
 70
     1
  0
ENDSEC
  0
EOF
