  0
SECTION
  2
HEADER
  9
$ACADVER
  1
AC1015
  9
$ACADMAINTVER
 70
     6
  9
$DWGCODEPAGE
  3
ANSI_932
  9
$INSBASE
 10
1716.096080366606
 20
292.5166180345004
 30
0.0
  9
$EXTMIN
 10
90.91687643329851
 20
18.83686680777691
 30
0.0
  9
$EXTMAX
 10
1260.656691876988
 20
1133.204631064534
 30
0.0
  9
$LIMMIN
 10
0.0
 20
0.0
  9
$LIMMAX
 10
816.5000000000001
 20
565.0
  9
$ORTHOMODE
 70
     1
  9
$REGENMODE
 70
     1
  9
$FILLMODE
 70
     1
  9
$QTEXTMODE
 70
     0
  9
$MIRRTEXT
 70
     1
  9
$LTSCALE
 40
20.0
  9
$ATTMODE
 70
     1
  9
$TEXTSIZE
 40
12.0
  9
$TRACEWID
 40
0.05
  9
$TEXTSTYLE
  7
KANJI
  9
$CLAYER
  8
2
  9
$CELTYPE
  6
BYLAYER
  9
$CECOLOR
 62
   256
  9
$CELTSCALE
 40
1.0
  9
$DISPSILH
 70
     0
  9
$DIMSCALE
 40
4.0
  9
$DIMASZ
 40
2.0
  9
$DIMEXO
 40
0.5
  9
$DIMDLI
 40
0.0
  9
$DIMRND
 40
0.0
  9
$DIMDLE
 40
0.0
  9
$DIMEXE
 40
1.0
  9
$DIMTP
 40
0.0
  9
$DIMTM
 40
0.0
  9
$DIMTXT
 40
3.0
  9
$DIMCEN
 40
0.09
  9
$DIMTSZ
 40
0.0
  9
$DIMTOL
 70
     0
  9
$DIMLIM
 70
     0
  9
$DIMTIH
 70
     0
  9
$DIMTOH
 70
     0
  9
$DIMSE1
 70
     0
  9
$DIMSE2
 70
     0
  9
$DIMTAD
 70
     0
  9
$DIMZIN
 70
     8
  9
$DIMBLK
  1

  9
$DIMASO
 70
     0
  9
$DIMSHO
 70
     0
  9
$DIMPOST
  1

  9
$DIMAPOST
  1

  9
$DIMALT
 70
     0
  9
$DIMALTD
 70
     2
  9
$DIMALTF
 40
25.4
  9
$DIMLFAC
 40
1.0
  9
$DIMTOFL
 70
     1
  9
$DIMTVP
 40
1.0
  9
$DIMTIX
 70
     1
  9
$DIMSOXD
 70
     1
  9
$DIMSAH
 70
     0
  9
$DIMBLK1
  1

  9
$DIMBLK2
  1

  9
$DIMSTYLE
  2
STANDARD
  9
$DIMCLRD
 70
   256
  9
$DIMCLRE
 70
   256
  9
$DIMCLRT
 70
   256
  9
$DIMTFAC
 40
1.0
  9
$DIMGAP
 40
0.09
  9
$DIMJUST
 70
     0
  9
$DIMSD1
 70
     0
  9
$DIMSD2
 70
     0
  9
$DIMTOLJ
 70
     1
  9
$DIMTZIN
 70
     0
  9
$DIMALTZ
 70
     0
  9
$DIMALTTZ
 70
     0
  9
$DIMUPT
 70
     0
  9
$DIMDEC
 70
     1
  9
$DIMTDEC
 70
     4
  9
$DIMALTU
 70
     2
  9
$DIMALTTD
 70
     2
  9
$DIMTXSTY
  7
STANDARD
  9
$DIMAUNIT
 70
     0
  9
$DIMADEC
 70
     0
  9
$DIMALTRND
 40
0.0
  9
$DIMAZIN
 70
     0
  9
$DIMDSEP
 70
    46
  9
$DIMATFIT
 70
     3
  9
$DIMFRAC
 70
     0
  9
$DIMLDRBLK
  1

  9
$DIMLUNIT
 70
     2
  9
$DIMLWD
 70
    -2
  9
$DIMLWE
 70
    -2
  9
$DIMTMOVE
 70
     0
  9
$LUNITS
 70
     2
  9
$LUPREC
 70
     3
  9
$SKETCHINC
 40
0.1
  9
$FILLETRAD
 40
1.0
  9
$AUNITS
 70
     0
  9
$AUPREC
 70
     3
  9
$MENU
  1
C:\R13\WIN\SUPPORT\ACADFULL
  9
$ELEVATION
 40
0.0
  9
$PELEVATION
 40
0.0
  9
$THICKNESS
 40
0.0
  9
$LIMCHECK
 70
     0
  9
$CHAMFERA
 40
0.0
  9
$CHAMFERB
 40
0.0
  9
$CHAMFERC
 40
0.0
  9
$CHAMFERD
 40
0.0
  9
$SKPOLY
 70
     0
  9
$TDCREATE
 40
2457161.453607801
  9
$TDUCREATE
 40
2457161.078607801
  9
$TDUPDATE
 40
2458109.499000116
  9
$TDUUPDATE
 40
2458109.124000116
  9
$TDINDWG
 40
0.0387746065
  9
$TDUSRTIMER
 40
0.0387738426
  9
$USRTIMER
 70
     1
  9
$ANGBASE
 50
0.0
  9
$ANGDIR
 70
     0
  9
$PDMODE
 70
     0
  9
$PDSIZE
 40
0.0
  9
$PLINEWID
 40
0.0
  9
$SPLFRAME
 70
     0
  9
$SPLINETYPE
 70
     6
  9
$SPLINESEGS
 70
     8
  9
$HANDSEED
  5
568
  9
$SURFTAB1
 70
     6
  9
$SURFTAB2
 70
     6
  9
$SURFTYPE
 70
     6
  9
$SURFU
 70
     6
  9
$SURFV
 70
     6
  9
$UCSBASE
  2

  9
$UCSNAME
  2

  9
$UCSORG
 10
0.0
 20
0.0
 30
0.0
  9
$UCSXDIR
 10
1.0
 20
0.0
 30
0.0
  9
$UCSYDIR
 10
0.0
 20
1.0
 30
0.0
  9
$UCSORTHOREF
  2

  9
$UCSORTHOVIEW
 70
     0
  9
$UCSORGTOP
 10
0.0
 20
0.0
 30
0.0
  9
$UCSORGBOTTOM
 10
0.0
 20
0.0
 30
0.0
  9
$UCSORGLEFT
 10
0.0
 20
0.0
 30
0.0
  9
$UCSORGRIGHT
 10
0.0
 20
0.0
 30
0.0
  9
$UCSORGFRONT
 10
0.0
 20
0.0
 30
0.0
  9
$UCSORGBACK
 10
0.0
 20
0.0
 30
0.0
  9
$PUCSBASE
  2

  9
$PUCSNAME
  2

  9
$PUCSORG
 10
0.0
 20
0.0
 30
0.0
  9
$PUCSXDIR
 10
1.0
 20
0.0
 30
0.0
  9
$PUCSYDIR
 10
0.0
 20
1.0
 30
0.0
  9
$PUCSORTHOREF
  2

  9
$PUCSORTHOVIEW
 70
     0
  9
$PUCSORGTOP
 10
0.0
 20
0.0
 30
0.0
  9
$PUCSORGBOTTOM
 10
0.0
 20
0.0
 30
0.0
  9
$PUCSORGLEFT
 10
0.0
 20
0.0
 30
0.0
  9
$PUCSORGRIGHT
 10
0.0
 20
0.0
 30
0.0
  9
$PUCSORGFRONT
 10
0.0
 20
0.0
 30
0.0
  9
$PUCSORGBACK
 10
0.0
 20
0.0
 30
0.0
  9
$USERI1
 70
     0
  9
$USERI2
 70
     0
  9
$USERI3
 70
     0
  9
$USERI4
 70
     0
  9
$USERI5
 70
     0
  9
$USERR1
 40
0.0
  9
$USERR2
 40
0.0
  9
$USERR3
 40
0.0
  9
$USERR4
 40
2448925.372986111
  9
$USERR5
 40
0.04166667
  9
$WORLDVIEW
 70
     1
  9
$SHADEDGE
 70
     3
  9
$SHADEDIF
 70
    70
  9
$TILEMODE
 70
     1
  9
$MAXACTVP
 70
    16
  9
$PINSBASE
 10
0.0
 20
0.0
 30
0.0
  9
$PLIMCHECK
 70
     0
  9
$PEXTMIN
 10
1000000000000000E+20
 20
1000000000000000E+20
 30
1000000000000000E+20
  9
$PEXTMAX
 10
-1000000000000000E+20
 20
-1000000000000000E+20
 30
-1000000000000000E+20
  9
$PLIMMIN
 10
0.0
 20
0.0
  9
$PLIMMAX
 10
12.0
 20
9.0
  9
$UNITMODE
 70
     0
  9
$VISRETAIN
 70
     0
  9
$PLINEGEN
 70
     0
  9
$PSLTSCALE
 70
     0
  9
$TREEDEPTH
 70
  3020
  9
$CMLSTYLE
  2
STANDARD
  9
$CMLJUST
 70
     0
  9
$CMLSCALE
 40
1.0
  9
$PROXYGRAPHICS
 70
     1
  9
$MEASUREMENT
 70
     0
  9
$CELWEIGHT
370
    -1
  9
$ENDCAPS
280
     0
  9
$JOINSTYLE
280
     0
  9
$LWDISPLAY
290
     0
  9
$INSUNITS
 70
     0
  9
$HYPERLINKBASE
  1

  9
$STYLESHEET
  1

  9
$XEDIT
290
     1
  9
$CEPSNTYPE
380
     0
  9
$PSTYLEMODE
290
     1
  9
$FINGERPRINTGUID
  2
{B2743FE6-FD62-41F3-A814-1F1E62B9CB76}
  9
$VERSIONGUID
  2
{1B6C69C9-758C-4797-A07C-4728ED899F9B}
  9
$EXTNAMES
290
     1
  9
$PSVPSCALE
 40
0.0
  9
$OLESTARTUP
290
     0
  0
ENDSEC
  0
SECTION
  2
CLASSES
  0
CLASS
  1
ACDBDICTIONARYWDFLT
  2
AcDbDictionaryWithDefault
  3
ObjectDBX Classes
 90
        0
280
     0
281
     0
  0
CLASS
  1
MATERIAL
  2
AcDbMaterial
  3
ObjectDBX Classes
 90
     1153
280
     0
281
     0
  0
CLASS
  1
SORTENTSTABLE
  2
AcDbSortentsTable
  3
ObjectDBX Classes
 90
        0
280
     0
281
     0
  0
CLASS
  1
SCALE
  2
AcDbScale
  3
ObjectDBX Classes
 90
     1153
280
     0
281
     0
  0
CLASS
  1
DICTIONARYVAR
  2
AcDbDictionaryVar
  3
ObjectDBX Classes
 90
        0
280
     0
281
     0
  0
CLASS
  1
VISUALSTYLE
  2
AcDbVisualStyle
  3
ObjectDBX Classes
 90
     4095
280
     0
281
     0
  0
CLASS
  1
MLEADERSTYLE
  2
AcDbMLeaderStyle
  3
ACDB_MLEADERSTYLE_CLASS
 90
     4095
280
     0
281
     0
  0
CLASS
  1
TABLESTYLE
  2
AcDbTableStyle
  3
ObjectDBX Classes
 90
     4095
280
     0
281
     0
  0
CLASS
  1
ACDBPLACEHOLDER
  2
AcDbPlaceHolder
  3
ObjectDBX Classes
 90
        0
280
     0
281
     0
  0
CLASS
  1
LAYOUT
  2
AcDbLayout
  3
ObjectDBX Classes
 90
        0
280
     0
281
     0
  0
ENDSEC
  0
SECTION
  2
TABLES
  0
TABLE
  2
VPORT
  5
26
102
{ACAD_XDICTIONARY
360
52D
102
}
330
0
100
AcDbSymbolTable
 70
     2
  0
VPORT
  5
2B
330
26
100
AcDbSymbolTableRecord
100
AcDbViewportTableRecord
  2
*ACTIVE
 70
     0
 10
0.0
 20
0.0
 11
1.0
 21
1.0
 12
1154.006179959832
 22
584.6231369502946
 13
0.0
 23
0.0
 14
1.0
 24
1.0
 15
50.0
 25
50.0
 16
0.0
 26
0.0
 36
1.0
 17
0.0
 27
0.0
 37
0.0
 40
1683.772416225088
 41
1.82716049382716
 42
50.0
 43
0.0
 44
0.0
 50
0.0
 51
0.0
 71
     0
 72
  5000
 73
     1
 74
     0
 75
     0
 76
     0
 77
     0
 78
     0
281
     0
 65
     1
110
0.0
120
0.0
130
0.0
111
1.0
121
0.0
131
0.0
112
0.0
122
1.0
132
0.0
 79
     0
146
0.0
  0
ENDTAB
  0
TABLE
  2
LTYPE
  5
B
330
0
100
AcDbSymbolTable
 70
     2
  0
LTYPE
  5
C
330
B
100
AcDbSymbolTableRecord
100
AcDbLinetypeTableRecord
  2
BYBLOCK
 70
     0
  3

 72
    65
 73
     0
 40
0.0
  0
LTYPE
  5
D
330
B
100
AcDbSymbolTableRecord
100
AcDbLinetypeTableRecord
  2
BYLAYER
 70
     0
  3

 72
    65
 73
     0
 40
0.0
  0
LTYPE
  5
A
330
B
100
AcDbSymbolTableRecord
100
AcDbLinetypeTableRecord
  2
CONTINUOUS
 70
     0
  3
Solid line
 72
    65
 73
     0
 40
0.0
  0
LTYPE
  5
7C
330
B
100
AcDbSymbolTableRecord
100
AcDbLinetypeTableRecord
  2
CENTER
 70
     0
  3
____ _ ____ _ ____ _ ____ _ ____ _ ____ _ ____
 72
    65
 73
     4
 40
2.0
 49
1.25
 74
     0
 49
-0.25
 74
     0
 49
0.25
 74
     0
 49
-0.25
 74
     0
  0
ENDTAB
  0
TABLE
  2
LAYER
  5
2
330
0
100
AcDbSymbolTable
 70
     8
  0
LAYER
  5
1B
330
2
100
AcDbSymbolTableRecord
100
AcDbLayerTableRecord
  2
0
 70
     0
 62
     7
  6
CONTINUOUS
370
    -3
390
3
  0
LAYER
  5
29D
330
2
100
AcDbSymbolTableRecord
100
AcDbLayerTableRecord
  2
1
 70
     0
 62
     9
  6
CONTINUOUS
370
    -3
390
3
  0
LAYER
  5
1
330
2
100
AcDbSymbolTableRecord
100
AcDbLayerTableRecord
  2
2
 70
     0
 62
     4
  6
CONTINUOUS
370
    -3
390
3
  0
LAYER
  5
75
330
2
100
AcDbSymbolTableRecord
100
AcDbLayerTableRecord
  2
4
 70
     0
 62
     3
  6
CONTINUOUS
370
    -3
390
3
  0
LAYER
  5
7B
330
2
100
AcDbSymbolTableRecord
100
AcDbLayerTableRecord
  2
L-CENTER
 70
     0
 62
     1
  6
CENTER
370
    -3
390
3
  0
LAYER
  5
72
330
2
100
AcDbSymbolTableRecord
100
AcDbLayerTableRecord
  2
3
 70
     0
 62
     2
  6
CONTINUOUS
370
    -3
390
3
  0
LAYER
  5
297
330
2
100
AcDbSymbolTableRecord
100
AcDbLayerTableRecord
  2
5
 70
     0
 62
     6
  6
CONTINUOUS
370
    -3
390
3
  0
LAYER
  5
41B
330
2
100
AcDbSymbolTableRecord
100
AcDbLayerTableRecord
  2
Defpoints
 70
     0
 62
     7
  6
CONTINUOUS
290
     0
370
    -3
390
3
  0
ENDTAB
  0
TABLE
  2
STYLE
  5
F
330
0
100
AcDbSymbolTable
 70
     2
  0
STYLE
  5
13
330
F
100
AcDbSymbolTableRecord
100
AcDbTextStyleTableRecord
  2
STANDARD
 70
     0
 40
0.0
 41
1.0
 50
0.0
 71
     0
 42
7.2
  3
TXT
  4

  0
STYLE
  5
E
330
F
100
AcDbSymbolTableRecord
100
AcDbTextStyleTableRecord
  2
KANJI
 70
     0
 40
0.0
 41
1.0
 50
0.0
 71
     0
 42
12.0
  3
TXT
  4
BIGFONT
  0
ENDTAB
  0
TABLE
  2
VIEW
  5
24
330
0
100
AcDbSymbolTable
 70
     0
  0
ENDTAB
  0
TABLE
  2
UCS
  5
25
330
0
100
AcDbSymbolTable
 70
     0
  0
ENDTAB
  0
TABLE
  2
APPID
  5
9
330
0
100
AcDbSymbolTable
 70
     4
  0
APPID
  5
8
330
9
100
AcDbSymbolTableRecord
100
AcDbRegAppTableRecord
  2
ACAD
 70
     0
  0
APPID
  5
1F
330
9
100
AcDbSymbolTableRecord
100
AcDbRegAppTableRecord
  2
ACAD_PSEXT
 70
     0
  0
APPID
  5
4D2
330
9
100
AcDbSymbolTableRecord
100
AcDbRegAppTableRecord
  2
ACAD_MLEADERVER
 70
     0
  0
ENDTAB
  0
TABLE
  2
DIMSTYLE
  5
12
330
0
100
AcDbSymbolTable
 70
     1
100
AcDbDimStyleTable
  0
DIMSTYLE
105
11
330
12
100
AcDbSymbolTableRecord
100
AcDbDimStyleTableRecord
  2
STANDARD
 70
     0
178
     0
340
13
  0
ENDTAB
  0
TABLE
  2
BLOCK_RECORD
  5
16
330
0
100
AcDbSymbolTable
 70
     0
  0
BLOCK_RECORD
  5
17
102
{ACAD_XDICTIONARY
360
18
102
}
330
16
100
AcDbSymbolTableRecord
100
AcDbBlockTableRecord
  2
*MODEL_SPACE
340
1D
  0
BLOCK_RECORD
  5
20
330
16
100
AcDbSymbolTableRecord
100
AcDbBlockTableRecord
  2
*PAPER_SPACE
340
23
  0
ENDTAB
  0
ENDSEC
  0
SECTION
  2
BLOCKS
  0
BLOCK
  5
1A
330
17
100
AcDbEntity
  8
0
100
AcDbBlockBegin
  2
*MODEL_SPACE
 70
     0
 10
0.0
 20
0.0
 30
0.0
  3
*MODEL_SPACE
  1

  0
ENDBLK
  5
1C
330
17
100
AcDbEntity
  8
0
100
AcDbBlockEnd
  0
BLOCK
  5
21
330
20
100
AcDbEntity
 67
     1
  8
0
100
AcDbBlockBegin
  2
*PAPER_SPACE
 70
     0
 10
0.0
 20
0.0
 30
0.0
  3
*PAPER_SPACE
  1

  0
ENDBLK
  5
22
330
20
100
AcDbEntity
 67
     1
  8
0
100
AcDbBlockEnd
  0
ENDSEC
  0
SECTION
  2
ENTITIES
  0
LINE
  5
74
330
17
100
AcDbEntity
  8
4
100
AcDbLine
 10
661.1307595656876
 20
101.8853991268345
 30
0.0
 11
661.1307595656876
 21
62.8853991268345
 31
0.0
  0
ARC
  5
76
330
17
100
AcDbEntity
  8
4
100
AcDbCircle
 10
455.1307595656876
 20
268.8853991268345
 30
0.0
 40
193.999948
100
AcDbArc
 50
227.637541
 51
267.457923
  0
ARC
  5
77
330
17
100
AcDbEntity
  8
4
100
AcDbCircle
 10
455.1307595656876
 20
268.8853991268345
 30
0.0
 40
193.999976
100
AcDbArc
 50
272.54316
 51
312.3637869999999
  0
LINE
  5
78
330
17
100
AcDbEntity
  8
4
100
AcDbLine
 10
249.1307595656875
 20
101.8853991268345
 30
0.0
 11
249.1307595656875
 21
62.8853991268345
 31
0.0
  0
ARC
  5
79
330
17
100
AcDbEntity
  8
4
100
AcDbCircle
 10
455.1307595656876
 20
268.8853991268345
 30
0.0
 40
194.000016
100
AcDbArc
 50
332.8084279999998
 51
207.1927
  0
LINE
  5
7A
330
17
100
AcDbEntity
  8
L-CENTER
100
AcDbLine
 10
455.1307595656876
 20
528.3252191268346
 30
0.0
 11
455.1307595656876
 21
61.50563912683447
 31
0.0
  0
LINE
  5
83
330
17
100
AcDbEntity
  8
4
100
AcDbLine
 10
249.1307595656875
 20
62.8853991268345
 30
0.0
 11
364.1307595656876
 21
62.8853991268345
 31
0.0
  0
LINE
  5
84
330
17
100
AcDbEntity
  8
4
100
AcDbLine
 10
252.1307595656875
 20
87.8853991268345
 30
0.0
 11
361.1307595656876
 21
87.8853991268345
 31
0.0
  0
ARC
  5
98
330
17
100
AcDbEntity
  8
4
100
AcDbCircle
 10
112.9876804332987
 20
152.8853991268345
 30
0.0
 40
13.499964
100
AcDbArc
 50
105.0261550000002
 51
74.97380400000004
  0
LINE
  5
99
330
17
100
AcDbEntity
  8
L-CENTER
100
AcDbLine
 10
135.0584844332989
 20
152.8853991268345
 30
0.0
 11
90.91687643329851
 21
152.8853991268345
 31
0.0
  0
LINE
  5
9A
330
17
100
AcDbEntity
  8
L-CENTER
100
AcDbLine
 10
112.9876804332987
 20
174.9562031268347
 30
0.0
 11
112.9876804332987
 21
130.8145951268343
 31
0.0
  0
LINE
  5
9C
330
17
100
AcDbEntity
  8
4
100
AcDbLine
 10
116.4876804332987
 20
162.3853991268345
 30
0.0
 11
116.4876804332987
 21
169.3853991268345
 31
0.0
  0
LINE
  5
9D
330
17
100
AcDbEntity
  8
4
100
AcDbLine
 10
109.4876804332987
 20
169.3853991268345
 30
0.0
 11
109.4876804332987
 21
162.3853991268345
 31
0.0
  0
LINE
  5
9F
330
17
100
AcDbEntity
  8
4
100
AcDbLine
 10
116.4876804332987
 20
169.3853991268345
 30
0.0
 11
109.4876804332987
 21
169.3853991268345
 31
0.0
  0
LINE
  5
A0
330
17
100
AcDbEntity
  8
4
100
AcDbLine
 10
116.4876804332987
 20
162.3853991268345
 30
0.0
 11
109.4876804332987
 21
162.3853991268345
 31
0.0
  0
ARC
  5
AC
330
17
100
AcDbEntity
  8
4
100
AcDbCircle
 10
252.1307595656875
 20
84.8853991268345
 30
0.0
 40
3.0
100
AcDbArc
 50
90.0
 51
180.0
  0
LINE
  5
AD
330
17
100
AcDbEntity
  8
L-CENTER
100
AcDbLine
 10
295.1307595656875
 20
50.8853991268345
 30
0.0
 11
295.1307595656875
 21
99.8853991268345
 31
0.0
  0
LINE
  5
B4
330
17
100
AcDbEntity
  8
4
100
AcDbLine
 10
658.1307595656876
 20
87.8853991268345
 30
0.0
 11
549.1307595656876
 21
87.8853991268345
 31
0.0
  0
LINE
  5
B5
330
17
100
AcDbEntity
  8
4
100
AcDbLine
 10
661.1307595656876
 20
62.8853991268345
 30
0.0
 11
546.1307595656876
 21
62.8853991268345
 31
0.0
  0
LINE
  5
D6
330
17
100
AcDbEntity
  8
4
100
AcDbLine
 10
455.1307595656876
 20
70.8853991268345
 30
0.0
 11
541.1307595656876
 21
70.8853991268345
 31
0.0
  0
LINE
  5
D9
330
17
100
AcDbEntity
  8
4
100
AcDbLine
 10
455.1307595656876
 20
70.8853991268345
 30
0.0
 11
369.1307595656876
 21
70.8853991268345
 31
0.0
  0
LINE
  5
DB
330
17
100
AcDbEntity
  8
4
100
AcDbLine
 10
364.1307595656876
 20
62.8853991268345
 30
0.0
 11
364.1307595656876
 21
84.8853991268345
 31
0.0
  0
LINE
  5
DC
330
17
100
AcDbEntity
  8
4
100
AcDbLine
 10
344.1307595656876
 20
62.8853991268345
 30
0.0
 11
344.1307595656876
 21
84.8853991268345
 31
0.0
  0
ARC
  5
DD
330
17
100
AcDbEntity
  8
4
100
AcDbCircle
 10
369.1307595656876
 20
65.8853991268345
 30
0.0
 40
5.0
100
AcDbArc
 50
90.0
 51
180.0
  0
ARC
  5
DE
330
17
100
AcDbEntity
  8
4
100
AcDbCircle
 10
341.1307595656876
 20
84.8853991268345
 30
0.0
 40
3.0
100
AcDbArc
 50
0.0
 51
90.0
  0
ARC
  5
DF
330
17
100
AcDbEntity
  8
4
100
AcDbCircle
 10
361.1307595656876
 20
84.8853991268345
 30
0.0
 40
3.0
100
AcDbArc
 50
0.0
 51
90.0
  0
LINE
  5
E0
330
17
100
AcDbEntity
  8
L-CENTER
100
AcDbLine
 10
434.9583997919817
 20
90.8853991268345
 30
0.0
 11
475.3031193393936
 21
90.8853991268345
 31
0.0
  0
ARC
  5
E1
330
17
100
AcDbEntity
  8
4
100
AcDbCircle
 10
455.1307595656876
 20
90.8853991268345
 30
0.0
 40
18.0
100
AcDbArc
 50
241.4348649999997
 51
298.5649320000002
  0
LINE
  5
E2
330
17
100
AcDbEntity
  8
2
100
AcDbLine
 10
455.1307595656876
 20
96.23069912683445
 30
0.0
 11
450.5015915656875
 21
93.55804712683448
 31
0.0
  0
LINE
  5
E3
330
17
100
AcDbEntity
  8
2
100
AcDbLine
 10
455.1307595656876
 20
96.23069912683445
 30
0.0
 11
459.7599235656876
 21
93.55804712683448
 31
0.0
  0
LINE
  5
E4
330
17
100
AcDbEntity
  8
2
100
AcDbLine
 10
450.5015915656875
 20
88.21275112683452
 30
0.0
 11
455.1307595656876
 21
85.54009912683455
 31
0.0
  0
LINE
  5
E5
330
17
100
AcDbEntity
  8
2
100
AcDbLine
 10
459.7599235656876
 20
88.21275112683452
 30
0.0
 11
455.1307595656876
 21
85.54009912683455
 31
0.0
  0
CIRCLE
  5
E6
330
17
100
AcDbEntity
  8
2
100
AcDbCircle
 10
455.1307595656876
 20
90.8853991268345
 30
0.0
 40
6.5
  0
CIRCLE
  5
E7
330
17
100
AcDbEntity
  8
4
100
AcDbCircle
 10
455.1307595656876
 20
90.8853991268345
 30
0.0
 40
7.5
  0
LINE
  5
E8
330
17
100
AcDbEntity
  8
2
100
AcDbLine
 10
450.5015915656875
 20
93.55804712683448
 30
0.0
 11
450.5015915656875
 21
88.21275112683452
 31
0.0
  0
LINE
  5
E9
330
17
100
AcDbEntity
  8
2
100
AcDbLine
 10
459.7599235656876
 20
93.55804712683448
 30
0.0
 11
459.7599235656876
 21
88.21275112683452
 31
0.0
  0
LINE
  5
EC
330
17
100
AcDbEntity
  8
4
100
AcDbLine
 10
546.1307595656876
 20
62.8853991268345
 30
0.0
 11
546.1307595656876
 21
84.8853991268345
 31
0.0
  0
ARC
  5
ED
330
17
100
AcDbEntity
  8
4
100
AcDbCircle
 10
541.1307595656876
 20
65.8853991268345
 30
0.0
 40
5.0
100
AcDbArc
 50
0.0
 51
90.0
  0
ARC
  5
EE
330
17
100
AcDbEntity
  8
4
100
AcDbCircle
 10
549.1307595656876
 20
84.8853991268345
 30
0.0
 40
3.0
100
AcDbArc
 50
90.0
 51
180.0
  0
LINE
  5
EF
330
17
100
AcDbEntity
  8
4
100
AcDbLine
 10
566.1307595656876
 20
62.8853991268345
 30
0.0
 11
566.1307595656876
 21
84.8853991268345
 31
0.0
  0
ARC
  5
F0
330
17
100
AcDbEntity
  8
4
100
AcDbCircle
 10
569.1307595656876
 20
84.8853991268345
 30
0.0
 40
3.0
100
AcDbArc
 50
90.0
 51
180.0
  0
LINE
  5
F1
330
17
100
AcDbEntity
  8
L-CENTER
100
AcDbLine
 10
615.1307595656876
 20
99.8853991268345
 30
0.0
 11
615.1307595656876
 21
50.8853991268345
 31
0.0
  0
ARC
  5
F4
330
17
100
AcDbEntity
  8
4
100
AcDbCircle
 10
658.1307595656876
 20
84.8853991268345
 30
0.0
 40
3.0
100
AcDbArc
 50
0.0
 51
90.0
  0
CIRCLE
  5
F7
330
17
100
AcDbEntity
  8
4
100
AcDbCircle
 10
398.5079555656876
 20
265.8853991268345
 30
0.0
 40
70.0
  0
ARC
  5
F8
330
17
100
AcDbEntity
  8
4
100
AcDbCircle
 10
455.1307595656876
 20
-92.1146008731655
 30
0.0
 40
449.999996
100
AcDbArc
 50
69.297629
 51
110.702891
  0
ARC
  5
F9
330
17
100
AcDbEntity
  8
4
100
AcDbCircle
 10
455.1307595656876
 20
-231.1144808731653
 30
0.0
 40
699.99994
100
AcDbArc
 50
75.02985000000001
 51
104.970172
  0
LINE
  5
FA
330
17
100
AcDbEntity
  8
L-CENTER
100
AcDbLine
 10
480.5171639267778
 20
265.8853991268345
 30
0.0
 11
316.4987472045973
 21
265.8853991268345
 31
0.0
  0
LINE
  5
FB
330
17
100
AcDbEntity
  8
L-CENTER
100
AcDbLine
 10
669.5683195656875
 20
268.8853991268345
 30
0.0
 11
242.1826995656876
 21
268.8853991268345
 31
0.0
  0
LINE
  5
FC
330
17
100
AcDbEntity
  8
4
100
AcDbLine
 10
306.1307595656875
 20
462.0287111268347
 30
0.0
 11
344.1307595656876
 21
462.0287111268347
 31
0.0
  0
LINE
  5
FD
330
17
100
AcDbEntity
  8
4
100
AcDbLine
 10
351.4967235656875
 20
104.8853991268345
 30
0.0
 11
239.1307595656875
 21
104.8853991268345
 31
0.0
  0
LINE
  5
FE
330
17
100
AcDbEntity
  8
4
100
AcDbLine
 10
239.1307595656875
 20
108.8026351268345
 30
0.0
 11
345.5428675656876
 21
108.8026351268345
 31
0.0
  0
LINE
  5
FF
330
17
100
AcDbEntity
  8
L-CENTER
100
AcDbLine
 10
678.0370572055083
 20
152.8853991268345
 30
0.0
 11
162.4532366303156
 21
152.8853991268345
 31
0.0
  0
ARC
  5
100
330
17
100
AcDbEntity
  8
4
100
AcDbCircle
 10
455.1307595656876
 20
623.8853991268345
 30
0.0
 40
449.999964
100
AcDbArc
 50
249.684682
 51
267.709579
  0
ARC
  5
101
330
17
100
AcDbEntity
  8
4
100
AcDbCircle
 10
455.1307595656876
 20
268.8853991268345
 30
0.0
 40
170.000004
100
AcDbArc
 50
275.7419839999999
 51
264.2592599999999
  0
LINE
  5
103
330
17
100
AcDbEntity
  8
L-CENTER
100
AcDbLine
 10
325.1307595656875
 20
473.2657391268347
 30
0.0
 11
325.1307595656875
 21
440.832065492706
 31
0.0
  0
ARC
  5
104
330
17
100
AcDbEntity
  8
4
100
AcDbCircle
 10
949.1307595656876
 20
268.8851551268347
 30
0.0
 40
699.999984
100
AcDbArc
 50
165.722034
 51
180.0004599994228
  0
LINE
  5
107
330
17
100
AcDbEntity
  8
4
100
AcDbLine
 10
221.1307595656876
 20
169.3853991268345
 30
0.0
 11
166.1307595656876
 21
169.3853991268345
 31
0.0
  0
LINE
  5
108
330
17
100
AcDbEntity
  8
4
100
AcDbLine
 10
226.1307595656876
 20
139.3853991268345
 30
0.0
 11
167.1307595656876
 21
139.3853991268345
 31
0.0
  0
LINE
  5
109
330
17
100
AcDbEntity
  8
4
100
AcDbLine
 10
226.1307595656876
 20
166.3853991268345
 30
0.0
 11
167.1307595656876
 21
166.3853991268345
 31
0.0
  0
LINE
  5
10D
330
17
100
AcDbEntity
  8
4
100
AcDbLine
 10
167.1307595656876
 20
166.3853991268345
 30
0.0
 11
167.1307595656876
 21
139.3853991268345
 31
0.0
  0
LINE
  5
10E
330
17
100
AcDbEntity
  8
4
100
AcDbLine
 10
166.1307595656876
 20
169.3853991268345
 30
0.0
 11
166.1307595656876
 21
140.3853991268345
 31
0.0
  0
LINE
  5
10F
330
17
100
AcDbEntity
  8
4
100
AcDbLine
 10
167.1307595656876
 20
139.3853991268345
 30
0.0
 11
166.1307595656876
 21
140.3853991268345
 31
0.0
  0
LINE
  5
111
330
17
100
AcDbEntity
  8
4
100
AcDbLine
 10
166.1307595656876
 20
165.3853991268345
 30
0.0
 11
167.1307595656876
 21
166.3853991268345
 31
0.0
  0
LINE
  5
114
330
17
100
AcDbEntity
  8
4
100
AcDbLine
 10
239.1307595656875
 20
200.8853991268345
 30
0.0
 11
239.1307595656875
 21
104.8853991268345
 31
0.0
  0
LINE
  5
115
330
17
100
AcDbEntity
  8
4
100
AcDbLine
 10
226.1307595656876
 20
170.3853991268345
 30
0.0
 11
226.1307595656876
 21
135.3853991268345
 31
0.0
  0
LINE
  5
116
330
17
100
AcDbEntity
  8
4
100
AcDbLine
 10
238.1307595656875
 20
188.8853991268345
 30
0.0
 11
238.1307595656875
 21
116.8853991268345
 31
0.0
  0
LINE
  5
117
330
17
100
AcDbEntity
  8
4
100
AcDbLine
 10
238.1307595656875
 20
135.3853991268345
 30
0.0
 11
226.1307595656876
 21
135.3853991268345
 31
0.0
  0
LINE
  5
118
330
17
100
AcDbEntity
  8
4
100
AcDbLine
 10
239.1307595656875
 20
116.8853991268345
 30
0.0
 11
238.1307595656875
 21
116.8853991268345
 31
0.0
  0
ARC
  5
119
330
17
100
AcDbEntity
  8
4
100
AcDbCircle
 10
246.1307595656875
 20
101.8853991268345
 30
0.0
 40
3.0
100
AcDbArc
 50
0.0
 51
90.0
  0
LINE
  5
11A
330
17
100
AcDbEntity
  8
4
100
AcDbLine
 10
238.1307595656875
 20
170.3853991268345
 30
0.0
 11
226.1307595656876
 21
170.3853991268345
 31
0.0
  0
LINE
  5
11B
330
17
100
AcDbEntity
  8
4
100
AcDbLine
 10
221.1307595656876
 20
169.3853991268345
 30
0.0
 11
221.1307595656876
 21
166.3853991268345
 31
0.0
  0
LINE
  5
11C
330
17
100
AcDbEntity
  8
4
100
AcDbLine
 10
239.1307595656875
 20
188.8853991268345
 30
0.0
 11
238.1307595656875
 21
188.8853991268345
 31
0.0
  0
LINE
  5
11D
330
17
100
AcDbEntity
  8
4
100
AcDbLine
 10
273.4386195656875
 20
200.8853991268345
 30
0.0
 11
239.1307595656875
 21
200.8853991268345
 31
0.0
  0
LINE
  5
11E
330
17
100
AcDbEntity
  8
4
100
AcDbLine
 10
239.1307595656875
 20
196.9681631268345
 30
0.0
 11
274.9532675656876
 21
196.9681631268345
 31
0.0
  0
LINE
  5
11F
330
17
100
AcDbEntity
  8
4
100
AcDbLine
 10
249.1307595656875
 20
203.8853991268345
 30
0.0
 11
249.1307595656875
 21
268.8851551268347
 31
0.0
  0
ARC
  5
121
330
17
100
AcDbEntity
  8
4
100
AcDbCircle
 10
246.1307595656875
 20
203.8853991268345
 30
0.0
 40
3.0
100
AcDbArc
 50
270.0008590000004
 51
0.0
  0
ARC
  5
122
330
17
100
AcDbEntity
  8
4
100
AcDbCircle
 10
275.6007275656875
 20
440.2972631268347
 30
0.0
 40
5.0
100
AcDbArc
 50
104.9692640000005
 51
165.7217770000025
  0
LINE
  5
123
330
17
100
AcDbEntity
  8
4
100
AcDbLine
 10
312.6307595656875
 20
469.5287111268347
 30
0.0
 11
337.6307595656876
 21
469.5287111268347
 31
0.0
  0
LINE
  5
124
330
17
100
AcDbEntity
  8
4
100
AcDbLine
 10
312.6307595656875
 20
465.5287111268347
 30
0.0
 11
337.6307595656876
 21
465.5287111268347
 31
0.0
  0
LINE
  5
125
330
17
100
AcDbEntity
  8
4
100
AcDbLine
 10
312.6307595656875
 20
463.5287111268347
 30
0.0
 11
337.6307595656876
 21
463.5287111268347
 31
0.0
  0
LINE
  5
126
330
17
100
AcDbEntity
  8
4
100
AcDbLine
 10
318.8807595656875
 20
465.5287111268347
 30
0.0
 11
318.8807595656875
 21
469.5287111268347
 31
0.0
  0
LINE
  5
127
330
17
100
AcDbEntity
  8
4
100
AcDbLine
 10
313.6307595656875
 20
462.0287111268347
 30
0.0
 11
313.6307595656875
 21
463.5287111268347
 31
0.0
  0
LINE
  5
128
330
17
100
AcDbEntity
  8
4
100
AcDbLine
 10
306.1307595656875
 20
452.8436511268344
 30
0.0
 11
306.1307595656875
 21
462.0287111268347
 31
0.0
  0
LINE
  5
129
330
17
100
AcDbEntity
  8
4
100
AcDbLine
 10
312.6307595656875
 20
463.5287111268347
 30
0.0
 11
312.6307595656875
 21
469.5287111268347
 31
0.0
  0
LINE
  5
12A
330
17
100
AcDbEntity
  8
4
100
AcDbLine
 10
331.3807595656876
 20
465.5287111268347
 30
0.0
 11
331.3807595656876
 21
469.5287111268347
 31
0.0
  0
LINE
  5
12B
330
17
100
AcDbEntity
  8
4
100
AcDbLine
 10
336.6307595656876
 20
462.0287111268347
 30
0.0
 11
336.6307595656876
 21
463.5287111268347
 31
0.0
  0
LINE
  5
12C
330
17
100
AcDbEntity
  8
4
100
AcDbLine
 10
337.6307595656876
 20
469.5287111268347
 30
0.0
 11
337.6307595656876
 21
463.5287111268347
 31
0.0
  0
LINE
  5
134
330
17
100
AcDbEntity
  8
4
100
AcDbLine
 10
467.6307595656876
 20
470.8853991268345
 30
0.0
 11
467.6307595656876
 21
479.8853991268345
 31
0.0
  0
LINE
  5
135
330
17
100
AcDbEntity
  8
4
100
AcDbLine
 10
442.6307595656876
 20
470.8853991268345
 30
0.0
 11
442.6307595656876
 21
479.8853991268345
 31
0.0
  0
LINE
  5
137
330
17
100
AcDbEntity
  8
4
100
AcDbLine
 10
558.7647915656876
 20
104.8853991268345
 30
0.0
 11
671.1307595656876
 21
104.8853991268345
 31
0.0
  0
LINE
  5
138
330
17
100
AcDbEntity
  8
4
100
AcDbLine
 10
564.7186475656877
 20
108.8026351268345
 30
0.0
 11
671.1307595656876
 21
108.8026351268345
 31
0.0
  0
LINE
  5
13B
330
17
100
AcDbEntity
  8
L-CENTER
100
AcDbLine
 10
531.1307595656876
 20
345.7852237220275
 30
0.0
 11
531.1307595656876
 21
205.9855745316415
 31
0.0
  0
CIRCLE
  5
13C
330
17
100
AcDbEntity
  8
4
100
AcDbCircle
 10
531.1307595656876
 20
275.8853991268345
 30
0.0
 40
36.0
  0
CIRCLE
  5
13D
330
17
100
AcDbEntity
  8
4
100
AcDbCircle
 10
398.5079555656876
 20
265.8853991268345
 30
0.0
 40
45.0
  0
CIRCLE
  5
13E
330
17
100
AcDbEntity
  8
4
100
AcDbCircle
 10
531.1307595656876
 20
275.8853991268345
 30
0.0
 40
57.5
  0
LINE
  5
13F
330
17
100
AcDbEntity
  8
L-CENTER
100
AcDbLine
 10
398.5079555656876
 20
183.8761907657442
 30
0.0
 11
398.5079555656876
 21
347.8946074879248
 31
0.0
  0
LINE
  5
140
330
17
100
AcDbEntity
  8
L-CENTER
100
AcDbLine
 10
601.0305841608806
 20
275.8853991268345
 30
0.0
 11
461.2309349704947
 21
275.8853991268345
 31
0.0
  0
LINE
  5
141
330
17
100
AcDbEntity
  8
L-CENTER
100
AcDbLine
 10
485.1141555656875
 20
174.8853991268345
 30
0.0
 11
425.1473595656876
 21
174.8853991268345
 31
0.0
  0
ARC
  5
142
330
17
100
AcDbEntity
  8
4
100
AcDbCircle
 10
455.1307595656876
 20
623.8853991268345
 30
0.0
 40
449.999992
100
AcDbArc
 50
272.2915089999999
 51
290.316646
  0
CIRCLE
  5
143
330
17
100
AcDbEntity
  8
4
100
AcDbCircle
 10
455.1307595656876
 20
174.8853991268345
 30
0.0
 40
18.0
  0
ARC
  5
144
330
17
100
AcDbEntity
  8
4
100
AcDbCircle
 10
455.1307595656876
 20
90.8853991268345
 30
0.0
 40
18.0
100
AcDbArc
 50
32.82914800000012
 51
147.1708540000002
  0
ARC
  5
145
330
17
100
AcDbEntity
  8
4
100
AcDbCircle
 10
438.3248475656876
 20
101.7281711268345
 30
0.0
 40
2.000028
100
AcDbArc
 50
264.2622699999977
 51
327.1731760000044
  0
ARC
  5
146
330
17
100
AcDbEntity
  8
4
100
AcDbCircle
 10
471.9366675656875
 20
101.7281711268345
 30
0.0
 40
2.000028
100
AcDbArc
 50
212.8268239999956
 51
275.7377300000023
  0
LINE
  5
147
330
17
100
AcDbEntity
  8
4
100
AcDbLine
 10
442.1402795656877
 20
167.3853991268345
 30
0.0
 11
455.1307595656876
 21
159.8853991268345
 31
0.0
  0
LINE
  5
148
330
17
100
AcDbEntity
  8
4
100
AcDbLine
 10
455.1307595656876
 20
189.8853991268345
 30
0.0
 11
442.1402795656877
 21
182.3853991268345
 31
0.0
  0
CIRCLE
  5
149
330
17
100
AcDbEntity
  8
4
100
AcDbCircle
 10
455.1307595656876
 20
174.8853991268345
 30
0.0
 40
15.0
  0
LINE
  5
14A
330
17
100
AcDbEntity
  8
4
100
AcDbLine
 10
442.1402795656877
 20
167.3853991268345
 30
0.0
 11
442.1402795656877
 21
182.3853991268345
 31
0.0
  0
LINE
  5
14B
330
17
100
AcDbEntity
  8
4
100
AcDbLine
 10
468.1209915656875
 20
167.3851551268347
 30
0.0
 11
468.1209915656875
 21
182.3853991268345
 31
0.0
  0
LINE
  5
14C
330
17
100
AcDbEntity
  8
4
100
AcDbLine
 10
455.1307595656876
 20
159.8853991268345
 30
0.0
 11
468.1209915656875
 21
167.3851551268347
 31
0.0
  0
LINE
  5
14D
330
17
100
AcDbEntity
  8
4
100
AcDbLine
 10
468.1209915656875
 20
182.3853991268345
 30
0.0
 11
455.1307595656876
 21
189.8853991268345
 31
0.0
  0
LINE
  5
151
330
17
100
AcDbEntity
  8
4
100
AcDbLine
 10
344.1307595656876
 20
460.0287111268347
 30
0.0
 11
344.1307595656876
 21
462.0287111268347
 31
0.0
  0
LINE
  5
152
330
17
100
AcDbEntity
  8
4
100
AcDbLine
 10
436.1307595656876
 20
470.8853991268345
 30
0.0
 11
474.1307595656876
 21
470.8853991268345
 31
0.0
  0
LINE
  5
153
330
17
100
AcDbEntity
  8
4
100
AcDbLine
 10
436.1307595656876
 20
468.6275871268342
 30
0.0
 11
436.1307595656876
 21
470.8853991268345
 31
0.0
  0
LINE
  5
154
330
17
100
AcDbEntity
  8
4
100
AcDbLine
 10
474.1307595656876
 20
468.6275871268342
 30
0.0
 11
474.1307595656876
 21
470.8853991268345
 31
0.0
  0
ARC
  5
156
330
17
100
AcDbEntity
  8
4
100
AcDbCircle
 10
-38.8690884343124
 20
268.8851551268347
 30
0.0
 40
700.0000679999999
100
AcDbArc
 50
0.0000200045560318
 51
14.27852100000001
  0
LINE
  5
15A
330
17
100
AcDbEntity
  8
4
100
AcDbLine
 10
671.1307595656874
 20
200.8853991268345
 30
0.0
 11
671.1307595656876
 21
104.8853991268345
 31
0.0
  0
LINE
  5
15F
330
17
100
AcDbEntity
  8
4
100
AcDbLine
 10
672.1307595656876
 20
188.8853991268345
 30
0.0
 11
672.1307595656876
 21
116.8853991268345
 31
0.0
  0
LINE
  5
160
330
17
100
AcDbEntity
  8
4
100
AcDbLine
 10
671.1307595656876
 20
116.8853991268345
 30
0.0
 11
672.1307595656876
 21
116.8853991268345
 31
0.0
  0
ARC
  5
161
330
17
100
AcDbEntity
  8
4
100
AcDbCircle
 10
664.1307595656876
 20
101.8853991268345
 30
0.0
 40
3.0
100
AcDbArc
 50
90.0
 51
180.0
  0
LINE
  5
165
330
17
100
AcDbEntity
  8
4
100
AcDbLine
 10
671.1307595656876
 20
188.8853991268345
 30
0.0
 11
672.1307595656876
 21
188.8853991268345
 31
0.0
  0
LINE
  5
16B
330
17
100
AcDbEntity
  8
4
100
AcDbLine
 10
661.1307595656876
 20
203.8853991268345
 30
0.0
 11
661.1307595656876
 21
268.8851551268347
 31
0.0
  0
LINE
  5
16C
330
17
100
AcDbEntity
  8
4
100
AcDbLine
 10
636.8228955656875
 20
200.8853991268345
 30
0.0
 11
671.1307595656874
 21
200.8853991268345
 31
0.0
  0
LINE
  5
16D
330
17
100
AcDbEntity
  8
4
100
AcDbLine
 10
635.3082475656875
 20
196.9681631268345
 30
0.0
 11
671.1307595656876
 21
196.9681631268345
 31
0.0
  0
ARC
  5
16F
330
17
100
AcDbEntity
  8
4
100
AcDbCircle
 10
664.1307595656876
 20
203.8853991268345
 30
0.0
 40
3.0
100
AcDbArc
 50
180.0
 51
270.0
  0
ARC
  5
179
330
17
100
AcDbEntity
  8
4
100
AcDbCircle
 10
634.6610315656876
 20
440.2972631268347
 30
0.0
 40
4.999956
100
AcDbArc
 50
14.27847999999762
 51
75.03073599999972
  0
ARC
  5
17E
330
17
100
AcDbEntity
  8
4
100
AcDbCircle
 10
455.1307595656876
 20
516.8853991268345
 30
0.0
 40
5.0
100
AcDbArc
 50
0.0
 51
180.0
  0
LINE
  5
17F
330
17
100
AcDbEntity
  8
L-CENTER
100
AcDbLine
 10
466.4460621723221
 20
496.8853991268345
 30
0.0
 11
443.8154569590532
 21
496.8853991268345
 31
0.0
  0
LINE
  5
180
330
17
100
AcDbEntity
  8
4
100
AcDbLine
 10
450.1307595656876
 20
481.0853511268344
 30
0.0
 11
442.6307595656876
 21
479.8853991268345
 31
0.0
  0
LINE
  5
181
330
17
100
AcDbEntity
  8
4
100
AcDbLine
 10
442.6307595656876
 20
479.8853991268345
 30
0.0
 11
450.1307595656876
 21
479.8853991268345
 31
0.0
  0
LINE
  5
182
330
17
100
AcDbEntity
  8
4
100
AcDbLine
 10
460.1307595656876
 20
474.4415511268346
 30
0.0
 11
460.1307595656876
 21
516.8853991268345
 31
0.0
  0
LINE
  5
183
330
17
100
AcDbEntity
  8
4
100
AcDbLine
 10
450.1307595656876
 20
474.4415511268346
 30
0.0
 11
450.1307595656876
 21
516.8853991268345
 31
0.0
  0
LINE
  5
184
330
17
100
AcDbEntity
  8
4
100
AcDbLine
 10
460.1307595656876
 20
481.0853511268344
 30
0.0
 11
467.6307595656876
 21
479.8853991268345
 31
0.0
  0
LINE
  5
185
330
17
100
AcDbEntity
  8
4
100
AcDbLine
 10
460.1307595656876
 20
479.8853991268345
 30
0.0
 11
467.6307595656876
 21
479.8853991268345
 31
0.0
  0
ARC
  5
194
330
17
100
AcDbEntity
  8
4
100
AcDbCircle
 10
1114.18890687313
 20
102.8853991268345
 30
0.0
 40
15.0
100
AcDbArc
 50
180.0
 51
270.000932
  0
ARC
  5
195
330
17
100
AcDbEntity
  8
4
100
AcDbCircle
 10
961.1889068731298
 20
102.8853991268345
 30
0.0
 40
15.0
100
AcDbArc
 50
270.000932
 51
0.0
  0
LINE
  5
196
330
17
100
AcDbEntity
  8
4
100
AcDbLine
 10
962.1889068731298
 20
125.5404271268346
 30
0.0
 11
962.1889068731298
 21
87.8853991268345
 31
0.0
  0
LINE
  5
197
330
17
100
AcDbEntity
  8
4
100
AcDbLine
 10
1117.58890687313
 20
460.8853991268345
 30
0.0
 11
1117.58890687313
 21
87.8853991268345
 31
0.0
  0
LINE
  5
198
330
17
100
AcDbEntity
  8
4
100
AcDbLine
 10
1101.18890687313
 20
462.8853991268345
 30
0.0
 11
1101.18890687313
 21
95.40199912683443
 31
0.0
  0
LINE
  5
199
330
17
100
AcDbEntity
  8
L-CENTER
100
AcDbLine
 10
1008.68890687313
 20
98.98427512683452
 30
0.0
 11
1008.68890687313
 21
206.7865231268345
 31
0.0
  0
LINE
  5
19A
330
17
100
AcDbEntity
  8
L-CENTER
100
AcDbLine
 10
1037.68890687313
 20
532.3439271268346
 30
0.0
 11
1037.68890687313
 21
54.40297512683446
 31
0.0
  0
LINE
  5
19D
330
17
100
AcDbEntity
  8
4
100
AcDbLine
 10
922.6889068731298
 20
62.8853991268345
 30
0.0
 11
1152.68890687313
 21
62.8853991268345
 31
0.0
  0
LINE
  5
19E
330
17
100
AcDbEntity
  8
4
100
AcDbLine
 10
925.6889068731298
 20
87.8853991268345
 30
0.0
 11
1149.68890687313
 21
87.8853991268345
 31
0.0
  0
LINE
  5
1A9
330
17
100
AcDbEntity
  8
L-CENTER
100
AcDbLine
 10
942.6889068731298
 20
99.8853991268345
 30
0.0
 11
942.6889068731298
 21
50.8853991268345
 31
0.0
  0
LINE
  5
1AA
330
17
100
AcDbEntity
  8
4
100
AcDbLine
 10
922.6889068731298
 20
62.8853991268345
 30
0.0
 11
922.6889068731298
 21
84.8853991268345
 31
0.0
  0
ARC
  5
1AB
330
17
100
AcDbEntity
  8
4
100
AcDbCircle
 10
925.6889068731298
 20
84.8853991268345
 30
0.0
 40
3.0
100
AcDbArc
 50
90.0
 51
180.0
  0
ARC
  5
1AF
330
17
100
AcDbEntity
  8
4
100
AcDbCircle
 10
1111.19085887313
 20
75.9039511268345
 30
0.0
 40
3.397468
100
AcDbArc
 50
297.3199919999981
 51
35.67744299999961
  0
ARC
  5
1B0
330
17
100
AcDbEntity
  8
4
100
AcDbCircle
 10
1111.19085887313
 20
75.9039511268345
 30
0.0
 40
3.397468
100
AcDbArc
 50
297.3199919999981
 51
35.67744299999961
  0
LINE
  5
1B1
330
17
100
AcDbEntity
  8
4
100
AcDbLine
 10
1123.68890687313
 20
87.8853991268345
 30
0.0
 11
1123.68890687313
 21
62.8853991268345
 31
0.0
  0
ARC
  5
1B2
330
17
100
AcDbEntity
  8
4
100
AcDbCircle
 10
1108.78998287313
 20
65.9039511268345
 30
0.0
 40
3.397468
100
AcDbArc
 50
297.3199919999981
 51
35.67744299999961
  0
ARC
  5
1B3
330
17
100
AcDbEntity
  8
4
100
AcDbCircle
 10
1108.78998287313
 20
65.9039511268345
 30
0.0
 40
3.397468
100
AcDbArc
 50
297.3199919999981
 51
35.67744299999961
  0
ARC
  5
1B4
330
17
100
AcDbEntity
  8
4
100
AcDbCircle
 10
1114.30951087313
 20
69.86684312683451
 30
0.0
 40
3.397468
100
AcDbArc
 50
117.3199849999992
 51
215.6774389999981
  0
ARC
  5
1B5
330
17
100
AcDbEntity
  8
4
100
AcDbCircle
 10
1114.30951087313
 20
69.86684312683451
 30
0.0
 40
3.397468
100
AcDbArc
 50
117.3199849999992
 51
215.6774389999981
  0
ARC
  5
1B6
330
17
100
AcDbEntity
  8
4
100
AcDbCircle
 10
1116.71039087313
 20
79.86684312683451
 30
0.0
 40
3.397468
100
AcDbArc
 50
117.3199849999992
 51
215.6774389999981
  0
ARC
  5
1B7
330
17
100
AcDbEntity
  8
4
100
AcDbCircle
 10
1116.71039087313
 20
79.86684312683451
 30
0.0
 40
3.397468
100
AcDbArc
 50
117.3199849999992
 51
215.6774389999981
  0
ARC
  5
1B8
330
17
100
AcDbEntity
  8
4
100
AcDbCircle
 10
1113.59173887313
 20
85.9039511268345
 30
0.0
 40
3.397468
100
AcDbArc
 50
297.3199919999981
 51
35.67744299999961
  0
ARC
  5
1B9
330
17
100
AcDbEntity
  8
4
100
AcDbCircle
 10
1113.59173887313
 20
85.9039511268345
 30
0.0
 40
3.397468
100
AcDbArc
 50
297.3199919999981
 51
35.67744299999961
  0
TEXT
  5
1BD
330
17
100
AcDbEntity
  8
3
100
AcDbText
 10
715.4007702593944
 20
18.83686680777691
 30
0.0
 40
11.90050216115753
  1
LD5-07
  7
KANJI
100
AcDbText
  0
LINE
  5
1C0
330
17
100
AcDbEntity
  8
L-CENTER
100
AcDbLine
 10
1132.68890687313
 20
99.8853991268345
 30
0.0
 11
1132.68890687313
 21
50.8853991268345
 31
0.0
  0
LINE
  5
1C3
330
17
100
AcDbEntity
  8
4
100
AcDbLine
 10
1152.68890687313
 20
62.8853991268345
 30
0.0
 11
1152.68890687313
 21
84.8853991268345
 31
0.0
  0
LINE
  5
1C4
330
17
100
AcDbEntity
  8
4
100
AcDbLine
 10
1141.68890687313
 20
87.8853991268345
 30
0.0
 11
1141.68890687313
 21
62.8853991268345
 31
0.0
  0
ARC
  5
1C6
330
17
100
AcDbEntity
  8
4
100
AcDbCircle
 10
1149.68890687313
 20
84.8853991268345
 30
0.0
 40
3.0
100
AcDbArc
 50
0.0
 51
90.0
  0
LINE
  5
1CC
330
17
100
AcDbEntity
  8
4
100
AcDbLine
 10
1050.18890687313
 20
470.8853991268345
 30
0.0
 11
1050.18890687313
 21
479.8853991268345
 31
0.0
  0
LINE
  5
1CD
330
17
100
AcDbEntity
  8
4
100
AcDbLine
 10
1025.18890687313
 20
470.8853991268345
 30
0.0
 11
1025.18890687313
 21
479.8853991268345
 31
0.0
  0
LINE
  5
1CE
330
17
100
AcDbEntity
  8
4
100
AcDbLine
 10
1097.18890687313
 20
468.8853991268345
 30
0.0
 11
978.1889068731298
 21
468.8853991268345
 31
0.0
  0
ARC
  5
1CF
330
17
100
AcDbEntity
  8
4
100
AcDbCircle
 10
1008.68890687313
 20
-49.1146008731655
 30
0.0
 40
250.000028
100
AcDbArc
 50
80.32980699999999
 51
99.67024800000002
  0
LINE
  5
1D0
330
17
100
AcDbEntity
  8
L-CENTER
100
AcDbLine
 10
1260.656691876988
 20
265.8853991268345
 30
0.0
 11
814.7211218692717
 21
265.8853991268345
 31
0.0
  0
ARC
  5
1D1
330
17
100
AcDbEntity
  8
4
100
AcDbCircle
 10
1008.68890687313
 20
354.8853991268345
 30
0.0
 40
249.999968
100
AcDbArc
 50
260.330203
 51
279.670818
  0
LINE
  5
1D2
330
17
100
AcDbEntity
  8
L-CENTER
100
AcDbLine
 10
1062.59003087313
 20
152.8853991268345
 30
0.0
 11
954.7877828731298
 21
152.8853991268345
 31
0.0
  0
CIRCLE
  5
1D3
330
17
100
AcDbEntity
  8
4
100
AcDbCircle
 10
1008.68890687313
 20
152.8853991268345
 30
0.0
 40
36.0
  0
LINE
  5
1D4
330
17
100
AcDbEntity
  8
4
100
AcDbLine
 10
942.6889068731298
 20
195.8853991268345
 30
0.0
 11
942.6889068731298
 21
335.8853991268345
 31
0.0
  0
LINE
  5
1D5
330
17
100
AcDbEntity
  8
4
100
AcDbLine
 10
941.6889068731298
 20
220.8853991268345
 30
0.0
 11
941.6889068731298
 21
311.8853991268345
 31
0.0
  0
LINE
  5
1D6
330
17
100
AcDbEntity
  8
4
100
AcDbLine
 10
976.1889068731298
 20
466.8853991268345
 30
0.0
 11
976.1889068731298
 21
201.3824711268346
 31
0.0
  0
ARC
  5
1D7
330
17
100
AcDbEntity
  8
4
100
AcDbCircle
 10
3153.61078287313
 20
268.8853991268345
 30
0.0
 40
2200.000028
100
AcDbArc
 50
175.5685409999999
 51
184.4320970000001
  0
LINE
  5
1D8
330
17
100
AcDbEntity
  8
4
100
AcDbLine
 10
960.1889068731298
 20
438.8853991268345
 30
0.0
 11
960.1889068731298
 21
98.8853991268345
 31
0.0
  0
LINE
  5
1D9
330
17
100
AcDbEntity
  8
4
100
AcDbLine
 10
962.1889068731298
 20
460.8853991268345
 30
0.0
 11
962.1889068731298
 21
180.2303671268344
 31
0.0
  0
ARC
  5
1E2
330
17
100
AcDbEntity
  8
4
100
AcDbCircle
 10
1210.68890687313
 20
152.8853991268345
 30
0.0
 40
250.000008
100
AcDbArc
 50
170.330203
 51
189.6705879999998
  0
LINE
  5
1E3
330
17
100
AcDbEntity
  8
4
100
AcDbLine
 10
952.6889068731298
 20
192.8853991268345
 30
0.0
 11
952.6889068731298
 21
156.8853991268345
 31
0.0
  0
LINE
  5
1E4
330
17
100
AcDbEntity
  8
4
100
AcDbLine
 10
960.1889068731298
 20
98.8853991268345
 30
0.0
 11
962.1889068731298
 21
98.8853991268345
 31
0.0
  0
ARC
  5
1E5
330
17
100
AcDbEntity
  8
4
100
AcDbCircle
 10
967.1986748731297
 20
111.3951631268344
 30
0.0
 40
2.99994
100
AcDbArc
 50
189.6746519999985
 51
260.325326000002
  0
ARC
  5
1E6
330
17
100
AcDbEntity
  8
4
100
AcDbCircle
 10
973.1889068731298
 20
104.3883271268344
 30
0.0
 40
2.999944
100
AcDbArc
 50
0.0
 51
81.93453100000163
  0
LINE
  5
1E7
330
17
100
AcDbEntity
  8
4
100
AcDbLine
 10
976.1889068731298
 20
104.3883271268344
 30
0.0
 11
976.1889068731298
 21
102.8853991268345
 31
0.0
  0
LINE
  5
1E8
330
17
100
AcDbEntity
  8
L-CENTER
100
AcDbLine
 10
967.0368852317852
 20
174.8853991268345
 30
0.0
 11
941.2126508731299
 21
174.8853991268345
 31
0.0
  0
ARC
  5
1E9
330
17
100
AcDbEntity
  8
4
100
AcDbCircle
 10
954.5636628731297
 20
154.8853991268345
 30
0.0
 40
1.999996
100
AcDbArc
 50
2.966820000001987
 51
90.0
  0
LINE
  5
1EA
330
17
100
AcDbEntity
  8
4
100
AcDbLine
 10
952.6889068731298
 20
160.8853991268345
 30
0.0
 11
952.6889068731298
 21
188.8853991268345
 31
0.0
  0
LINE
  5
1EB
330
17
100
AcDbEntity
  8
4
100
AcDbLine
 10
951.1889068731298
 20
159.8853991268345
 30
0.0
 11
951.1889068731298
 21
189.8853991268345
 31
0.0
  0
LINE
  5
1EC
330
17
100
AcDbEntity
  8
4
100
AcDbLine
 10
949.1889068731298
 20
159.8853991268345
 30
0.0
 11
949.1889068731298
 21
189.8853991268345
 31
0.0
  0
LINE
  5
1ED
330
17
100
AcDbEntity
  8
4
100
AcDbLine
 10
944.1889068731298
 20
159.8853991268345
 30
0.0
 11
944.1889068731298
 21
189.8853991268345
 31
0.0
  0
LINE
  5
1EE
330
17
100
AcDbEntity
  8
4
100
AcDbLine
 10
949.1889068731298
 20
167.3851551268347
 30
0.0
 11
944.1889068731298
 21
167.3851551268347
 31
0.0
  0
LINE
  5
1EF
330
17
100
AcDbEntity
  8
4
100
AcDbLine
 10
954.5636628731297
 20
156.8853991268345
 30
0.0
 11
952.6889068731298
 21
156.8853991268345
 31
0.0
  0
LINE
  5
1F0
330
17
100
AcDbEntity
  8
4
100
AcDbLine
 10
951.1889068731298
 20
160.8853991268345
 30
0.0
 11
952.6889068731298
 21
160.8853991268345
 31
0.0
  0
LINE
  5
1F1
330
17
100
AcDbEntity
  8
4
100
AcDbLine
 10
951.1889068731298
 20
159.8853991268345
 30
0.0
 11
944.1889068731298
 21
159.8853991268345
 31
0.0
  0
LINE
  5
1F2
330
17
100
AcDbEntity
  8
4
100
AcDbLine
 10
951.1889068731298
 20
188.8853991268345
 30
0.0
 11
952.6889068731298
 21
188.8853991268345
 31
0.0
  0
LINE
  5
1F3
330
17
100
AcDbEntity
  8
4
100
AcDbLine
 10
944.1889068731298
 20
189.8853991268345
 30
0.0
 11
951.1889068731298
 21
189.8853991268345
 31
0.0
  0
LINE
  5
1F4
330
17
100
AcDbEntity
  8
4
100
AcDbLine
 10
949.1889068731298
 20
182.3853991268345
 30
0.0
 11
944.1889068731298
 21
182.3853991268345
 31
0.0
  0
ARC
  5
1F5
330
17
100
AcDbEntity
  8
4
100
AcDbCircle
 10
949.3092668731297
 20
213.3853991268345
 30
0.0
 40
5.00006
100
AcDbArc
 50
1.44090099999927
 51
90.0
  0
ARC
  5
1F6
330
17
100
AcDbEntity
  8
4
100
AcDbCircle
 10
952.8544348731298
 20
194.8853991268345
 30
0.0
 40
1.999952
100
AcDbArc
 50
270.0
 51
1.923812999997458
  0
LINE
  5
1F7
330
17
100
AcDbEntity
  8
4
100
AcDbLine
 10
952.8544348731298
 20
192.8853991268345
 30
0.0
 11
952.6889068731298
 21
192.8853991268345
 31
0.0
  0
ARC
  5
1F8
330
17
100
AcDbEntity
  8
4
100
AcDbCircle
 10
949.9909108731299
 20
190.8853991268345
 30
0.0
 40
5.000016
100
AcDbArc
 50
31.15663500000237
 51
90.0
  0
LINE
  5
1F9
330
17
100
AcDbEntity
  8
4
100
AcDbLine
 10
949.9909108731299
 20
195.8853991268345
 30
0.0
 11
942.6889068731298
 21
195.8853991268345
 31
0.0
  0
LINE
  5
1FA
330
17
100
AcDbEntity
  8
4
100
AcDbLine
 10
949.3092668731297
 20
218.3853991268345
 30
0.0
 11
942.6889068731298
 21
218.3853991268345
 31
0.0
  0
LINE
  5
1FB
330
17
100
AcDbEntity
  8
4
100
AcDbLine
 10
941.6889068731298
 20
220.8853991268345
 30
0.0
 11
942.6889068731298
 21
220.8853991268345
 31
0.0
  0
ARC
  5
1FC
330
17
100
AcDbEntity
  8
4
100
AcDbCircle
 10
967.1986748731297
 20
194.3756351268346
 30
0.0
 40
2.99994
100
AcDbArc
 50
99.67467399999803
 51
170.3253480000015
  0
ARC
  5
1FD
330
17
100
AcDbEntity
  8
4
100
AcDbCircle
 10
973.1889068731298
 20
201.3824711268346
 30
0.0
 40
2.999944
100
AcDbArc
 50
278.0654689999984
 51
0.0
  0
LINE
  5
1FE
330
17
100
AcDbEntity
  8
4
100
AcDbLine
 10
941.6889068731298
 20
239.8853991268345
 30
0.0
 11
942.6889068731298
 21
239.8853991268345
 31
0.0
  0
LINE
  5
200
330
17
100
AcDbEntity
  8
4
100
AcDbLine
 10
941.6889068731298
 20
310.8853991268345
 30
0.0
 11
942.6889068731298
 21
310.8853991268345
 31
0.0
  0
LINE
  5
201
330
17
100
AcDbEntity
  8
4
100
AcDbLine
 10
941.6889068731298
 20
311.8853991268345
 30
0.0
 11
942.6889068731298
 21
311.8853991268345
 31
0.0
  0
ARC
  5
202
330
17
100
AcDbEntity
  8
4
100
AcDbCircle
 10
949.7865628731297
 20
340.8853991268345
 30
0.0
 40
4.999992
100
AcDbArc
 50
270.0
 51
358.1280370000008
  0
ARC
  5
203
330
17
100
AcDbEntity
  8
4
100
AcDbCircle
 10
949.7062428731297
 20
338.3853991268345
 30
0.0
 40
5.000024
100
AcDbArc
 50
270.0
 51
358.1924359999981
  0
LINE
  5
204
330
17
100
AcDbEntity
  8
4
100
AcDbLine
 10
949.7865628731297
 20
335.8853991268345
 30
0.0
 11
942.6889068731298
 21
335.8853991268345
 31
0.0
  0
LINE
  5
205
330
17
100
AcDbEntity
  8
4
100
AcDbLine
 10
949.7062428731297
 20
333.3853991268345
 30
0.0
 11
942.6889068731298
 21
333.3853991268345
 31
0.0
  0
LINE
  5
206
330
17
100
AcDbEntity
  8
4
100
AcDbLine
 10
960.1889068731298
 20
438.8853991268345
 30
0.0
 11
962.1889068731298
 21
438.8853991268345
 31
0.0
  0
LINE
  5
207
330
17
100
AcDbEntity
  8
4
100
AcDbLine
 10
964.1889068731298
 20
462.8853991268345
 30
0.0
 11
976.1889068731298
 21
462.8853991268345
 31
0.0
  0
ARC
  5
208
330
17
100
AcDbEntity
  8
4
100
AcDbCircle
 10
964.1889068731298
 20
460.8853991268345
 30
0.0
 40
2.0
100
AcDbArc
 50
90.0
 51
180.0
  0
ARC
  5
209
330
17
100
AcDbEntity
  8
4
100
AcDbCircle
 10
978.1889068731298
 20
466.8853991268345
 30
0.0
 40
2.0
100
AcDbArc
 50
90.0
 51
180.0
  0
LINE
  5
20B
330
17
100
AcDbEntity
  8
4
100
AcDbLine
 10
1252.68890687313
 20
289.8853991268345
 30
0.0
 11
1252.68890687313
 21
241.8853991268345
 31
0.0
  0
LINE
  5
20C
330
17
100
AcDbEntity
  8
4
100
AcDbLine
 10
1253.68890687313
 20
293.3853991268345
 30
0.0
 11
1253.68890687313
 21
242.8853991268345
 31
0.0
  0
LINE
  5
20D
330
17
100
AcDbEntity
  8
4
100
AcDbLine
 10
1132.68890687313
 20
195.8853991268345
 30
0.0
 11
1132.68890687313
 21
335.8853991268345
 31
0.0
  0
LINE
  5
20E
330
17
100
AcDbEntity
  8
4
100
AcDbLine
 10
1153.68890687313
 20
290.8853991268345
 30
0.0
 11
1153.68890687313
 21
240.8853991268345
 31
0.0
  0
LINE
  5
20F
330
17
100
AcDbEntity
  8
4
100
AcDbLine
 10
1133.68890687313
 20
220.8853991268345
 30
0.0
 11
1133.68890687313
 21
311.8853991268345
 31
0.0
  0
ARC
  5
210
330
17
100
AcDbEntity
  8
4
100
AcDbCircle
 10
-1073.83296912687
 20
268.8853991268345
 30
0.0
 40
2199.999976
100
AcDbArc
 50
0.1770979999999609
 51
3.897785999999913
  0
LINE
  5
211
330
17
100
AcDbEntity
  8
4
100
AcDbLine
 10
1119.58890687313
 20
275.0853511268344
 30
0.0
 11
1119.58890687313
 21
419.0340791268343
 31
0.0
  0
LINE
  5
212
330
17
100
AcDbEntity
  8
4
100
AcDbLine
 10
1099.18890687313
 20
466.8853991268345
 30
0.0
 11
1099.18890687313
 21
102.8853991268345
 31
0.0
  0
LINE
  5
213
330
17
100
AcDbEntity
  8
4
100
AcDbLine
 10
1130.46854687313
 20
218.3853991268345
 30
0.0
 11
1132.68890687313
 21
218.3853991268345
 31
0.0
  0
LINE
  5
214
330
17
100
AcDbEntity
  8
4
100
AcDbLine
 10
1132.52270687313
 20
218.3853991268345
 30
0.0
 11
1132.68890687313
 21
218.3853991268345
 31
0.0
  0
LINE
  5
215
330
17
100
AcDbEntity
  8
4
100
AcDbLine
 10
1129.78690687313
 20
195.8853991268345
 30
0.0
 11
1132.68890687313
 21
195.8853991268345
 31
0.0
  0
LINE
  5
216
330
17
100
AcDbEntity
  8
L-CENTER
100
AcDbLine
 10
1090.47552687313
 20
109.5367671268345
 30
0.0
 11
1134.49881887313
 21
109.5367671268345
 31
0.0
  0
ARC
  5
217
330
17
100
AcDbEntity
  8
4
100
AcDbCircle
 10
1129.78690687313
 20
190.8853991268345
 30
0.0
 40
4.999976
100
AcDbArc
 50
90.0
 51
177.9740720000001
  0
ARC
  5
218
330
17
100
AcDbEntity
  8
4
100
AcDbCircle
 10
806.6889068731298
 20
152.8853991268345
 30
0.0
 40
249.99998
100
AcDbArc
 50
350.330598
 51
9.670248
  0
ARC
  5
219
330
17
100
AcDbEntity
  8
4
100
AcDbCircle
 10
-1073.83296912687
 20
268.8853991268345
 30
0.0
 40
2200.000088
100
AcDbArc
 50
356.102348
 51
359.6667790000002
  0
LINE
  5
21A
330
17
100
AcDbEntity
  8
4
100
AcDbLine
 10
1119.58890687313
 20
118.7367151268345
 30
0.0
 11
1119.58890687313
 21
256.6854471268346
 31
0.0
  0
ARC
  5
21C
330
17
100
AcDbEntity
  8
4
100
AcDbCircle
 10
1050.17914287313
 20
111.3951631268344
 30
0.0
 40
2.99994
100
AcDbArc
 50
279.674673999998
 51
350.3253480000018
  0
LINE
  5
221
330
17
100
AcDbEntity
  8
4
100
AcDbLine
 10
1120.08866287313
 20
118.7367151268345
 30
0.0
 11
1117.58866287313
 21
118.7367151268345
 31
0.0
  0
LINE
  5
222
330
17
100
AcDbEntity
  8
4
100
AcDbLine
 10
1126.19364287313
 20
119.3368151268344
 30
0.0
 11
1120.08866287313
 21
119.3368151268344
 31
0.0
  0
LINE
  5
223
330
17
100
AcDbEntity
  8
4
100
AcDbLine
 10
1119.58890687313
 20
98.8853991268345
 30
0.0
 11
1117.58890687313
 21
98.8853991268345
 31
0.0
  0
LINE
  5
224
330
17
100
AcDbEntity
  8
4
100
AcDbLine
 10
1117.58890687313
 20
100.3368151268344
 30
0.0
 11
1120.08890687313
 21
100.3368151268344
 31
0.0
  0
LINE
  5
225
330
17
100
AcDbEntity
  8
4
100
AcDbLine
 10
1126.19388687313
 20
99.7367151268345
 30
0.0
 11
1120.08890687313
 21
99.7367151268345
 31
0.0
  0
LINE
  5
226
330
17
100
AcDbEntity
  8
4
100
AcDbLine
 10
1120.08866287313
 20
114.4442351268344
 30
0.0
 11
1126.19364287313
 21
114.4442351268344
 31
0.0
  0
LINE
  5
227
330
17
100
AcDbEntity
  8
4
100
AcDbLine
 10
1120.08890687313
 20
104.6292951268344
 30
0.0
 11
1126.19388687313
 21
104.6292951268344
 31
0.0
  0
ARC
  5
228
330
17
100
AcDbEntity
  8
4
100
AcDbCircle
 10
1113.18534287313
 20
109.5367671268345
 30
0.0
 40
13.90362
100
AcDbArc
 50
339.3323240000001
 51
20.66861300000016
  0
ARC
  5
229
330
17
100
AcDbEntity
  8
4
100
AcDbCircle
 10
1123.29789087313
 20
102.1830071268344
 30
0.0
 40
3.79102
100
AcDbArc
 50
319.814133999999
 51
40.18825600000022
  0
LINE
  5
22A
330
17
100
AcDbEntity
  8
4
100
AcDbLine
 10
1119.58890687313
 20
98.8853991268345
 30
0.0
 11
1119.58890687313
 21
100.3368151268344
 31
0.0
  0
LINE
  5
22B
330
17
100
AcDbEntity
  8
4
100
AcDbLine
 10
1120.08866287313
 20
119.3368151268344
 30
0.0
 11
1120.08890687313
 21
99.7367151268345
 31
0.0
  0
LINE
  5
22C
330
17
100
AcDbEntity
  8
4
100
AcDbLine
 10
1117.58866287313
 20
118.7367151268345
 30
0.0
 11
1117.58890687313
 21
100.3368151268344
 31
0.0
  0
ARC
  5
22D
330
17
100
AcDbEntity
  8
4
100
AcDbCircle
 10
1123.29764687313
 20
116.8905271268345
 30
0.0
 40
3.790928
100
AcDbArc
 50
319.8117330000013
 51
40.18825599999942
  0
LINE
  5
22E
330
17
100
AcDbEntity
  8
4
100
AcDbLine
 10
1127.08866287313
 20
116.8905271268345
 30
0.0
 11
1127.08890687313
 21
102.1830071268344
 31
0.0
  0
ARC
  5
22F
330
17
100
AcDbEntity
  8
4
100
AcDbCircle
 10
1050.17914287313
 20
194.3756351268346
 30
0.0
 40
2.99994
100
AcDbArc
 50
9.67465199999817
 51
80.32532600000197
  0
ARC
  5
230
330
17
100
AcDbEntity
  8
4
100
AcDbCircle
 10
1130.46854687313
 20
213.3853991268345
 30
0.0
 40
5.00006
100
AcDbArc
 50
90.0
 51
178.5590990000007
  0
LINE
  5
231
330
17
100
AcDbEntity
  8
4
100
AcDbLine
 10
1120.08866287313
 20
275.6854471268346
 30
0.0
 11
1120.08890687313
 21
256.0853511268344
 31
0.0
  0
LINE
  5
232
330
17
100
AcDbEntity
  8
4
100
AcDbLine
 10
1117.58866287313
 20
275.0853511268344
 30
0.0
 11
1117.58890687313
 21
256.6854471268346
 31
0.0
  0
ARC
  5
233
330
17
100
AcDbEntity
  8
4
100
AcDbCircle
 10
1113.18534287313
 20
265.8853991268345
 30
0.0
 40
13.90362
100
AcDbArc
 50
339.3323239999993
 51
20.66861300000016
  0
LINE
  5
234
330
17
100
AcDbEntity
  8
4
100
AcDbLine
 10
1127.08866287313
 20
273.2391591268345
 30
0.0
 11
1127.08890687313
 21
258.5316391268345
 31
0.0
  0
LINE
  5
235
330
17
100
AcDbEntity
  8
4
100
AcDbLine
 10
1117.58890687313
 20
256.6854471268346
 30
0.0
 11
1120.08890687313
 21
256.6854471268346
 31
0.0
  0
LINE
  5
236
330
17
100
AcDbEntity
  8
4
100
AcDbLine
 10
1126.19388687313
 20
256.0853511268344
 30
0.0
 11
1120.08890687313
 21
256.0853511268344
 31
0.0
  0
LINE
  5
237
330
17
100
AcDbEntity
  8
4
100
AcDbLine
 10
1120.08890687313
 20
260.9779271268346
 30
0.0
 11
1126.19388687313
 21
260.9779271268346
 31
0.0
  0
ARC
  5
238
330
17
100
AcDbEntity
  8
4
100
AcDbCircle
 10
1123.29789087313
 20
258.5316391268345
 30
0.0
 40
3.79102
100
AcDbArc
 50
319.814133999999
 51
40.18825600000022
  0
LINE
  5
239
330
17
100
AcDbEntity
  8
4
100
AcDbLine
 10
1120.08866287313
 20
275.0853511268344
 30
0.0
 11
1117.58866287313
 21
275.0853511268344
 31
0.0
  0
LINE
  5
23A
330
17
100
AcDbEntity
  8
4
100
AcDbLine
 10
1126.19364287313
 20
275.6854471268346
 30
0.0
 11
1120.08866287313
 21
275.6854471268346
 31
0.0
  0
LINE
  5
23B
330
17
100
AcDbEntity
  8
4
100
AcDbLine
 10
1120.08866287313
 20
270.7928711268344
 30
0.0
 11
1126.19364287313
 21
270.7928711268344
 31
0.0
  0
ARC
  5
23C
330
17
100
AcDbEntity
  8
4
100
AcDbCircle
 10
1123.29764687313
 20
273.2391591268345
 30
0.0
 40
3.790928
100
AcDbArc
 50
319.8117439999993
 51
40.18825600000074
  0
LINE
  5
23E
330
17
100
AcDbEntity
  8
4
100
AcDbLine
 10
1153.68890687313
 20
241.8853991268345
 30
0.0
 11
1252.68890687313
 21
241.8853991268345
 31
0.0
  0
LINE
  5
23F
330
17
100
AcDbEntity
  8
4
100
AcDbLine
 10
1133.68890687313
 20
220.8853991268345
 30
0.0
 11
1132.68890687313
 21
220.8853991268345
 31
0.0
  0
LINE
  5
240
330
17
100
AcDbEntity
  8
4
100
AcDbLine
 10
1133.68890687313
 20
240.8853991268345
 30
0.0
 11
1153.68890687313
 21
240.8853991268345
 31
0.0
  0
LINE
  5
241
330
17
100
AcDbEntity
  8
4
100
AcDbLine
 10
1133.68890687313
 20
239.8853991268345
 30
0.0
 11
1132.68890687313
 21
239.8853991268345
 31
0.0
  0
LINE
  5
242
330
17
100
AcDbEntity
  8
4
100
AcDbLine
 10
1252.68890687313
 20
241.8853991268345
 30
0.0
 11
1253.68890687313
 21
242.8853991268345
 31
0.0
  0
LINE
  5
243
330
17
100
AcDbEntity
  8
L-CENTER
100
AcDbLine
 10
1089.27069487313
 20
428.2340311268342
 30
0.0
 11
1133.51297887313
 21
428.2340311268342
 31
0.0
  0
LINE
  5
244
330
17
100
AcDbEntity
  8
4
100
AcDbLine
 10
1129.99125087313
 20
335.8853991268345
 30
0.0
 11
1132.68890687313
 21
335.8853991268345
 31
0.0
  0
LINE
  5
245
330
17
100
AcDbEntity
  8
4
100
AcDbLine
 10
1130.07157487313
 20
333.3853991268345
 30
0.0
 11
1132.68890687313
 21
333.3853991268345
 31
0.0
  0
ARC
  5
24A
330
17
100
AcDbEntity
  8
4
100
AcDbCircle
 10
1129.99125087313
 20
340.8853991268345
 30
0.0
 40
4.999992
100
AcDbArc
 50
181.8719629999996
 51
270.0
  0
ARC
  5
24B
330
17
100
AcDbEntity
  8
4
100
AcDbCircle
 10
1130.07157487313
 20
338.3853991268345
 30
0.0
 40
5.000024
100
AcDbArc
 50
181.8075640000019
 51
270.0
  0
LINE
  5
24C
330
17
100
AcDbEntity
  8
4
100
AcDbLine
 10
1008.68890687313
 20
470.8853991268345
 30
0.0
 11
1066.68890687313
 21
470.8853991268345
 31
0.0
  0
LINE
  5
24D
330
17
100
AcDbEntity
  8
4
100
AcDbLine
 10
1025.18890687313
 20
470.8853991268345
 30
0.0
 11
1050.18890687313
 21
470.8853991268345
 31
0.0
  0
LINE
  5
24E
330
17
100
AcDbEntity
  8
4
100
AcDbLine
 10
996.1889068731298
 20
469.5287111268347
 30
0.0
 11
1008.68890687313
 21
469.5287111268347
 31
0.0
  0
LINE
  5
24F
330
17
100
AcDbEntity
  8
4
100
AcDbLine
 10
996.1889068731298
 20
469.5287111268347
 30
0.0
 11
996.1889068731298
 21
468.8853991268345
 31
0.0
  0
LINE
  5
250
330
17
100
AcDbEntity
  8
4
100
AcDbLine
 10
1008.68890687313
 20
468.8853991268345
 30
0.0
 11
1008.68890687313
 21
470.8853991268345
 31
0.0
  0
LINE
  5
251
330
17
100
AcDbEntity
  8
4
100
AcDbLine
 10
1120.08866287313
 20
438.0340791268343
 30
0.0
 11
1120.08890687313
 21
418.4339831268346
 31
0.0
  0
LINE
  5
252
330
17
100
AcDbEntity
  8
4
100
AcDbLine
 10
1117.58866287313
 20
437.4339831268346
 30
0.0
 11
1117.58890687313
 21
419.0340791268343
 31
0.0
  0
ARC
  5
253
330
17
100
AcDbEntity
  8
4
100
AcDbCircle
 10
1113.18534287313
 20
428.2340311268342
 30
0.0
 40
13.90362
100
AcDbArc
 50
339.3323279999999
 51
20.66861700000157
  0
LINE
  5
254
330
17
100
AcDbEntity
  8
4
100
AcDbLine
 10
1127.08866287313
 20
435.5877911268346
 30
0.0
 11
1127.08890687313
 21
420.8802711268343
 31
0.0
  0
LINE
  5
255
330
17
100
AcDbEntity
  8
4
100
AcDbLine
 10
1117.58890687313
 20
419.0340791268343
 30
0.0
 11
1120.08890687313
 21
419.0340791268343
 31
0.0
  0
LINE
  5
256
330
17
100
AcDbEntity
  8
4
100
AcDbLine
 10
1126.19388687313
 20
418.4339831268346
 30
0.0
 11
1120.08890687313
 21
418.4339831268346
 31
0.0
  0
LINE
  5
257
330
17
100
AcDbEntity
  8
4
100
AcDbLine
 10
1120.08890687313
 20
423.3265631268348
 30
0.0
 11
1126.19388687313
 21
423.3265631268348
 31
0.0
  0
ARC
  5
258
330
17
100
AcDbEntity
  8
4
100
AcDbCircle
 10
1123.29789087313
 20
420.8802711268343
 30
0.0
 40
3.79102
100
AcDbArc
 50
319.814133999999
 51
40.18825600000022
  0
LINE
  5
259
330
17
100
AcDbEntity
  8
4
100
AcDbLine
 10
1066.68890687313
 20
468.8853991268345
 30
0.0
 11
1066.68890687313
 21
470.8853991268345
 31
0.0
  0
LINE
  5
25A
330
17
100
AcDbEntity
  8
4
100
AcDbLine
 10
1119.58890687313
 20
438.8853991268345
 30
0.0
 11
1117.58890687313
 21
438.8853991268345
 31
0.0
  0
LINE
  5
25B
330
17
100
AcDbEntity
  8
4
100
AcDbLine
 10
1120.08866287313
 20
437.4339831268346
 30
0.0
 11
1117.58866287313
 21
437.4339831268346
 31
0.0
  0
LINE
  5
25C
330
17
100
AcDbEntity
  8
4
100
AcDbLine
 10
1126.19364287313
 20
438.0340791268343
 30
0.0
 11
1120.08866287313
 21
438.0340791268343
 31
0.0
  0
LINE
  5
25D
330
17
100
AcDbEntity
  8
4
100
AcDbLine
 10
1120.08866287313
 20
433.1415031268346
 30
0.0
 11
1126.19364287313
 21
433.1415031268346
 31
0.0
  0
ARC
  5
25E
330
17
100
AcDbEntity
  8
4
100
AcDbCircle
 10
1123.29764687313
 20
435.5877911268346
 30
0.0
 40
3.790928
100
AcDbArc
 50
319.8117439999993
 51
40.18825600000074
  0
LINE
  5
25F
330
17
100
AcDbEntity
  8
4
100
AcDbLine
 10
1119.58890687313
 20
437.4339831268346
 30
0.0
 11
1119.58890687313
 21
438.8853991268345
 31
0.0
  0
LINE
  5
260
330
17
100
AcDbEntity
  8
4
100
AcDbLine
 10
1115.58890687313
 20
462.8853991268345
 30
0.0
 11
1099.18890687313
 21
462.8853991268345
 31
0.0
  0
ARC
  5
261
330
17
100
AcDbEntity
  8
4
100
AcDbCircle
 10
1097.18890687313
 20
466.8853991268345
 30
0.0
 40
2.0
100
AcDbArc
 50
0.0
 51
90.0
  0
ARC
  5
262
330
17
100
AcDbEntity
  8
4
100
AcDbCircle
 10
1115.58890687313
 20
460.8853991268345
 30
0.0
 40
2.0
100
AcDbArc
 50
0.0
 51
90.0
  0
LINE
  5
265
330
17
100
AcDbEntity
  8
4
100
AcDbLine
 10
1253.68890687313
 20
293.3853991268345
 30
0.0
 11
1163.68890687313
 21
293.3853991268345
 31
0.0
  0
LINE
  5
266
330
17
100
AcDbEntity
  8
4
100
AcDbLine
 10
1153.68890687313
 20
289.8853991268345
 30
0.0
 11
1252.68890687313
 21
289.8853991268345
 31
0.0
  0
LINE
  5
268
330
17
100
AcDbEntity
  8
4
100
AcDbLine
 10
1153.68890687313
 20
290.8853991268345
 30
0.0
 11
1133.68890687313
 21
290.8853991268345
 31
0.0
  0
LINE
  5
269
330
17
100
AcDbEntity
  8
4
100
AcDbLine
 10
1163.68890687313
 20
293.3853991268345
 30
0.0
 11
1163.68890687313
 21
289.8853991268345
 31
0.0
  0
LINE
  5
26A
330
17
100
AcDbEntity
  8
4
100
AcDbLine
 10
1133.68890687313
 20
310.8853991268345
 30
0.0
 11
1132.68890687313
 21
310.8853991268345
 31
0.0
  0
LINE
  5
26B
330
17
100
AcDbEntity
  8
4
100
AcDbLine
 10
1133.68890687313
 20
311.8853991268345
 30
0.0
 11
1132.68890687313
 21
311.8853991268345
 31
0.0
  0
LINE
  5
26E
330
17
100
AcDbEntity
  8
4
100
AcDbLine
 10
1253.68890687313
 20
288.8853991268345
 30
0.0
 11
1252.68890687313
 21
289.8853991268345
 31
0.0
  0
ARC
  5
276
330
17
100
AcDbEntity
  8
4
100
AcDbCircle
 10
1037.68890687313
 20
496.8853991268345
 30
0.0
 40
25.000056
100
AcDbArc
 50
301.7706930000003
 51
240.0000000000001
  0
LINE
  5
277
330
17
100
AcDbEntity
  8
L-CENTER
100
AcDbLine
 10
1073.14743487313
 20
496.8853991268345
 30
0.0
 11
1002.23037887313
 21
496.8853991268345
 31
0.0
  0
CIRCLE
  5
278
330
17
100
AcDbEntity
  8
4
100
AcDbCircle
 10
1037.68890687313
 20
496.8853991268345
 30
0.0
 40
15.0
  0
LINE
  5
279
330
17
100
AcDbEntity
  8
4
100
AcDbLine
 10
1050.18890687313
 20
479.8853991268345
 30
0.0
 11
1025.18890687313
 21
479.8853991268345
 31
0.0
  0
LINE
  5
27A
330
17
100
AcDbEntity
  8
4
100
AcDbLine
 10
1025.18890687313
 20
479.8853991268345
 30
0.0
 11
1037.68890687313
 21
481.8853991268345
 31
0.0
  0
ARC
  5
27B
330
17
100
AcDbEntity
  8
4
100
AcDbCircle
 10
1023.78900687313
 20
474.4410631268345
 30
0.0
 40
1.399916
100
AcDbArc
 50
0.0
 51
58.23081800000507
  0
LINE
  5
27C
330
17
100
AcDbEntity
  8
4
100
AcDbLine
 10
1037.68890687313
 20
481.8853991268345
 30
0.0
 11
1050.18890687313
 21
479.8853991268345
 31
0.0
  0
ARC
  5
27D
330
17
100
AcDbEntity
  8
4
100
AcDbCircle
 10
1051.58905487313
 20
474.4410631268345
 30
0.0
 40
1.399916
100
AcDbArc
 50
121.7691819999949
 51
180.0
  0
ARC
  5
3D3
330
17
100
AcDbEntity
  8
4
100
AcDbCircle
 10
455.1307595656881
 20
-1205.685137963373
 30
0.0
 40
2200.0
100
AcDbArc
 50
92.65256890078113
 51
93.53166980767172
  0
ARC
  5
3D4
330
17
100
AcDbEntity
  8
4
100
AcDbCircle
 10
455.1307595656881
 20
-1205.685137963373
 30
0.0
 40
2202.0
100
AcDbArc
 50
92.65015794433586
 51
94.2929425652674
  0
LINE
  5
3D5
330
17
100
AcDbEntity
  8
L-CENTER
100
AcDbLine
 10
271.1307595656876
 20
964.0232856054597
 30
0.0
 11
271.1307595656876
 21
1002.504824315256
 31
0.0
  0
ARC
  5
3D6
330
17
100
AcDbEntity
  8
4
100
AcDbCircle
 10
263.7695436335202
 20
995.8532321316172
 30
0.0
 40
3.783613929059507
100
AcDbArc
 50
49.57010315516856
 51
130.4298968448253
  0
ARC
  5
3D7
330
17
100
AcDbEntity
  8
4
100
AcDbCircle
 10
271.1307595656876
 20
985.8576807632169
 30
0.0
 40
13.77916529745958
100
AcDbArc
 50
69.13593563607996
 51
110.8640643639201
  0
ARC
  5
3D8
330
17
100
AcDbEntity
  8
4
100
AcDbCircle
 10
278.4919754978555
 20
995.8532321316172
 30
0.0
 40
3.783613929059507
100
AcDbArc
 50
49.57010315516856
 51
130.4298968448253
  0
LINE
  5
3D9
330
17
100
AcDbEntity
  8
4
100
AcDbLine
 10
280.9457141419116
 20
992.6368460606764
 30
0.0
 11
261.3158049894641
 21
992.6368460606764
 31
0.0
  0
LINE
  5
3DA
330
17
100
AcDbEntity
  8
4
100
AcDbLine
 10
280.9457141419116
 20
990.1368460606764
 30
0.0
 11
261.3158049894641
 21
990.1368460606764
 31
0.0
  0
LINE
  5
3DB
330
17
100
AcDbEntity
  8
4
100
AcDbLine
 10
280.9457141419116
 20
998.7333191148241
 30
0.0
 11
280.9457141419116
 21
990.1368460606764
 31
0.0
  0
LINE
  5
3DC
330
17
100
AcDbEntity
  8
4
100
AcDbLine
 10
266.2232822775759
 20
998.7333191148241
 30
0.0
 11
266.2232822775759
 21
992.6368460606764
 31
0.0
  0
LINE
  5
3DD
330
17
100
AcDbEntity
  8
4
100
AcDbLine
 10
261.3158049894641
 20
990.1368460606764
 30
0.0
 11
261.3158049894641
 21
998.7333191148241
 31
0.0
  0
LINE
  5
3DE
330
17
100
AcDbEntity
  8
4
100
AcDbLine
 10
276.0382368537998
 20
998.7333191148241
 30
0.0
 11
276.0382368537998
 21
992.6368460606764
 31
0.0
  0
LINE
  5
3DF
330
17
100
AcDbEntity
  8
4
100
AcDbLine
 10
263.7695436335202
 20
999.6368460606764
 30
0.0
 11
278.4919754978555
 21
999.6368460606764
 31
0.0
  0
LINE
  5
3E0
330
17
100
AcDbEntity
  8
L-CENTER
100
AcDbLine
 10
363.1307595656876
 20
964.0232856054597
 30
0.0
 11
363.1307595656876
 21
1002.504824315256
 31
0.0
  0
ARC
  5
3E1
330
17
100
AcDbEntity
  8
4
100
AcDbCircle
 10
355.7695436335202
 20
995.8532321316172
 30
0.0
 40
3.783613929059507
100
AcDbArc
 50
49.57010315516856
 51
130.4298968448253
  0
ARC
  5
3E2
330
17
100
AcDbEntity
  8
4
100
AcDbCircle
 10
363.1307595656876
 20
985.8576807632169
 30
0.0
 40
13.77916529745958
100
AcDbArc
 50
69.13593563607996
 51
110.8640643639201
  0
ARC
  5
3E3
330
17
100
AcDbEntity
  8
4
100
AcDbCircle
 10
370.4919754978555
 20
995.8532321316172
 30
0.0
 40
3.783613929059507
100
AcDbArc
 50
49.57010315516856
 51
130.4298968448253
  0
LINE
  5
3E4
330
17
100
AcDbEntity
  8
4
100
AcDbLine
 10
372.9457141419116
 20
992.6368460606764
 30
0.0
 11
353.3158049894641
 21
992.6368460606764
 31
0.0
  0
LINE
  5
3E5
330
17
100
AcDbEntity
  8
4
100
AcDbLine
 10
372.9457141419116
 20
990.1368460606764
 30
0.0
 11
353.3158049894641
 21
990.1368460606764
 31
0.0
  0
LINE
  5
3E6
330
17
100
AcDbEntity
  8
4
100
AcDbLine
 10
372.9457141419116
 20
998.7333191148241
 30
0.0
 11
372.9457141419116
 21
990.1368460606764
 31
0.0
  0
LINE
  5
3E7
330
17
100
AcDbEntity
  8
4
100
AcDbLine
 10
358.2232822775759
 20
998.7333191148241
 30
0.0
 11
358.2232822775759
 21
992.6368460606764
 31
0.0
  0
LINE
  5
3E8
330
17
100
AcDbEntity
  8
4
100
AcDbLine
 10
353.3158049894641
 20
990.1368460606764
 30
0.0
 11
353.3158049894641
 21
998.7333191148241
 31
0.0
  0
LINE
  5
3E9
330
17
100
AcDbEntity
  8
4
100
AcDbLine
 10
368.0382368537998
 20
998.7333191148241
 30
0.0
 11
368.0382368537998
 21
992.6368460606764
 31
0.0
  0
LINE
  5
3EA
330
17
100
AcDbEntity
  8
4
100
AcDbLine
 10
355.7695436335202
 20
999.6368460606764
 30
0.0
 11
370.4919754978555
 21
999.6368460606764
 31
0.0
  0
ARC
  5
3EB
330
17
100
AcDbEntity
  8
4
100
AcDbCircle
 10
455.1307595656881
 20
-1205.685137963373
 30
0.0
 40
2200.0
100
AcDbArc
 50
87.8591126554834
 51
92.14088734451661
  0
ARC
  5
3EC
330
17
100
AcDbEntity
  8
4
100
AcDbCircle
 10
455.1307595656881
 20
-1205.685137963373
 30
0.0
 40
2202.0
100
AcDbArc
 50
87.86105805321202
 51
92.13894194678798
  0
LINE
  5
3ED
330
17
100
AcDbEntity
  8
4
100
AcDbLine
 10
554.491975497855
 20
999.6368460606764
 30
0.0
 11
539.7695436335198
 21
999.6368460606764
 31
0.0
  0
LINE
  5
3EE
330
17
100
AcDbEntity
  8
4
100
AcDbLine
 10
542.2232822775754
 20
998.7333191148241
 30
0.0
 11
542.2232822775754
 21
992.6368460606764
 31
0.0
  0
LINE
  5
3EF
330
17
100
AcDbEntity
  8
4
100
AcDbLine
 10
556.9457141419111
 20
990.1368460606764
 30
0.0
 11
556.9457141419111
 21
998.7333191148241
 31
0.0
  0
LINE
  5
3F0
330
17
100
AcDbEntity
  8
4
100
AcDbLine
 10
552.0382368537994
 20
998.7333191148241
 30
0.0
 11
552.0382368537994
 21
992.6368460606764
 31
0.0
  0
LINE
  5
3F1
330
17
100
AcDbEntity
  8
4
100
AcDbLine
 10
537.3158049894637
 20
998.7333191148241
 30
0.0
 11
537.3158049894637
 21
990.1368460606764
 31
0.0
  0
LINE
  5
3F2
330
17
100
AcDbEntity
  8
4
100
AcDbLine
 10
537.3158049894637
 20
990.1368460606764
 30
0.0
 11
556.9457141419111
 21
990.1368460606764
 31
0.0
  0
LINE
  5
3F3
330
17
100
AcDbEntity
  8
4
100
AcDbLine
 10
537.3158049894637
 20
992.6368460606764
 30
0.0
 11
556.9457141419111
 21
992.6368460606764
 31
0.0
  0
ARC
  5
3F4
330
17
100
AcDbEntity
  8
4
100
AcDbCircle
 10
539.7695436335198
 20
995.8532321316172
 30
0.0
 40
3.783613929059507
100
AcDbArc
 50
49.57010315517471
 51
130.4298968448315
  0
ARC
  5
3F5
330
17
100
AcDbEntity
  8
4
100
AcDbCircle
 10
547.1307595656876
 20
985.8576807632169
 30
0.0
 40
13.77916529745958
100
AcDbArc
 50
69.13593563608042
 51
110.8640643639196
  0
ARC
  5
3F6
330
17
100
AcDbEntity
  8
4
100
AcDbCircle
 10
554.491975497855
 20
995.8532321316172
 30
0.0
 40
3.783613929059507
100
AcDbArc
 50
49.57010315517471
 51
130.4298968448315
  0
LINE
  5
3F7
330
17
100
AcDbEntity
  8
L-CENTER
100
AcDbLine
 10
547.1307595656876
 20
964.0232856054597
 30
0.0
 11
547.1307595656876
 21
1002.504824315256
 31
0.0
  0
LINE
  5
3F8
330
17
100
AcDbEntity
  8
4
100
AcDbLine
 10
646.491975497855
 20
999.6368460606764
 30
0.0
 11
631.7695436335198
 21
999.6368460606764
 31
0.0
  0
LINE
  5
3F9
330
17
100
AcDbEntity
  8
4
100
AcDbLine
 10
634.2232822775754
 20
998.7333191148241
 30
0.0
 11
634.2232822775754
 21
992.6368460606764
 31
0.0
  0
LINE
  5
3FA
330
17
100
AcDbEntity
  8
4
100
AcDbLine
 10
648.9457141419111
 20
990.1368460606764
 30
0.0
 11
648.9457141419111
 21
998.7333191148241
 31
0.0
  0
LINE
  5
3FB
330
17
100
AcDbEntity
  8
4
100
AcDbLine
 10
644.0382368537994
 20
998.7333191148241
 30
0.0
 11
644.0382368537994
 21
992.6368460606764
 31
0.0
  0
LINE
  5
3FC
330
17
100
AcDbEntity
  8
4
100
AcDbLine
 10
629.3158049894637
 20
998.7333191148241
 30
0.0
 11
629.3158049894637
 21
990.1368460606764
 31
0.0
  0
LINE
  5
3FD
330
17
100
AcDbEntity
  8
4
100
AcDbLine
 10
629.3158049894637
 20
990.1368460606764
 30
0.0
 11
648.9457141419111
 21
990.1368460606764
 31
0.0
  0
LINE
  5
3FE
330
17
100
AcDbEntity
  8
4
100
AcDbLine
 10
629.3158049894637
 20
992.6368460606764
 30
0.0
 11
648.9457141419111
 21
992.6368460606764
 31
0.0
  0
ARC
  5
3FF
330
17
100
AcDbEntity
  8
4
100
AcDbCircle
 10
631.7695436335198
 20
995.8532321316172
 30
0.0
 40
3.783613929059507
100
AcDbArc
 50
49.57010315517471
 51
130.4298968448315
  0
ARC
  5
400
330
17
100
AcDbEntity
  8
4
100
AcDbCircle
 10
639.1307595656876
 20
985.8576807632169
 30
0.0
 40
13.77916529745958
100
AcDbArc
 50
69.13593563608042
 51
110.8640643639196
  0
ARC
  5
401
330
17
100
AcDbEntity
  8
4
100
AcDbCircle
 10
646.491975497855
 20
995.8532321316172
 30
0.0
 40
3.783613929059507
100
AcDbArc
 50
49.57010315517471
 51
130.4298968448315
  0
LINE
  5
402
330
17
100
AcDbEntity
  8
L-CENTER
100
AcDbLine
 10
639.1307595656876
 20
964.0232856054597
 30
0.0
 11
639.1307595656876
 21
1002.504824315256
 31
0.0
  0
ARC
  5
403
330
17
100
AcDbEntity
  8
4
100
AcDbCircle
 10
455.1307595656876
 20
910.2368460606763
 30
0.0
 40
11.0
100
AcDbArc
 50
117.0356917894128
 51
242.964308210587
  0
ARC
  5
404
330
17
100
AcDbEntity
  8
4
100
AcDbCircle
 10
455.1307595656876
 20
910.2368460606763
 30
0.0
 40
12.5
100
AcDbArc
 50
113.578178478202
 51
246.4218215217978
  0
ARC
  5
405
330
17
100
AcDbEntity
  8
4
100
AcDbCircle
 10
455.1307595656876
 20
910.2368460606763
 30
0.0
 40
12.5
100
AcDbArc
 50
293.5781784782031
 51
66.42182152179686
  0
ARC
  5
406
330
17
100
AcDbEntity
  8
4
100
AcDbCircle
 10
455.1307595656876
 20
930.2368460606763
 30
0.0
 40
5.0
100
AcDbArc
 50
0.0
 51
180.0
  0
LINE
  5
407
330
17
100
AcDbEntity
  8
4
100
AcDbLine
 10
460.1307595656876
 20
890.2368460606763
 30
0.0
 11
460.1307595656876
 21
930.2368460606763
 31
0.0
  0
LINE
  5
408
330
17
100
AcDbEntity
  8
4
100
AcDbLine
 10
450.1307595656876
 20
890.2368460606763
 30
0.0
 11
450.1307595656876
 21
930.2368460606763
 31
0.0
  0
ARC
  5
409
330
17
100
AcDbEntity
  8
4
100
AcDbCircle
 10
455.1307595656876
 20
910.2368460606763
 30
0.0
 40
11.0
100
AcDbArc
 50
297.0356917894154
 51
62.96430821058461
  0
ARC
  5
40A
330
17
100
AcDbEntity
  8
4
100
AcDbCircle
 10
455.1307595656876
 20
890.2368460606763
 30
0.0
 40
5.0
100
AcDbArc
 50
180.0
 51
0.0
  0
LWPOLYLINE
  5
40B
330
17
100
AcDbEntity
  8
4
100
AcDbPolyline
 90
        6
 70
     1
 43
0.0
 10
337.6307595656876
 20
910.2368460606763
 10
331.3807595656876
 20
921.0621636079818
 10
318.8807595656876
 20
921.0621636079818
 10
312.6307595656876
 20
910.2368460606763
 10
318.8807595656876
 20
899.4115285133707
 10
331.3807595656876
 20
899.4115285133707
  0
CIRCLE
  5
40C
330
17
100
AcDbEntity
  8
4
100
AcDbCircle
 10
325.1307595656876
 20
910.2368460606763
 30
0.0
 40
12.5
  0
LINE
  5
40D
330
17
100
AcDbEntity
  8
L-CENTER
100
AcDbLine
 10
325.1307595656876
 20
878.7368460606763
 30
0.0
 11
325.1307595656876
 21
941.2368460606763
 31
0.0
  0
CIRCLE
  5
40E
330
17
100
AcDbEntity
  8
4
100
AcDbCircle
 10
325.1307595656876
 20
910.2368460606763
 30
0.0
 40
19.0
  0
ARC
  5
40F
330
17
100
AcDbEntity
  8
4
100
AcDbCircle
 10
439.1307595656876
 20
936.2368460606763
 30
0.0
 40
3.0
100
AcDbArc
 50
90.0
 51
180.0
  0
ARC
  5
410
330
17
100
AcDbEntity
  8
4
100
AcDbCircle
 10
471.1307595656876
 20
936.2368460606763
 30
0.0
 40
3.0
100
AcDbArc
 50
0.0
 51
90.0
  0
LINE
  5
411
330
17
100
AcDbEntity
  8
4
100
AcDbLine
 10
439.1307595656876
 20
939.2368460606763
 30
0.0
 11
471.1307595656876
 21
939.2368460606763
 31
0.0
  0
ARC
  5
412
330
17
100
AcDbEntity
  8
4
100
AcDbCircle
 10
471.1307595656876
 20
884.2368460606763
 30
0.0
 40
3.0
100
AcDbArc
 50
270.0
 51
0.0
  0
LINE
  5
413
330
17
100
AcDbEntity
  8
4
100
AcDbLine
 10
474.1307595656876
 20
884.2368460606763
 30
0.0
 11
474.1307595656876
 21
936.2368460606763
 31
0.0
  0
ARC
  5
414
330
17
100
AcDbEntity
  8
4
100
AcDbCircle
 10
439.1307595656876
 20
884.2368460606763
 30
0.0
 40
3.0
100
AcDbArc
 50
180.0
 51
270.0
  0
LINE
  5
415
330
17
100
AcDbEntity
  8
4
100
AcDbLine
 10
436.1307595656876
 20
884.2368460606763
 30
0.0
 11
436.1307595656876
 21
936.2368460606763
 31
0.0
  0
LINE
  5
416
330
17
100
AcDbEntity
  8
4
100
AcDbLine
 10
439.1307595656876
 20
881.2368460606763
 30
0.0
 11
471.1307595656876
 21
881.2368460606763
 31
0.0
  0
LINE
  5
417
330
17
100
AcDbEntity
  8
4
100
AcDbLine
 10
423.5072322411588
 20
1026.236846060676
 30
0.0
 11
423.5072322411588
 21
1006.236846060677
 31
0.0
  0
LINE
  5
418
330
17
100
AcDbEntity
  8
4
100
AcDbLine
 10
373.5072322411588
 20
1026.236846060676
 30
0.0
 11
373.5072322411588
 21
1006.236846060677
 31
0.0
  0
LINE
  5
419
330
17
100
AcDbEntity
  8
4
100
AcDbLine
 10
374.5072322411588
 20
1125.236846060676
 30
0.0
 11
375.5072322411588
 21
1126.236846060676
 31
0.0
  0
POINT
  5
41A
330
17
100
AcDbEntity
  8
Defpoints
  6
ByBlock
 62
     0
100
AcDbPoint
 10
375.5072322411588
 20
1126.236846060676
 30
0.0
  0
LINE
  5
41C
330
17
100
AcDbEntity
  8
4
100
AcDbLine
 10
374.5072322411588
 20
1125.236846060676
 30
0.0
 11
392.5072322411588
 21
1125.236846060676
 31
0.0
  0
ARC
  5
41D
330
17
100
AcDbEntity
  8
4
100
AcDbCircle
 10
398.5072322411588
 20
1042.236846060676
 30
0.0
 40
6.0
100
AcDbArc
 50
180.0
 51
270.0
  0
LINE
  5
41E
330
17
100
AcDbEntity
  8
4
100
AcDbLine
 10
398.5072322411588
 20
1036.236846060676
 30
0.0
 11
398.5072322411588
 21
1036.236846060676
 31
0.0
  0
ARC
  5
41F
330
17
100
AcDbEntity
  8
4
100
AcDbCircle
 10
373.5072322411588
 20
1027.236846060676
 30
0.0
 40
1.0
100
AcDbArc
 50
270.0
 51
0.0
  0
LINE
  5
420
330
17
100
AcDbEntity
  8
4
100
AcDbLine
 10
404.5072322411588
 20
1042.236846060676
 30
0.0
 11
404.5072322411588
 21
1126.236846060676
 31
0.0
  0
LINE
  5
421
330
17
100
AcDbEntity
  8
4
100
AcDbLine
 10
392.5072322411588
 20
1042.236846060676
 30
0.0
 11
392.5072322411588
 21
1126.236846060676
 31
0.0
  0
LINE
  5
422
330
17
100
AcDbEntity
  8
4
100
AcDbLine
 10
374.5072322411588
 20
1125.236846060676
 30
0.0
 11
374.5072322411588
 21
1027.236846060676
 31
0.0
  0
LINE
  5
423
330
17
100
AcDbEntity
  8
4
100
AcDbLine
 10
422.5072322411588
 20
1125.236846060676
 30
0.0
 11
421.5072322411588
 21
1126.236846060676
 31
0.0
  0
ARC
  5
424
330
17
100
AcDbEntity
  8
4
100
AcDbCircle
 10
423.5072322411588
 20
1027.236846060676
 30
0.0
 40
1.0
100
AcDbArc
 50
180.0
 51
270.0
  0
LINE
  5
425
330
17
100
AcDbEntity
  8
4
100
AcDbLine
 10
422.5072322411588
 20
1125.236846060676
 30
0.0
 11
422.5072322411588
 21
1027.236846060676
 31
0.0
  0
LINE
  5
426
330
17
100
AcDbEntity
  8
4
100
AcDbLine
 10
373.5072322411588
 20
1026.236846060676
 30
0.0
 11
423.5072322411588
 21
1026.236846060676
 31
0.0
  0
ARC
  5
427
330
17
100
AcDbEntity
  8
4
100
AcDbCircle
 10
398.5072322411588
 20
1042.236846060676
 30
0.0
 40
6.0
100
AcDbArc
 50
270.0
 51
0.0
  0
LINE
  5
428
330
17
100
AcDbEntity
  8
4
100
AcDbLine
 10
404.5072322411588
 20
1125.236846060676
 30
0.0
 11
422.5072322411588
 21
1125.236846060676
 31
0.0
  0
LINE
  5
429
330
17
100
AcDbEntity
  8
4
100
AcDbLine
 10
375.5072322411588
 20
1126.236846060676
 30
0.0
 11
421.5072322411588
 21
1126.236846060676
 31
0.0
  0
LINE
  5
43B
330
17
100
AcDbEntity
  8
4
100
AcDbLine
 10
671.1307595656876
 20
917.2368460606763
 30
0.0
 11
672.1307595656876
 21
917.2368460606763
 31
0.0
  0
LINE
  5
43C
330
17
100
AcDbEntity
  8
4
100
AcDbLine
 10
671.1307595656876
 20
845.2368460606763
 30
0.0
 11
672.1307595656876
 21
845.2368460606763
 31
0.0
  0
LINE
  5
43D
330
17
100
AcDbEntity
  8
4
100
AcDbLine
 10
672.1307595656876
 20
917.2368460606763
 30
0.0
 11
672.1307595656876
 21
845.2368460606763
 31
0.0
  0
LINE
  5
43E
330
17
100
AcDbEntity
  8
4
100
AcDbLine
 10
239.1307595656876
 20
917.2368460606763
 30
0.0
 11
238.1307595656876
 21
917.2368460606763
 31
0.0
  0
LINE
  5
43F
330
17
100
AcDbEntity
  8
4
100
AcDbLine
 10
239.1307595656876
 20
845.2368460606763
 30
0.0
 11
238.1307595656876
 21
845.2368460606763
 31
0.0
  0
LINE
  5
440
330
17
100
AcDbEntity
  8
4
100
AcDbLine
 10
238.1307595656876
 20
917.2368460606763
 30
0.0
 11
238.1307595656876
 21
845.2368460606763
 31
0.0
  0
LINE
  5
441
330
17
100
AcDbEntity
  8
L-CENTER
100
AcDbLine
 10
162.4532366303156
 20
881.2368460606763
 30
0.0
 11
678.0370572055083
 21
881.2368460606763
 31
0.0
  0
LINE
  5
442
330
17
100
AcDbEntity
  8
L-CENTER
100
AcDbLine
 10
531.1307595656876
 20
1010.195249553948
 30
0.0
 11
531.1307595656876
 21
807.164089248874
 31
0.0
  0
LINE
  5
443
330
17
100
AcDbEntity
  8
L-CENTER
100
AcDbLine
 10
398.5072322411588
 20
1133.204631064534
 30
0.0
 11
398.5072322411588
 21
687.2690610568181
 31
0.0
  0
ARC
  5
444
330
17
100
AcDbEntity
  8
4
100
AcDbCircle
 10
647.1307595656876
 20
988.136846060677
 30
0.0
 40
2.0
100
AcDbArc
 50
0.0
 51
90.0
  0
LINE
  5
445
330
17
100
AcDbEntity
  8
4
100
AcDbLine
 10
649.1307595656872
 20
988.136846060677
 30
0.0
 11
649.1307595656872
 21
974.136846060677
 31
0.0
  0
LINE
  5
446
330
17
100
AcDbEntity
  8
4
100
AcDbLine
 10
567.1307595656872
 20
1005.236846060677
 30
0.0
 11
567.1307595656872
 21
1006.236846060677
 31
0.0
  0
LINE
  5
447
330
17
100
AcDbEntity
  8
4
100
AcDbLine
 10
588.6307595656876
 20
1005.236846060677
 30
0.0
 11
588.6307595656876
 21
996.9648001793182
 31
0.0
  0
ARC
  5
448
330
17
100
AcDbEntity
  8
4
100
AcDbCircle
 10
593.6307595656881
 20
996.9648001793182
 30
0.0
 40
5.0
100
AcDbArc
 50
180.0
 51
266.4020465540941
  0
LINE
  5
449
330
17
100
AcDbEntity
  8
4
100
AcDbLine
 10
495.1307595656881
 20
1005.236846060677
 30
0.0
 11
495.1307595656876
 21
1006.236846060677
 31
0.0
  0
LINE
  5
44A
330
17
100
AcDbEntity
  8
4
100
AcDbLine
 10
443.5072322411588
 20
1005.236846060677
 30
0.0
 11
443.5072322411588
 21
1006.236846060677
 31
0.0
  0
LINE
  5
44B
330
17
100
AcDbEntity
  8
4
100
AcDbLine
 10
353.5072322411588
 20
1005.236846060677
 30
0.0
 11
353.5072322411588
 21
1006.236846060677
 31
0.0
  0
ARC
  5
44C
330
17
100
AcDbEntity
  8
4
100
AcDbCircle
 10
323.5072322411588
 20
997.3864103651529
 30
0.0
 40
5.0
100
AcDbArc
 50
273.4190984985325
 51
0.0
  0
LINE
  5
44D
330
17
100
AcDbEntity
  8
4
100
AcDbLine
 10
328.5072322411588
 20
1005.236846060677
 30
0.0
 11
328.5072322411588
 21
997.3864103651529
 31
0.0
  0
ARC
  5
44E
330
17
100
AcDbEntity
  8
4
100
AcDbCircle
 10
263.1307595656881
 20
988.1368460606766
 30
0.0
 40
2.0
100
AcDbArc
 50
90.0
 51
180.0
  0
LINE
  5
44F
330
17
100
AcDbEntity
  8
4
100
AcDbLine
 10
261.1307595656876
 20
988.1368460606766
 30
0.0
 11
261.1307595656876
 21
974.1368460606766
 31
0.0
  0
LINE
  5
450
330
17
100
AcDbEntity
  8
4
100
AcDbLine
 10
353.5072322411588
 20
1006.236846060677
 30
0.0
 11
443.5072322411588
 21
1006.236846060677
 31
0.0
  0
LINE
  5
451
330
17
100
AcDbEntity
  8
4
100
AcDbLine
 10
328.5072322411588
 20
1005.236846060677
 30
0.0
 11
588.6307595656876
 21
1005.236846060677
 31
0.0
  0
LINE
  5
452
330
17
100
AcDbEntity
  8
4
100
AcDbLine
 10
263.1307595656876
 20
990.1368460606766
 30
0.0
 11
647.1307595656876
 21
990.1368460606764
 31
0.0
  0
LINE
  5
453
330
17
100
AcDbEntity
  8
4
100
AcDbLine
 10
261.1307595656876
 20
974.1368460606766
 30
0.0
 11
649.1307595656872
 21
974.1368460606764
 31
0.0
  0
ARC
  5
454
330
17
100
AcDbEntity
  8
4
100
AcDbCircle
 10
455.1307595656881
 20
-1205.685137963373
 30
0.0
 40
2202.0
100
AcDbArc
 50
85.70705743473252
 51
87.34984205566417
  0
ARC
  5
455
330
17
100
AcDbEntity
  8
4
100
AcDbCircle
 10
455.1307595656881
 20
-1205.685137963373
 30
0.0
 40
2200.0
100
AcDbArc
 50
86.46833019232822
 51
87.3474310992189
  0
LINE
  5
456
330
17
100
AcDbEntity
  8
4
100
AcDbLine
 10
495.1307595656876
 20
1006.236846060677
 30
0.0
 11
567.1307595656872
 21
1006.236846060677
 31
0.0
  0
LINE
  5
457
330
17
100
AcDbEntity
  8
4
100
AcDbLine
 10
495.1307595656876
 20
814.236846060676
 30
0.0
 11
567.1307595656876
 21
814.236846060676
 31
0.0
  0
LINE
  5
458
330
17
100
AcDbEntity
  8
4
100
AcDbLine
 10
353.5072322411588
 20
814.2368460606763
 30
0.0
 11
443.5072322411588
 21
814.2368460606765
 31
0.0
  0
LINE
  5
459
330
17
100
AcDbEntity
  8
L-CENTER
100
AcDbLine
 10
231.1307595656881
 20
910.2368460606763
 30
0.0
 11
681.1307595656872
 21
910.2368460606763
 31
0.0
  0
ARC
  5
45A
330
17
100
AcDbEntity
  8
4
100
AcDbCircle
 10
656.1307595656872
 20
1020.236846060676
 30
0.0
 40
5.0
100
AcDbArc
 50
0.0
 51
90.0
  0
ARC
  5
45B
330
17
100
AcDbEntity
  8
4
100
AcDbCircle
 10
569.5995548751739
 20
1020.236846060677
 30
0.0
 40
5.0
100
AcDbArc
 50
90.0
 51
159.502659451999
  0
LINE
  5
45C
330
17
100
AcDbEntity
  8
4
100
AcDbLine
 10
656.1307595656872
 20
1025.236846060676
 30
0.0
 11
569.5995548751739
 21
1025.236846060677
 31
0.0
  0
ARC
  5
45D
330
17
100
AcDbEntity
  8
4
100
AcDbCircle
 10
659.1307595656872
 20
969.7368460606763
 30
0.0
 40
2.0
100
AcDbArc
 50
0.0
 51
90.0
  0
LINE
  5
45E
330
17
100
AcDbEntity
  8
4
100
AcDbLine
 10
649.1307595656876
 20
973.7368460606763
 30
0.0
 11
649.1307595656876
 21
971.7368460606763
 31
0.0
  0
LINE
  5
45F
330
17
100
AcDbEntity
  8
4
100
AcDbLine
 10
664.1307595656872
 20
929.2368460606763
 30
0.0
 11
671.1307595656876
 21
929.236846060676
 31
0.0
  0
ARC
  5
460
330
17
100
AcDbEntity
  8
4
100
AcDbCircle
 10
664.1307595656872
 20
932.2368460606763
 30
0.0
 40
3.0
100
AcDbArc
 50
180.0
 51
270.0
  0
LINE
  5
461
330
17
100
AcDbEntity
  8
L-CENTER
100
AcDbLine
 10
595.1307595656867
 20
1005.236846060676
 30
0.0
 11
635.1307595656895
 21
1005.236846060677
 31
0.0
  0
ARC
  5
462
330
17
100
AcDbEntity
  8
4
100
AcDbCircle
 10
647.1307595656876
 20
836.7368460606758
 30
0.0
 40
2.0
100
AcDbArc
 50
270.0
 51
0.0
  0
LINE
  5
463
330
17
100
AcDbEntity
  8
4
100
AcDbLine
 10
649.1307595656876
 20
836.7368460606758
 30
0.0
 11
649.1307595656876
 21
845.7368460606758
 31
0.0
  0
ARC
  5
464
330
17
100
AcDbEntity
  8
4
100
AcDbCircle
 10
664.1307595656872
 20
830.2368460606763
 30
0.0
 40
3.0
100
AcDbArc
 50
90.0
 51
180.0
  0
ARC
  5
465
330
17
100
AcDbEntity
  8
4
100
AcDbCircle
 10
659.1307595656872
 20
850.7368460606758
 30
0.0
 40
2.0
100
AcDbArc
 50
270.0
 51
0.0
  0
ARC
  5
466
330
17
100
AcDbEntity
  8
4
100
AcDbCircle
 10
652.1307595656876
 20
845.7368460606758
 30
0.0
 40
3.0
100
AcDbArc
 50
90.0
 51
180.0
  0
LINE
  5
467
330
17
100
AcDbEntity
  8
4
100
AcDbLine
 10
625.1307595656876
 20
834.7368460606758
 30
0.0
 11
625.1307595656876
 21
830.7308535844722
 31
0.0
  0
LINE
  5
468
330
17
100
AcDbEntity
  8
4
100
AcDbLine
 10
625.1307595656876
 20
833.2368460606763
 30
0.0
 11
671.1307595656876
 21
833.2368460606763
 31
0.0
  0
LINE
  5
469
330
17
100
AcDbEntity
  8
4
100
AcDbLine
 10
671.1307595656876
 20
833.2368460606763
 30
0.0
 11
671.1307595656876
 21
929.236846060676
 31
0.0
  0
LINE
  5
46A
330
17
100
AcDbEntity
  8
4
100
AcDbLine
 10
661.1307595656876
 20
850.7368460606758
 30
0.0
 11
661.1307595656872
 21
1020.236846060676
 31
0.0
  0
CIRCLE
  5
46B
330
17
100
AcDbEntity
  8
4
100
AcDbCircle
 10
615.1307595656876
 20
1005.236846060677
 30
0.0
 40
9.0
  0
LINE
  5
46C
330
17
100
AcDbEntity
  8
L-CENTER
100
AcDbLine
 10
615.1307595656876
 20
1025.236846060678
 30
0.0
 11
615.1307595656876
 21
985.2368460606754
 31
0.0
  0
LINE
  5
46D
330
17
100
AcDbEntity
  8
4
100
AcDbLine
 10
559.0279558273696
 20
1006.236846060677
 30
0.0
 11
564.9161126575086
 21
1021.987665581299
 31
0.0
  0
ARC
  5
46E
330
17
100
AcDbEntity
  8
4
100
AcDbCircle
 10
340.6619642562005
 20
1020.236846060676
 30
0.0
 40
5.0
100
AcDbArc
 50
20.49734054800096
 51
90.0
  0
ARC
  5
46F
330
17
100
AcDbEntity
  8
4
100
AcDbCircle
 10
254.1307595656872
 20
1020.236846060676
 30
0.0
 40
5.0
100
AcDbArc
 50
90.0
 51
180.0
  0
LINE
  5
470
330
17
100
AcDbEntity
  8
4
100
AcDbLine
 10
340.6619642562005
 20
1025.236846060676
 30
0.0
 11
254.1307595656872
 21
1025.236846060676
 31
0.0
  0
LINE
  5
471
330
17
100
AcDbEntity
  8
4
100
AcDbLine
 10
261.1307595656876
 20
973.7368460606763
 30
0.0
 11
261.1307595656876
 21
971.7368460606763
 31
0.0
  0
ARC
  5
472
330
17
100
AcDbEntity
  8
4
100
AcDbCircle
 10
251.1307595656881
 20
969.7368460606763
 30
0.0
 40
2.0
100
AcDbArc
 50
90.0
 51
180.0
  0
LINE
  5
473
330
17
100
AcDbEntity
  8
4
100
AcDbLine
 10
251.1307595656881
 20
971.7368460606763
 30
0.0
 11
659.1307595656872
 21
971.7368460606763
 31
0.0
  0
ARC
  5
474
330
17
100
AcDbEntity
  8
4
100
AcDbCircle
 10
246.1307595656876
 20
932.2368460606763
 30
0.0
 40
3.0
100
AcDbArc
 50
270.0
 51
0.0
  0
LINE
  5
475
330
17
100
AcDbEntity
  8
4
100
AcDbLine
 10
246.1307595656876
 20
929.2368460606763
 30
0.0
 11
239.1307595656876
 21
929.2368460606763
 31
0.0
  0
LINE
  5
476
330
17
100
AcDbEntity
  8
4
100
AcDbLine
 10
285.1307595656876
 20
834.7368460606758
 30
0.0
 11
285.1307595656876
 21
830.7308535844722
 31
0.0
  0
ARC
  5
477
330
17
100
AcDbEntity
  8
4
100
AcDbCircle
 10
263.1307595656876
 20
836.7368460606758
 30
0.0
 40
2.0
100
AcDbArc
 50
180.0
 51
270.0
  0
LINE
  5
478
330
17
100
AcDbEntity
  8
4
100
AcDbLine
 10
261.1307595656876
 20
836.7368460606758
 30
0.0
 11
261.1307595656876
 21
845.7368460606758
 31
0.0
  0
LINE
  5
479
330
17
100
AcDbEntity
  8
4
100
AcDbLine
 10
647.1307595656876
 20
834.7368460606758
 30
0.0
 11
263.1307595656876
 21
834.7368460606758
 31
0.0
  0
ARC
  5
47A
330
17
100
AcDbEntity
  8
4
100
AcDbCircle
 10
258.1307595656876
 20
845.7368460606758
 30
0.0
 40
3.0
100
AcDbArc
 50
0.0
 51
90.0
  0
ARC
  5
47B
330
17
100
AcDbEntity
  8
4
100
AcDbCircle
 10
246.1307595656876
 20
830.2368460606763
 30
0.0
 40
3.0
100
AcDbArc
 50
0.0
 51
90.0
  0
ARC
  5
47C
330
17
100
AcDbEntity
  8
4
100
AcDbCircle
 10
251.1307595656881
 20
850.7368460606758
 30
0.0
 40
2.0
100
AcDbArc
 50
180.0
 51
270.0
  0
LINE
  5
47D
330
17
100
AcDbEntity
  8
4
100
AcDbLine
 10
285.1307595656876
 20
833.2368460606763
 30
0.0
 11
239.1307595656876
 21
833.2368460606763
 31
0.0
  0
LINE
  5
47E
330
17
100
AcDbEntity
  8
4
100
AcDbLine
 10
659.1307595656872
 20
848.7368460606756
 30
0.0
 11
251.1307595656881
 21
848.7368460606758
 31
0.0
  0
LINE
  5
47F
330
17
100
AcDbEntity
  8
4
100
AcDbLine
 10
239.1307595656876
 20
833.2368460606763
 30
0.0
 11
239.1307595656876
 21
929.2368460606763
 31
0.0
  0
ARC
  5
480
330
17
100
AcDbEntity
  8
4
100
AcDbCircle
 10
455.1307595656876
 20
3026.158830084726
 30
0.0
 40
2202.0
100
AcDbArc
 50
265.5722142207156
 51
274.4277857792844
  0
LINE
  5
481
330
17
100
AcDbEntity
  8
L-CENTER
100
AcDbLine
 10
315.1307595656885
 20
1005.236846060676
 30
0.0
 11
275.1307595656858
 21
1005.236846060677
 31
0.0
  0
LINE
  5
482
330
17
100
AcDbEntity
  8
4
100
AcDbLine
 10
249.1307595656876
 20
850.7368460606758
 30
0.0
 11
249.1307595656872
 21
1020.236846060676
 31
0.0
  0
CIRCLE
  5
483
330
17
100
AcDbEntity
  8
4
100
AcDbCircle
 10
295.1307595656876
 20
1005.236846060677
 30
0.0
 40
9.0
  0
LINE
  5
484
330
17
100
AcDbEntity
  8
4
100
AcDbLine
 10
351.6073950797058
 20
1005.236846060677
 30
0.0
 11
345.3454064738658
 21
1021.987665581299
 31
0.0
  0
LINE
  5
485
330
17
100
AcDbEntity
  8
L-CENTER
100
AcDbLine
 10
295.1307595656876
 20
1025.236846060678
 30
0.0
 11
295.1307595656876
 21
985.2368460606754
 31
0.0
  0
ARC
  5
486
330
17
100
AcDbEntity
  8
4
100
AcDbCircle
 10
455.1307595656876
 20
3026.158830084726
 30
0.0
 40
2200.0
100
AcDbArc
 50
265.5681809176313
 51
274.4318190823687
  0
LINE
  5
487
330
17
100
AcDbEntity
  8
4
100
AcDbLine
 10
261.1307595656876
 20
973.7368460606763
 30
0.0
 11
649.1307595656876
 21
973.736846060676
 31
0.0
  0
ARC
  5
488
330
17
100
AcDbEntity
  8
4
100
AcDbCircle
 10
656.1307595656876
 20
800.2368460606763
 30
0.0
 40
5.0
100
AcDbArc
 50
270.0
 51
0.0
  0
LINE
  5
489
330
17
100
AcDbEntity
  8
4
100
AcDbLine
 10
588.6307595656876
 20
823.508891942035
 30
0.0
 11
588.6307595656876
 21
815.236846060676
 31
0.0
  0
CIRCLE
  5
48A
330
17
100
AcDbEntity
  8
4
100
AcDbCircle
 10
615.1307595656876
 20
815.2368460606763
 30
0.0
 40
9.0
  0
LINE
  5
48B
330
17
100
AcDbEntity
  8
L-CENTER
100
AcDbLine
 10
595.1307595656872
 20
815.2368460606763
 30
0.0
 11
635.1307595656876
 21
815.2368460606763
 31
0.0
  0
LINE
  5
48C
330
17
100
AcDbEntity
  8
4
100
AcDbLine
 10
567.1307595656872
 20
815.2368460606758
 30
0.0
 11
567.1307595656876
 21
814.2368460606758
 31
0.0
  0
ARC
  5
48D
330
17
100
AcDbEntity
  8
4
100
AcDbCircle
 10
569.5995548751748
 20
800.2368460606763
 30
0.0
 40
5.0
100
AcDbArc
 50
200.4973405480009
 51
270.0
  0
LINE
  5
48E
330
17
100
AcDbEntity
  8
4
100
AcDbLine
 10
559.0279558273705
 20
814.236846060676
 30
0.0
 11
564.9161126575095
 21
798.4860265400539
 31
0.0
  0
LINE
  5
48F
330
17
100
AcDbEntity
  8
4
100
AcDbLine
 10
495.1307595656876
 20
815.236846060676
 30
0.0
 11
495.1307595656876
 21
814.2368460606758
 31
0.0
  0
LINE
  5
490
330
17
100
AcDbEntity
  8
4
100
AcDbLine
 10
656.1307595656876
 20
795.2368460606763
 30
0.0
 11
569.5995548751748
 21
795.2368460606763
 31
0.0
  0
LINE
  5
491
330
17
100
AcDbEntity
  8
4
100
AcDbLine
 10
328.5072322411588
 20
823.0872817561999
 30
0.0
 11
328.5072322411588
 21
815.2368460606763
 31
0.0
  0
ARC
  5
492
330
17
100
AcDbEntity
  8
4
100
AcDbCircle
 10
340.6619642562014
 20
800.2368460606765
 30
0.0
 40
5.0
100
AcDbArc
 50
270.0
 51
339.5026594519991
  0
LINE
  5
493
330
17
100
AcDbEntity
  8
4
100
AcDbLine
 10
351.6073950797063
 20
815.2368460606763
 30
0.0
 11
345.3454064738662
 21
798.4860265400541
 31
0.0
  0
ARC
  5
494
330
17
100
AcDbEntity
  8
4
100
AcDbCircle
 10
254.1307595656876
 20
800.2368460606765
 30
0.0
 40
5.0
100
AcDbArc
 50
180.0
 51
270.0
  0
LINE
  5
495
330
17
100
AcDbEntity
  8
L-CENTER
100
AcDbLine
 10
315.1307595656881
 20
815.2368460606763
 30
0.0
 11
275.1307595656876
 21
815.2368460606763
 31
0.0
  0
LINE
  5
496
330
17
100
AcDbEntity
  8
4
100
AcDbLine
 10
340.6619642562014
 20
795.2368460606765
 30
0.0
 11
254.1307595656876
 21
795.2368460606765
 31
0.0
  0
CIRCLE
  5
497
330
17
100
AcDbEntity
  8
4
100
AcDbCircle
 10
295.1307595656876
 20
815.2368460606763
 30
0.0
 40
9.0
  0
LINE
  5
498
330
17
100
AcDbEntity
  8
4
100
AcDbLine
 10
328.5072322411588
 20
815.2368460606763
 30
0.0
 11
588.6307595656876
 21
815.236846060676
 31
0.0
  0
LINE
  5
499
330
17
100
AcDbEntity
  8
L-CENTER
100
AcDbLine
 10
455.1307595656876
 20
805.2368460606763
 30
0.0
 11
455.1307595656876
 21
1011.339643850995
 31
0.0
  0
LINE
  5
49A
330
17
100
AcDbEntity
  8
4
100
AcDbLine
 10
249.1307595656876
 20
800.2368460606765
 30
0.0
 11
249.1307595656876
 21
830.2368460606763
 31
0.0
  0
LINE
  5
49B
330
17
100
AcDbEntity
  8
L-CENTER
100
AcDbLine
 10
295.1307595656876
 20
795.236846060676
 30
0.0
 11
295.1307595656876
 21
835.2368460606767
 31
0.0
  0
ARC
  5
49C
330
17
100
AcDbEntity
  8
4
100
AcDbCircle
 10
323.5072322411588
 20
823.0872817561999
 30
0.0
 40
5.0
100
AcDbArc
 50
0.0
 51
86.58090150147265
  0
LINE
  5
49D
330
17
100
AcDbEntity
  8
4
100
AcDbLine
 10
353.5072322411588
 20
815.236846060676
 30
0.0
 11
353.5072322411588
 21
814.236846060676
 31
0.0
  0
LINE
  5
49E
330
17
100
AcDbEntity
  8
4
100
AcDbLine
 10
443.5072322411588
 20
815.236846060676
 30
0.0
 11
443.5072322411588
 21
814.236846060676
 31
0.0
  0
LINE
  5
49F
330
17
100
AcDbEntity
  8
4
100
AcDbLine
 10
661.1307595656876
 20
800.2368460606763
 30
0.0
 11
661.1307595656876
 21
830.2368460606763
 31
0.0
  0
LINE
  5
4A0
330
17
100
AcDbEntity
  8
L-CENTER
100
AcDbLine
 10
615.1307595656876
 20
795.236846060676
 30
0.0
 11
615.1307595656876
 21
835.2368460606767
 31
0.0
  0
ARC
  5
4A1
330
17
100
AcDbEntity
  8
4
100
AcDbCircle
 10
593.6307595656876
 20
823.508891942035
 30
0.0
 40
5.0
100
AcDbArc
 50
93.59795344590587
 51
180.0
  0
LINE
  5
4A2
330
17
100
AcDbEntity
  8
4
100
AcDbLine
 10
226.1307595656876
 20
863.7368460606763
 30
0.0
 11
238.1307595656876
 21
863.7368460606763
 31
0.0
  0
LINE
  5
4A3
330
17
100
AcDbEntity
  8
4
100
AcDbLine
 10
226.1307595656876
 20
898.7368460606763
 30
0.0
 11
238.1307595656876
 21
898.7368460606763
 31
0.0
  0
LINE
  5
4A4
330
17
100
AcDbEntity
  8
4
100
AcDbLine
 10
167.1307595656876
 20
894.7368460606763
 30
0.0
 11
166.1307595656876
 21
893.7368460606763
 31
0.0
  0
LINE
  5
4A5
330
17
100
AcDbEntity
  8
4
100
AcDbLine
 10
167.1307595656876
 20
894.7368460606763
 30
0.0
 11
167.1307595656876
 21
884.7368460606763
 31
0.0
  0
LINE
  5
4A6
330
17
100
AcDbEntity
  8
4
100
AcDbLine
 10
166.1307595656876
 20
868.7368460606763
 30
0.0
 11
167.1307595656876
 21
867.7368460606763
 31
0.0
  0
LINE
  5
4A7
330
17
100
AcDbEntity
  8
4
100
AcDbLine
 10
167.1307595656876
 20
877.7368460606763
 30
0.0
 11
167.1307595656876
 21
867.7368460606763
 31
0.0
  0
LINE
  5
4A8
330
17
100
AcDbEntity
  8
4
100
AcDbLine
 10
166.1307595656876
 20
893.7368460606763
 30
0.0
 11
166.1307595656876
 21
868.7368460606763
 31
0.0
  0
ARC
  5
4A9
330
17
100
AcDbEntity
  8
4
100
AcDbCircle
 10
217.6307595656876
 20
881.2368460606763
 30
0.0
 40
3.5
100
AcDbArc
 50
0.0
 51
90.0
  0
ARC
  5
4AA
330
17
100
AcDbEntity
  8
4
100
AcDbCircle
 10
217.6307595656876
 20
881.2368460606763
 30
0.0
 40
3.5
100
AcDbArc
 50
270.0
 51
0.0
  0
LINE
  5
4AB
330
17
100
AcDbEntity
  8
4
100
AcDbLine
 10
221.1307595656876
 20
881.2368460606763
 30
0.0
 11
221.1307595656876
 21
881.2368460606763
 31
0.0
  0
ARC
  5
4AC
330
17
100
AcDbEntity
  8
4
100
AcDbCircle
 10
224.6307595656876
 20
896.2368460606763
 30
0.0
 40
1.5
100
AcDbArc
 50
270.0
 51
0.0
  0
ARC
  5
4AD
330
17
100
AcDbEntity
  8
4
100
AcDbCircle
 10
224.6307595656876
 20
866.2368460606763
 30
0.0
 40
1.5
100
AcDbArc
 50
0.0
 51
90.0
  0
LINE
  5
4AE
330
17
100
AcDbEntity
  8
4
100
AcDbLine
 10
226.1307595656876
 20
863.7368460606763
 30
0.0
 11
226.1307595656876
 21
898.7368460606763
 31
0.0
  0
LINE
  5
4AF
330
17
100
AcDbEntity
  8
4
100
AcDbLine
 10
166.1307595656876
 20
884.7368460606763
 30
0.0
 11
217.6307595656876
 21
884.7368460606763
 31
0.0
  0
LINE
  5
4B0
330
17
100
AcDbEntity
  8
4
100
AcDbLine
 10
166.1307595656876
 20
877.7368460606763
 30
0.0
 11
217.6307595656876
 21
877.7368460606763
 31
0.0
  0
LINE
  5
4B1
330
17
100
AcDbEntity
  8
4
100
AcDbLine
 10
224.6307595656876
 20
867.7368460606763
 30
0.0
 11
167.1307595656876
 21
867.7368460606763
 31
0.0
  0
LINE
  5
4B2
330
17
100
AcDbEntity
  8
4
100
AcDbLine
 10
224.6307595656876
 20
894.7368460606763
 30
0.0
 11
167.1307595656876
 21
894.7368460606763
 31
0.0
  0
LINE
  5
4D6
330
17
100
AcDbEntity
  8
4
100
AcDbLine
 10
423.5072322411588
 20
794.2368460606763
 30
0.0
 11
423.5072322411588
 21
814.2368460606756
 31
0.0
  0
LINE
  5
4D7
330
17
100
AcDbEntity
  8
4
100
AcDbLine
 10
373.5072322411588
 20
794.2368460606763
 30
0.0
 11
373.5072322411588
 21
814.2368460606758
 31
0.0
  0
LINE
  5
4D8
330
17
100
AcDbEntity
  8
4
100
AcDbLine
 10
374.5072322411588
 20
695.2368460606763
 30
0.0
 11
375.5072322411588
 21
694.2368460606763
 31
0.0
  0
POINT
  5
4D9
330
17
100
AcDbEntity
  8
Defpoints
  6
ByBlock
 62
     0
100
AcDbPoint
 10
375.5072322411588
 20
694.2368460606763
 30
0.0
  0
LINE
  5
4DA
330
17
100
AcDbEntity
  8
4
100
AcDbLine
 10
374.5072322411588
 20
695.2368460606763
 30
0.0
 11
392.5072322411588
 21
695.2368460606763
 31
0.0
  0
ARC
  5
4DB
330
17
100
AcDbEntity
  8
4
100
AcDbCircle
 10
398.5072322411588
 20
778.236846060676
 30
0.0
 40
6.0
100
AcDbArc
 50
90.0
 51
180.0
  0
LINE
  5
4DC
330
17
100
AcDbEntity
  8
4
100
AcDbLine
 10
398.5072322411588
 20
784.2368460606763
 30
0.0
 11
398.5072322411588
 21
784.2368460606763
 31
0.0
  0
ARC
  5
4DD
330
17
100
AcDbEntity
  8
4
100
AcDbCircle
 10
373.5072322411588
 20
793.236846060676
 30
0.0
 40
1.0
100
AcDbArc
 50
0.0
 51
90.0
  0
LINE
  5
4DE
330
17
100
AcDbEntity
  8
4
100
AcDbLine
 10
404.5072322411588
 20
778.2368460606763
 30
0.0
 11
404.5072322411588
 21
694.2368460606763
 31
0.0
  0
LINE
  5
4DF
330
17
100
AcDbEntity
  8
4
100
AcDbLine
 10
392.5072322411588
 20
778.2368460606763
 30
0.0
 11
392.5072322411588
 21
694.2368460606763
 31
0.0
  0
LINE
  5
4E0
330
17
100
AcDbEntity
  8
4
100
AcDbLine
 10
374.5072322411588
 20
695.2368460606763
 30
0.0
 11
374.5072322411588
 21
793.2368460606763
 31
0.0
  0
LINE
  5
4E1
330
17
100
AcDbEntity
  8
4
100
AcDbLine
 10
422.5072322411588
 20
695.2368460606763
 30
0.0
 11
421.5072322411588
 21
694.2368460606763
 31
0.0
  0
ARC
  5
4E2
330
17
100
AcDbEntity
  8
4
100
AcDbCircle
 10
423.5072322411588
 20
793.2368460606765
 30
0.0
 40
1.0
100
AcDbArc
 50
90.0
 51
180.0
  0
LINE
  5
4E3
330
17
100
AcDbEntity
  8
4
100
AcDbLine
 10
422.5072322411588
 20
695.2368460606763
 30
0.0
 11
422.5072322411588
 21
793.2368460606767
 31
0.0
  0
LINE
  5
4E4
330
17
100
AcDbEntity
  8
4
100
AcDbLine
 10
373.5072322411588
 20
794.2368460606763
 30
0.0
 11
423.5072322411588
 21
794.2368460606763
 31
0.0
  0
ARC
  5
4E5
330
17
100
AcDbEntity
  8
4
100
AcDbCircle
 10
398.5072322411588
 20
778.236846060676
 30
0.0
 40
6.0
100
AcDbArc
 50
0.0
 51
90.0
  0
LINE
  5
4E6
330
17
100
AcDbEntity
  8
4
100
AcDbLine
 10
404.5072322411588
 20
695.2368460606763
 30
0.0
 11
422.5072322411588
 21
695.2368460606763
 31
0.0
  0
LINE
  5
4E7
330
17
100
AcDbEntity
  8
4
100
AcDbLine
 10
375.5072322411588
 20
694.2368460606763
 30
0.0
 11
421.5072322411588
 21
694.2368460606763
 31
0.0
  0
ARC
  5
4E9
330
17
100
AcDbEntity
  8
4
100
AcDbCircle
 10
398.5079555656876
 20
265.8853991268345
 30
0.0
 40
23.999948
100
AcDbArc
 50
104.4775439999999
 51
75.52242399999983
  0
LINE
  5
4EA
330
17
100
AcDbEntity
  8
4
100
AcDbLine
 10
392.5079555656876
 20
293.3853991268345
 30
0.0
 11
404.5079555656876
 21
293.3853991268345
 31
0.0
  0
LINE
  5
4EB
330
17
100
AcDbEntity
  8
4
100
AcDbLine
 10
404.5079555656876
 20
285.3853991268345
 30
0.0
 11
392.5079555656876
 21
285.3853991268345
 31
0.0
  0
LINE
  5
4EC
330
17
100
AcDbEntity
  8
4
100
AcDbLine
 10
392.5079555656876
 20
293.3853991268345
 30
0.0
 11
392.5079555656876
 21
285.3853991268345
 31
0.0
  0
LINE
  5
4ED
330
17
100
AcDbEntity
  8
4
100
AcDbLine
 10
404.5079555656876
 20
293.3853991268345
 30
0.0
 11
404.5079555656876
 21
285.3853991268345
 31
0.0
  0
LINE
  5
4F0
330
17
100
AcDbEntity
  8
4
100
AcDbLine
 10
822.6889068731298
 20
289.8853991268345
 30
0.0
 11
822.6889068731298
 21
241.8853991268345
 31
0.0
  0
LINE
  5
4F1
330
17
100
AcDbEntity
  8
4
100
AcDbLine
 10
821.6889068731298
 20
293.3853991268345
 30
0.0
 11
821.6889068731298
 21
242.8853991268345
 31
0.0
  0
LINE
  5
4F2
330
17
100
AcDbEntity
  8
4
100
AcDbLine
 10
921.6889068731298
 20
290.8853991268345
 30
0.0
 11
921.6889068731298
 21
240.8853991268345
 31
0.0
  0
LINE
  5
4F3
330
17
100
AcDbEntity
  8
4
100
AcDbLine
 10
921.6889068731298
 20
241.8853991268345
 30
0.0
 11
822.6889068731298
 21
241.8853991268345
 31
0.0
  0
LINE
  5
4F4
330
17
100
AcDbEntity
  8
4
100
AcDbLine
 10
941.6889068731298
 20
240.8853991268345
 30
0.0
 11
921.6889068731298
 21
240.8853991268345
 31
0.0
  0
LINE
  5
4F5
330
17
100
AcDbEntity
  8
4
100
AcDbLine
 10
822.6889068731298
 20
241.8853991268345
 30
0.0
 11
821.6889068731298
 21
242.8853991268345
 31
0.0
  0
LINE
  5
4F6
330
17
100
AcDbEntity
  8
4
100
AcDbLine
 10
821.6889068731298
 20
293.3853991268345
 30
0.0
 11
911.6889068731298
 21
293.3853991268345
 31
0.0
  0
LINE
  5
4F7
330
17
100
AcDbEntity
  8
4
100
AcDbLine
 10
921.6889068731298
 20
289.8853991268345
 30
0.0
 11
822.6889068731298
 21
289.8853991268345
 31
0.0
  0
LINE
  5
4F8
330
17
100
AcDbEntity
  8
4
100
AcDbLine
 10
921.6889068731298
 20
290.8853991268345
 30
0.0
 11
941.6889068731298
 21
290.8853991268345
 31
0.0
  0
LINE
  5
4F9
330
17
100
AcDbEntity
  8
4
100
AcDbLine
 10
911.6889068731298
 20
293.3853991268345
 30
0.0
 11
911.6889068731298
 21
289.8853991268345
 31
0.0
  0
LINE
  5
4FA
330
17
100
AcDbEntity
  8
4
100
AcDbLine
 10
821.6889068731298
 20
288.8853991268345
 30
0.0
 11
822.6889068731298
 21
289.8853991268345
 31
0.0
  0
ENDSEC
  0
SECTION
  2
OBJECTS
  0
DICTIONARY
  5
5
330
0
100
AcDbDictionary
281
     1
  3
ACAD_COLOR
350
29
  3
ACAD_GROUP
350
27
  3
ACAD_LAYOUT
350
1E
  3
ACAD_MATERIAL
350
7
  3
ACAD_MLEADERSTYLE
350
4B6
  3
ACAD_MLINESTYLE
350
15
  3
ACAD_PLOTSETTINGS
350
28
  3
ACAD_PLOTSTYLENAME
350
4
  3
ACAD_SCALELIST
350
2D
  3
ACAD_TABLESTYLE
350
4B5
  3
ACAD_VISUALSTYLE
350
2A
  3
ACDBHEADERROUNDTRIPXREC
350
529
  3
AcDbVariableDictionary
350
4B3
  3
DWGPROPS
350
52C
  0
DICTIONARY
  5
52D
330
26
100
AcDbDictionary
280
     1
281
     1
  3
ACAD_XREC_ROUNDTRIP
360
52E
  0
DICTIONARY
  5
18
330
17
100
AcDbDictionary
280
     1
281
     1
  3
ACAD_SORTENTS
360
19
  0
DICTIONARY
  5
29
102
{ACAD_REACTORS
330
5
102
}
330
5
100
AcDbDictionary
281
     1
  0
DICTIONARY
  5
27
102
{ACAD_REACTORS
330
5
102
}
330
5
100
AcDbDictionary
281
     1
  0
DICTIONARY
  5
1E
102
{ACAD_REACTORS
330
5
102
}
330
5
100
AcDbDictionary
281
     1
  3
Model
350
1D
  3
ﾚｲｱｳﾄ1
350
23
  0
DICTIONARY
  5
7
102
{ACAD_REACTORS
330
5
102
}
330
5
100
AcDbDictionary
281
     1
  3
ByBlock
350
70
  3
ByLayer
350
10
  3
Global
350
6
  0
DICTIONARY
  5
4B6
102
{ACAD_REACTORS
330
5
102
}
330
5
100
AcDbDictionary
281
     1
  3
Standard
350
4D1
  0
DICTIONARY
  5
15
102
{ACAD_REACTORS
330
5
102
}
330
5
100
AcDbDictionary
281
     1
  3
STANDARD
350
14
  0
DICTIONARY
  5
28
102
{ACAD_REACTORS
330
5
102
}
330
5
100
AcDbDictionary
281
     1
  0
ACDBDICTIONARYWDFLT
  5
4
102
{ACAD_REACTORS
330
5
102
}
330
5
100
AcDbDictionary
281
     1
  3
Normal
350
3
100
AcDbDictionaryWithDefault
340
3
  0
DICTIONARY
  5
2D
102
{ACAD_REACTORS
330
5
102
}
330
5
100
AcDbDictionary
281
     1
  3
*A1
350
4F
  3
*A10
350
58
  3
*A11
350
59
  3
*A12
350
5A
  3
*A13
350
5B
  3
*A14
350
5C
  3
*A15
350
5D
  3
*A16
350
5E
  3
*A17
350
5F
  3
*A18
350
60
  3
*A19
350
61
  3
*A2
350
50
  3
*A20
350
62
  3
*A21
350
63
  3
*A22
350
64
  3
*A23
350
65
  3
*A24
350
66
  3
*A25
350
67
  3
*A26
350
68
  3
*A27
350
69
  3
*A28
350
6A
  3
*A29
350
6B
  3
*A3
350
51
  3
*A30
350
6C
  3
*A31
350
6D
  3
*A32
350
6E
  3
*A33
350
6F
  3
*A4
350
52
  3
*A5
350
53
  3
*A6
350
54
  3
*A7
350
55
  3
*A8
350
56
  3
*A9
350
57
  0
DICTIONARY
  5
4B5
102
{ACAD_REACTORS
330
5
102
}
330
5
100
AcDbDictionary
281
     1
  3
Standard
350
523
  0
DICTIONARY
  5
2A
102
{ACAD_REACTORS
330
5
102
}
330
5
100
AcDbDictionary
281
     1
  3
2dWireframe
350
4BD
  3
Basic
350
4C0
  3
Brighten
350
4C4
  3
ColorChange
350
4C8
  3
Conceptual
350
4C2
  3
Dim
350
4C3
  3
EdgeColorOff
350
4CB
  3
Facepattern
350
4C7
  3
Flat
350
4B9
  3
FlatWithEdges
350
4BA
  3
Gouraud
350
4BB
  3
GouraudWithEdges
350
4BC
  3
Hidden
350
4BF
  3
JitterOff
350
4C9
  3
Linepattern
350
4C6
  3
OverhangOff
350
4CA
  3
Realistic
350
4C1
  3
Shaded
350
4D0
  3
Shaded with edges
350
4CF
  3
Shades of Gray
350
4CC
  3
Sketchy
350
4CD
  3
Thicken
350
4C5
  3
Wireframe
350
4BE
  3
X-Ray
350
4CE
  0
DICTIONARY
  5
529
102
{ACAD_REACTORS
330
5
102
}
330
5
100
AcDbDictionary
281
     1
  3
COLORDICT
350
52A
  3
MATERIALDICT
350
52B
  0
DICTIONARY
  5
4B3
102
{ACAD_REACTORS
330
5
102
}
330
5
100
AcDbDictionary
281
     1
  3
CANNOSCALE
350
4B4
  3
CMLEADERSTYLE
350
4D3
  3
CTABLESTYLE
350
524
  3
DIMASSOC
350
526
  3
HIDETEXT
350
528
  3
MSLTSCALE
350
52F
  3
XCLIPFRAME
350
527
  0
XRECORD
  5
52C
102
{ACAD_REACTORS
330
5
102
}
330
5
100
AcDbXrecord
280
     1
  1
DWGPROPS COOKIE
  2

  3

  4

  6

  7

  8
sg-d03
  9

300
=
301
=
302
=
303
=
304
=
305
=
306
=
307
=
308
=
309
=
 40
0.0
 41
2457161.078607801
 42
2458109.124000116
  1

 90
        0
  0
XRECORD
  5
52E
102
{ACAD_REACTORS
330
52D
102
}
330
52D
100
AcDbXrecord
280
     1
102
VTR_0.000_0.000_1.000_1.000_GRIDDISPLAY
 70
     3
102
VTR_0.000_0.000_1.000_1.000_GRIDMAJOR
 70
     5
102
VTR_0.000_0.000_1.000_1.000_DEFAULTLIGHTING
280
     1
102
VTR_0.000_0.000_1.000_1.000_DEFAULTLIGHTINGTYPE
 70
     1
102
VTR_0.000_0.000_1.000_1.000_BRIGHTNESS
141
0.0
102
VTR_0.000_0.000_1.000_1.000_CONTRAST
142
0.0
  0
SORTENTSTABLE
  5
19
102
{ACAD_REACTORS
330
18
102
}
330
18
100
AcDbSortentsTable
330
17
331
0
  5
130
331
100
  5
101
331
101
  5
102
331
0
  5
103
331
103
  5
104
331
104
  5
105
331
0
  5
106
331
0
  5
107
331
107
  5
108
331
108
  5
109
331
109
  5
10A
331
0
  5
10B
331
0
  5
10C
331
0
  5
10D
331
10D
  5
10E
331
10E
  5
10F
331
10F
  5
110
331
0
  5
111
331
111
  5
112
331
0
  5
113
331
0
  5
114
331
114
  5
115
331
115
  5
116
331
116
  5
119
331
117
  5
11A
331
118
  5
11B
331
119
  5
11C
331
11A
  5
11D
331
11B
  5
11E
331
11C
  5
11F
331
11D
  5
120
331
11E
  5
121
331
11F
  5
122
331
0
  5
123
331
121
  5
124
331
122
  5
125
331
123
  5
126
331
124
  5
127
331
125
  5
128
331
126
  5
129
331
127
  5
12A
331
128
  5
12B
331
129
  5
12C
331
12A
  5
12D
331
12B
  5
12E
331
12C
  5
12F
331
0
  5
131
331
0
  5
133
331
0
  5
134
331
0
  5
135
331
134
  5
137
331
135
  5
138
331
0
  5
139
331
137
  5
13A
331
138
  5
13B
331
0
  5
13C
331
0
  5
13D
331
13B
  5
13E
331
13C
  5
13F
331
13D
  5
140
331
13E
  5
141
331
13F
  5
142
331
140
  5
143
331
141
  5
144
331
142
  5
145
331
143
  5
146
331
144
  5
147
331
145
  5
148
331
146
  5
149
331
147
  5
14A
331
148
  5
14B
331
149
  5
14C
331
14A
  5
14D
331
14B
  5
14E
331
14C
  5
14F
331
14D
  5
150
331
0
  5
151
331
0
  5
152
331
0
  5
153
331
151
  5
154
331
152
  5
155
331
153
  5
156
331
154
  5
157
331
0
  5
158
331
156
  5
159
331
0
  5
15A
331
15A
  5
15D
331
15F
  5
162
331
160
  5
163
331
161
  5
164
331
165
  5
168
331
16B
  5
16E
331
16C
  5
16F
331
16D
  5
170
331
16F
  5
172
331
0
  5
175
331
0
  5
178
331
0
  5
17A
331
0
  5
17B
331
179
  5
17C
331
0
  5
17F
331
0
  5
180
331
17E
  5
181
331
17F
  5
182
331
180
  5
183
331
181
  5
184
331
182
  5
185
331
183
  5
186
331
184
  5
187
331
185
  5
188
331
0
  5
189
331
0
  5
18A
331
0
  5
18B
331
0
  5
18E
331
0
  5
18F
331
0
  5
193
331
0
  5
194
331
0
  5
195
331
0
  5
196
331
194
  5
197
331
195
  5
198
331
196
  5
199
331
197
  5
19A
331
198
  5
19B
331
199
  5
19C
331
19A
  5
19D
331
0
  5
19E
331
0
  5
19F
331
19D
  5
1A0
331
19E
  5
1A1
331
0
  5
1A2
331
0
  5
1A3
331
0
  5
1A4
331
0
  5
1A5
331
0
  5
1A6
331
0
  5
1A7
331
0
  5
1A8
331
0
  5
1A9
331
0
  5
1AA
331
0
  5
1AB
331
1A9
  5
1AC
331
1AA
  5
1AD
331
1AB
  5
1AE
331
0
  5
1AF
331
0
  5
1B0
331
0
  5
1B1
331
1AF
  5
1B2
331
1B0
  5
1B3
331
1B1
  5
1B4
331
1B2
  5
1B5
331
1B3
  5
1B6
331
1B4
  5
1B7
331
1B5
  5
1B8
331
1B6
  5
1B9
331
1B7
  5
1BA
331
1B8
  5
1BB
331
1B9
  5
1BC
331
0
  5
1BD
331
0
  5
1BE
331
0
  5
1BF
331
1BD
  5
1C0
331
0
  5
1C1
331
0
  5
1C2
331
1C0
  5
1C3
331
0
  5
1C4
331
0
  5
1C5
331
1C3
  5
1C6
331
1C4
  5
1C7
331
0
  5
1C8
331
1C6
  5
1C9
331
0
  5
1CA
331
0
  5
1CB
331
0
  5
1CC
331
0
  5
1CD
331
0
  5
1CE
331
1CC
  5
1CF
331
1CD
  5
1D0
331
1CE
  5
1D1
331
1CF
  5
1D2
331
1D0
  5
1D3
331
1D1
  5
1D4
331
1D2
  5
1D5
331
1D3
  5
1D6
331
1D4
  5
1D7
331
1D5
  5
1D8
331
1D6
  5
1D9
331
1D7
  5
1DA
331
1D8
  5
1DB
331
1D9
  5
1DC
331
0
  5
1DD
331
0
  5
1DE
331
0
  5
1DF
331
0
  5
1E0
331
0
  5
1E1
331
0
  5
1E2
331
0
  5
1E3
331
0
  5
1E4
331
1E2
  5
1E5
331
1E3
  5
1E6
331
1E4
  5
1E7
331
1E5
  5
1E8
331
1E6
  5
1E9
331
1E7
  5
1EA
331
1E8
  5
1EB
331
1E9
  5
1EC
331
1EA
  5
1ED
331
1EB
  5
1EE
331
1EC
  5
1EF
331
1ED
  5
1F0
331
1EE
  5
1F1
331
1EF
  5
1F2
331
1F0
  5
1F3
331
1F1
  5
1F4
331
1F2
  5
1F5
331
1F3
  5
1F6
331
1F4
  5
1F7
331
1F5
  5
1F8
331
1F6
  5
1F9
331
1F7
  5
1FA
331
1F8
  5
1FB
331
1F9
  5
1FC
331
1FA
  5
1FD
331
1FB
  5
1FE
331
1FC
  5
1FF
331
1FD
  5
200
331
1FE
  5
201
331
0
  5
202
331
200
  5
203
331
201
  5
204
331
202
  5
205
331
203
  5
206
331
204
  5
207
331
205
  5
208
331
206
  5
209
331
207
  5
20A
331
208
  5
20B
331
209
  5
20C
331
0
  5
20D
331
20B
  5
20E
331
20C
  5
20F
331
20D
  5
210
331
20E
  5
211
331
20F
  5
212
331
210
  5
213
331
211
  5
214
331
212
  5
215
331
213
  5
216
331
214
  5
217
331
215
  5
218
331
216
  5
219
331
217
  5
21A
331
218
  5
21B
331
219
  5
21C
331
21A
  5
21D
331
21C
  5
21F
331
221
  5
224
331
222
  5
225
331
223
  5
226
331
224
  5
227
331
225
  5
228
331
226
  5
229
331
227
  5
22A
331
228
  5
22B
331
229
  5
22C
331
22A
  5
22D
331
22B
  5
22E
331
22C
  5
22F
331
22D
  5
230
331
22E
  5
231
331
22F
  5
232
331
230
  5
233
331
231
  5
234
331
232
  5
235
331
233
  5
236
331
234
  5
237
331
235
  5
238
331
236
  5
239
331
237
  5
23A
331
238
  5
23B
331
239
  5
23C
331
23A
  5
23D
331
23B
  5
23E
331
23C
  5
23F
331
0
  5
240
331
23E
  5
241
331
23F
  5
242
331
240
  5
243
331
241
  5
244
331
242
  5
245
331
243
  5
246
331
244
  5
247
331
245
  5
248
331
0
  5
249
331
0
  5
24A
331
0
  5
24B
331
0
  5
24C
331
24A
  5
24D
331
24B
  5
24E
331
24C
  5
24F
331
24D
  5
250
331
24E
  5
251
331
24F
  5
252
331
250
  5
253
331
251
  5
254
331
252
  5
255
331
253
  5
256
331
254
  5
257
331
255
  5
258
331
256
  5
259
331
257
  5
25A
331
258
  5
25B
331
259
  5
25C
331
25A
  5
25D
331
25B
  5
25E
331
25C
  5
25F
331
25D
  5
260
331
25E
  5
261
331
25F
  5
262
331
260
  5
263
331
261
  5
264
331
262
  5
265
331
0
  5
266
331
0
  5
267
331
265
  5
268
331
266
  5
269
331
0
  5
26A
331
268
  5
26B
331
269
  5
26C
331
26A
  5
26D
331
26B
  5
26E
331
0
  5
26F
331
0
  5
270
331
26E
  5
271
331
0
  5
272
331
0
  5
273
331
0
  5
274
331
0
  5
275
331
0
  5
276
331
0
  5
277
331
0
  5
278
331
276
  5
279
331
277
  5
27A
331
278
  5
27B
331
279
  5
27C
331
27A
  5
27D
331
27B
  5
27E
331
27C
  5
27F
331
27D
  5
280
331
0
  5
281
331
0
  5
282
331
0
  5
283
331
0
  5
285
331
0
  5
290
331
0
  5
291
331
0
  5
292
331
0
  5
293
331
0
  5
294
331
0
  5
295
331
0
  5
296
331
0
  5
298
331
0
  5
299
331
0
  5
29A
331
0
  5
29B
331
0
  5
29C
331
0
  5
29E
331
0
  5
29F
331
0
  5
2A0
331
0
  5
2A1
331
0
  5
2A2
331
0
  5
2A3
331
0
  5
2A4
331
0
  5
2A5
331
0
  5
2A6
331
0
  5
2A7
331
0
  5
2A8
331
0
  5
2A9
331
0
  5
2AA
331
0
  5
2AB
331
0
  5
2AC
331
0
  5
2AD
331
0
  5
2AE
331
0
  5
2AF
331
0
  5
2B0
331
0
  5
2B1
331
0
  5
2B2
331
0
  5
2B3
331
0
  5
2B4
331
0
  5
2B5
331
0
  5
2B6
331
0
  5
2B7
331
0
  5
2B8
331
0
  5
2B9
331
0
  5
2BA
331
0
  5
2BB
331
0
  5
2BC
331
0
  5
2BD
331
0
  5
2BE
331
0
  5
2BF
331
0
  5
2C0
331
0
  5
2C1
331
0
  5
2C2
331
0
  5
2C3
331
0
  5
2C4
331
0
  5
2C5
331
0
  5
2C6
331
0
  5
2C7
331
0
  5
2C8
331
0
  5
2C9
331
0
  5
2CA
331
0
  5
2CB
331
0
  5
2CC
331
0
  5
2CD
331
0
  5
2CE
331
0
  5
2CF
331
0
  5
2D0
331
0
  5
2D1
331
0
  5
2D2
331
0
  5
2D3
331
0
  5
2D4
331
0
  5
2D5
331
0
  5
2D6
331
0
  5
2D7
331
0
  5
2D8
331
0
  5
2D9
331
0
  5
2DA
331
0
  5
2DB
331
0
  5
2DC
331
0
  5
2DD
331
0
  5
2DE
331
0
  5
2DF
331
0
  5
2E0
331
0
  5
2E1
331
0
  5
2E2
331
0
  5
2E3
331
0
  5
2E4
331
0
  5
2E5
331
0
  5
2E6
331
0
  5
2E7
331
0
  5
2E8
331
0
  5
2E9
331
0
  5
2EA
331
0
  5
2EB
331
0
  5
2EC
331
0
  5
2ED
331
0
  5
2EE
331
0
  5
2EF
331
0
  5
2F0
331
0
  5
2F1
331
0
  5
2F2
331
0
  5
2F3
331
0
  5
2F4
331
0
  5
2F5
331
0
  5
2F6
331
0
  5
2F7
331
0
  5
2F8
331
0
  5
2F9
331
0
  5
2FA
331
0
  5
2FB
331
0
  5
2FC
331
0
  5
2FD
331
0
  5
2FE
331
0
  5
2FF
331
0
  5
300
331
0
  5
301
331
0
  5
302
331
0
  5
303
331
0
  5
304
331
0
  5
305
331
0
  5
306
331
0
  5
307
331
0
  5
308
331
0
  5
309
331
0
  5
30A
331
0
  5
30B
331
0
  5
30C
331
0
  5
30D
331
0
  5
30E
331
0
  5
30F
331
0
  5
310
331
0
  5
311
331
0
  5
312
331
0
  5
313
331
0
  5
314
331
0
  5
315
331
0
  5
316
331
0
  5
317
331
0
  5
318
331
0
  5
319
331
0
  5
31A
331
0
  5
31B
331
0
  5
31C
331
0
  5
31D
331
0
  5
31E
331
0
  5
31F
331
0
  5
320
331
0
  5
321
331
0
  5
322
331
0
  5
323
331
0
  5
324
331
0
  5
325
331
0
  5
326
331
0
  5
327
331
0
  5
328
331
0
  5
329
331
0
  5
32A
331
0
  5
32B
331
0
  5
32C
331
0
  5
32D
331
0
  5
32E
331
0
  5
32F
331
0
  5
330
331
0
  5
331
331
0
  5
332
331
0
  5
333
331
0
  5
334
331
0
  5
335
331
0
  5
336
331
0
  5
337
331
0
  5
338
331
0
  5
339
331
0
  5
33A
331
0
  5
33B
331
0
  5
33C
331
0
  5
33D
331
0
  5
33E
331
0
  5
33F
331
0
  5
340
331
0
  5
341
331
0
  5
342
331
0
  5
343
331
0
  5
344
331
0
  5
345
331
0
  5
346
331
0
  5
347
331
0
  5
348
331
0
  5
349
331
0
  5
34A
331
0
  5
34B
331
0
  5
34C
331
0
  5
34D
331
0
  5
34E
331
0
  5
34F
331
0
  5
350
331
0
  5
351
331
0
  5
352
331
0
  5
353
331
0
  5
354
331
0
  5
355
331
0
  5
356
331
0
  5
357
331
0
  5
358
331
0
  5
359
331
0
  5
35A
331
0
  5
35B
331
0
  5
35C
331
0
  5
35D
331
0
  5
35E
331
0
  5
35F
331
0
  5
360
331
0
  5
361
331
0
  5
362
331
0
  5
363
331
0
  5
364
331
0
  5
365
331
0
  5
366
331
0
  5
367
331
0
  5
368
331
0
  5
369
331
0
  5
36A
331
0
  5
36B
331
0
  5
36C
331
0
  5
36D
331
0
  5
36E
331
0
  5
36F
331
0
  5
370
331
0
  5
371
331
0
  5
372
331
0
  5
373
331
0
  5
374
331
0
  5
375
331
0
  5
376
331
0
  5
377
331
0
  5
378
331
0
  5
379
331
0
  5
37A
331
0
  5
37B
331
0
  5
37C
331
0
  5
37D
331
0
  5
37E
331
0
  5
37F
331
0
  5
380
331
0
  5
381
331
0
  5
382
331
0
  5
383
331
0
  5
384
331
0
  5
385
331
0
  5
386
331
0
  5
387
331
0
  5
388
331
0
  5
389
331
0
  5
38A
331
0
  5
38B
331
0
  5
38C
331
0
  5
38D
331
0
  5
38E
331
0
  5
38F
331
0
  5
390
331
0
  5
391
331
0
  5
392
331
0
  5
393
331
0
  5
394
331
0
  5
395
331
0
  5
396
331
0
  5
397
331
0
  5
398
331
0
  5
399
331
0
  5
39A
331
0
  5
39B
331
0
  5
39C
331
0
  5
39D
331
0
  5
39E
331
0
  5
39F
331
0
  5
3A0
331
0
  5
3A1
331
0
  5
3A2
331
0
  5
3A3
331
0
  5
3A4
331
0
  5
3A5
331
0
  5
3A6
331
0
  5
3A7
331
0
  5
3A8
331
0
  5
3A9
331
0
  5
3AA
331
0
  5
3AB
331
0
  5
3AC
331
0
  5
3AD
331
0
  5
3AE
331
0
  5
3AF
331
0
  5
3B0
331
0
  5
3B1
331
0
  5
3B2
331
0
  5
3B3
331
0
  5
3B4
331
0
  5
3B5
331
0
  5
3B6
331
0
  5
3B7
331
0
  5
3B8
331
0
  5
3B9
331
0
  5
3BA
331
0
  5
3BB
331
0
  5
3BC
331
0
  5
3BD
331
0
  5
3BE
331
0
  5
3BF
331
0
  5
3C0
331
0
  5
3C1
331
0
  5
3C2
331
0
  5
3C3
331
0
  5
3C4
331
0
  5
3C5
331
0
  5
3C6
331
0
  5
3C7
331
0
  5
3C8
331
0
  5
3C9
331
0
  5
3CA
331
0
  5
3CB
331
0
  5
3CD
331
0
  5
3CE
331
0
  5
3CF
331
0
  5
3D0
331
0
  5
3D1
331
0
  5
3D2
331
0
  5
3D3
331
0
  5
3D4
331
0
  5
3D5
331
3D3
  5
3D6
331
3D4
  5
3D7
331
3D5
  5
3D8
331
3D6
  5
3D9
331
3D7
  5
3DA
331
3D8
  5
3DB
331
3D9
  5
3DC
331
3DA
  5
3DD
331
3DB
  5
3DE
331
3DC
  5
3DF
331
3DD
  5
3E0
331
3DE
  5
3E1
331
3DF
  5
3E2
331
3E0
  5
3E3
331
3E1
  5
3E4
331
3E2
  5
3E5
331
3E3
  5
3E6
331
3E4
  5
3E7
331
3E5
  5
3E8
331
3E6
  5
3E9
331
3E7
  5
3EA
331
3E8
  5
3EB
331
3E9
  5
3EC
331
3EA
  5
3ED
331
3EB
  5
3EE
331
3EC
  5
3EF
331
3ED
  5
3F0
331
3EE
  5
3F1
331
3EF
  5
3F2
331
3F0
  5
3F3
331
3F1
  5
3F4
331
3F2
  5
3F5
331
3F3
  5
3F6
331
3F4
  5
3F7
331
3F5
  5
3F8
331
3F6
  5
3F9
331
3F7
  5
3FA
331
3F8
  5
3FB
331
3F9
  5
3FC
331
3FA
  5
3FD
331
3FB
  5
3FE
331
3FC
  5
3FF
331
3FD
  5
400
331
3FE
  5
401
331
3FF
  5
402
331
400
  5
403
331
401
  5
404
331
402
  5
405
331
403
  5
406
331
404
  5
407
331
405
  5
408
331
406
  5
409
331
407
  5
40A
331
408
  5
40B
331
409
  5
40C
331
40A
  5
40D
331
40B
  5
40E
331
40C
  5
40F
331
40D
  5
410
331
40E
  5
411
331
40F
  5
412
331
410
  5
413
331
411
  5
414
331
412
  5
415
331
413
  5
416
331
414
  5
417
331
415
  5
418
331
416
  5
419
331
417
  5
41A
331
418
  5
41C
331
419
  5
41D
331
41A
  5
41E
331
41C
  5
41F
331
41D
  5
420
331
41E
  5
421
331
41F
  5
422
331
420
  5
423
331
421
  5
424
331
422
  5
425
331
423
  5
426
331
424
  5
427
331
425
  5
428
331
426
  5
429
331
427
  5
42A
331
428
  5
42B
331
429
  5
42C
331
43B
  5
43E
331
43C
  5
43F
331
43D
  5
440
331
43E
  5
441
331
43F
  5
442
331
440
  5
443
331
441
  5
444
331
442
  5
445
331
443
  5
446
331
444
  5
447
331
445
  5
448
331
446
  5
449
331
447
  5
44A
331
448
  5
44B
331
449
  5
44C
331
44A
  5
44D
331
44B
  5
44E
331
44C
  5
44F
331
44D
  5
450
331
44E
  5
451
331
44F
  5
452
331
450
  5
453
331
451
  5
454
331
452
  5
455
331
453
  5
456
331
454
  5
457
331
455
  5
458
331
456
  5
459
331
457
  5
45A
331
458
  5
45B
331
459
  5
45C
331
45A
  5
45D
331
45B
  5
45E
331
45C
  5
45F
331
45D
  5
460
331
45E
  5
461
331
45F
  5
462
331
460
  5
463
331
461
  5
464
331
462
  5
465
331
463
  5
466
331
464
  5
467
331
465
  5
468
331
466
  5
469
331
467
  5
46A
331
468
  5
46B
331
469
  5
46C
331
46A
  5
46D
331
46B
  5
46E
331
46C
  5
46F
331
46D
  5
470
331
46E
  5
471
331
46F
  5
472
331
470
  5
473
331
471
  5
474
331
472
  5
475
331
473
  5
476
331
474
  5
477
331
475
  5
478
331
476
  5
479
331
477
  5
47A
331
478
  5
47B
331
479
  5
47C
331
47A
  5
47D
331
47B
  5
47E
331
47C
  5
47F
331
47D
  5
480
331
47E
  5
481
331
47F
  5
482
331
480
  5
483
331
481
  5
484
331
482
  5
485
331
483
  5
486
331
484
  5
487
331
485
  5
488
331
486
  5
489
331
487
  5
48A
331
488
  5
48B
331
489
  5
48C
331
48A
  5
48D
331
48B
  5
48E
331
48C
  5
48F
331
48D
  5
490
331
48E
  5
491
331
48F
  5
492
331
490
  5
493
331
491
  5
494
331
492
  5
495
331
493
  5
496
331
494
  5
497
331
495
  5
498
331
496
  5
499
331
497
  5
49A
331
498
  5
49B
331
499
  5
49C
331
49A
  5
49D
331
49B
  5
49E
331
49C
  5
49F
331
49D
  5
4A0
331
49E
  5
4A1
331
49F
  5
4A2
331
4A0
  5
4A3
331
4A1
  5
4A4
331
4A2
  5
4A5
331
4A3
  5
4A6
331
4A4
  5
4A7
331
4A5
  5
4A8
331
4A6
  5
4A9
331
4A7
  5
4AA
331
4A8
  5
4AB
331
4A9
  5
4AC
331
4AA
  5
4AD
331
4AB
  5
4AE
331
4AC
  5
4AF
331
4AD
  5
4B0
331
4AE
  5
4B1
331
4AF
  5
4B2
331
4B0
  5
4D4
331
4B1
  5
4D5
331
4B2
  5
4D6
331
0
  5
4D7
331
0
  5
4D8
331
4D6
  5
4D9
331
4D7
  5
4DA
331
4D8
  5
4DB
331
4D9
  5
4DC
331
4DA
  5
4DD
331
4DB
  5
4DE
331
4DC
  5
4DF
331
4DD
  5
4E0
331
4DE
  5
4E1
331
4DF
  5
4E2
331
4E0
  5
4E3
331
4E1
  5
4E4
331
4E2
  5
4E5
331
4E3
  5
4E6
331
4E4
  5
4E7
331
4E5
  5
4E9
331
4E6
  5
4EA
331
4E7
  5
4EB
331
4E9
  5
4EC
331
4EA
  5
4ED
331
4EB
  5
4F0
331
4EC
  5
4F1
331
4ED
  5
4F2
331
4F0
  5
4F3
331
4F1
  5
4F4
331
4F2
  5
4F5
331
4F3
  5
4F6
331
4F4
  5
4F7
331
4F5
  5
4F8
331
4F6
  5
4F9
331
4F7
  5
4FA
331
4F8
  5
4FB
331
4F9
  5
4FC
331
4FA
  5
4FD
331
0
  5
4FE
331
0
  5
4FF
331
0
  5
500
331
0
  5
501
331
0
  5
502
331
0
  5
503
331
0
  5
504
331
0
  5
505
331
0
  5
506
331
0
  5
507
331
0
  5
508
331
0
  5
509
331
0
  5
50A
331
0
  5
50B
331
0
  5
50C
331
0
  5
50D
331
0
  5
50E
331
0
  5
50F
331
0
  5
510
331
0
  5
511
331
0
  5
512
331
0
  5
513
331
0
  5
514
  0
LAYOUT
  5
1D
102
{ACAD_REACTORS
330
1E
102
}
330
1E
100
AcDbPlotSettings
  1

  2
Bullzip PDF Printer.pc3
  4
A3
  6

 40
0.2
 41
0.0
 42
0.0
 43
0.0
 44
420.2
 45
297.1
 46
25.0
 47
12.0
 48
79.99999987333331
 49
0.0
140
1607.999996373333
141
1089.999997456666
142
1.0
143
4.0
 70
 11936
 72
     1
 73
     0
 74
     4
  7
monochrome.ctb
 75
    18
147
0.25
148
-79.99999987333331
149
0.0
100
AcDbLayout
  1
Model
 70
     0
 71
     0
 10
0.0
 20
0.0
 11
12.0
 21
9.0
 12
0.0
 22
0.0
 32
0.0
 14
90.91687643329851
 24
18.83686680777691
 34
0.0
 15
1260.656691876988
 25
1133.204631064534
 35
0.0
146
0.0
 13
0.0
 23
0.0
 33
0.0
 16
1.0
 26
0.0
 36
0.0
 17
0.0
 27
1.0
 37
0.0
 76
     0
330
17
331
2B
1001
ACAD_PSEXT
1000
Bullzip PDF Printer.pc3
1000
Bullzip PDF Printer
1000
BULLZIP
1000
Bullzip PDF Printer 10.1.0.1871
1070
     0
  0
LAYOUT
  5
23
102
{ACAD_REACTORS
330
1E
102
}
330
1E
100
AcDbPlotSettings
  1

  2
SR-LP8300F
  4

  6

 40
0.0
 41
0.0
 42
0.0
 43
0.0
 44
0.0
 45
0.0
 46
0.0
 47
0.0
 48
0.0
 49
0.0
140
0.0
141
0.0
142
1.0
143
1.0
 70
   688
 72
     0
 73
     0
 74
     5
  7
monochrome.ctb
 75
    16
147
1.0
148
0.0
149
0.0
100
AcDbLayout
  1
ﾚｲｱｳﾄ1
 70
     0
 71
     1
 10
0.0
 20
0.0
 11
12.0
 21
9.0
 12
0.0
 22
0.0
 32
0.0
 14
1000000000000000E+20
 24
1000000000000000E+20
 34
1000000000000000E+20
 15
-1000000000000000E+20
 25
-1000000000000000E+20
 35
-1000000000000000E+20
146
0.0
 13
0.0
 23
0.0
 33
0.0
 16
1.0
 26
0.0
 36
0.0
 17
0.0
 27
1.0
 37
0.0
 76
     0
330
20
  0
MATERIAL
  5
70
102
{ACAD_REACTORS
330
7
102
}
102
{ACAD_XDICTIONARY
360
534
102
}
330
7
100
AcDbMaterial
  1
ByBlock
  0
MATERIAL
  5
10
102
{ACAD_REACTORS
330
7
102
}
102
{ACAD_XDICTIONARY
360
530
102
}
330
7
100
AcDbMaterial
  1
ByLayer
  0
MATERIAL
  5
6
102
{ACAD_REACTORS
330
7
102
}
102
{ACAD_XDICTIONARY
360
532
102
}
330
7
100
AcDbMaterial
  1
Global
1001
ACAD
1070
    -1
1070
     3
1070
     0
1000

1071
        0
  0
MLEADERSTYLE
  5
4D1
102
{ACAD_REACTORS
330
4B6
102
}
102
{ACAD_XDICTIONARY
360
566
102
}
330
4B6
100
AcDbMLeaderStyle
170
     2
171
     1
172
     0
 90
        2
 40
0.0
 41
0.0
173
     1
 91
-1056964608
340
D
 92
       -2
290
     1
 42
0.09
291
     1
 43
0.36
  3
Standard
341
0
 44
0.18
300

342
E
174
     1
178
     6
175
     1
176
     0
 93
-1056964608
 45
0.18
292
     0
297
     0
 46
0.18
343
0
 94
-1056964608
 47
1.0
 49
1.0
140
1.0
293
     1
141
0.0
294
     1
177
     0
142
1.0
295
     0
296
     0
143
0.125
1001
ACAD_MLEADERVER
1070
     2
  0
MLINESTYLE
  5
14
102
{ACAD_REACTORS
330
15
102
}
330
15
100
AcDbMlineStyle
  2
STANDARD
 70
     0
  3

 62
     0
 51
90.0
 52
90.0
 71
     2
 49
0.5
 62
   256
  6
BYLAYER
 49
-0.5
 62
   256
  6
BYLAYER
  0
ACDBPLACEHOLDER
  5
3
102
{ACAD_REACTORS
330
4
102
}
330
4
  0
SCALE
  5
4F
102
{ACAD_REACTORS
330
2D
102
}
330
2D
100
AcDbScale
 70
     0
300
1:1
140
1.0
141
1.0
290
     1
  0
SCALE
  5
58
102
{ACAD_REACTORS
330
2D
102
}
330
2D
100
AcDbScale
 70
     0
300
1:40
140
1.0
141
40.0
290
     0
  0
SCALE
  5
59
102
{ACAD_REACTORS
330
2D
102
}
330
2D
100
AcDbScale
 70
     0
300
1:50
140
1.0
141
50.0
290
     0
  0
SCALE
  5
5A
102
{ACAD_REACTORS
330
2D
102
}
330
2D
100
AcDbScale
 70
     0
300
1:100
140
1.0
141
100.0
290
     0
  0
SCALE
  5
5B
102
{ACAD_REACTORS
330
2D
102
}
330
2D
100
AcDbScale
 70
     0
300
2:1
140
2.0
141
1.0
290
     0
  0
SCALE
  5
5C
102
{ACAD_REACTORS
330
2D
102
}
330
2D
100
AcDbScale
 70
     0
300
4:1
140
4.0
141
1.0
290
     0
  0
SCALE
  5
5D
102
{ACAD_REACTORS
330
2D
102
}
330
2D
100
AcDbScale
 70
     0
300
8:1
140
8.0
141
1.0
290
     0
  0
SCALE
  5
5E
102
{ACAD_REACTORS
330
2D
102
}
330
2D
100
AcDbScale
 70
     0
300
10:1
140
10.0
141
1.0
290
     0
  0
SCALE
  5
5F
102
{ACAD_REACTORS
330
2D
102
}
330
2D
100
AcDbScale
 70
     0
300
100:1
140
100.0
141
1.0
290
     0
  0
SCALE
  5
60
102
{ACAD_REACTORS
330
2D
102
}
330
2D
100
AcDbScale
 70
     0
300
1/128" = 1'-0"
140
0.0078125
141
12.0
290
     0
  0
SCALE
  5
61
102
{ACAD_REACTORS
330
2D
102
}
330
2D
100
AcDbScale
 70
     0
300
1/64" = 1'-0"
140
0.015625
141
12.0
290
     0
  0
SCALE
  5
50
102
{ACAD_REACTORS
330
2D
102
}
330
2D
100
AcDbScale
 70
     0
300
1:2
140
1.0
141
2.0
290
     0
  0
SCALE
  5
62
102
{ACAD_REACTORS
330
2D
102
}
330
2D
100
AcDbScale
 70
     0
300
1/32" = 1'-0"
140
0.03125
141
12.0
290
     0
  0
SCALE
  5
63
102
{ACAD_REACTORS
330
2D
102
}
330
2D
100
AcDbScale
 70
     0
300
1/16" = 1'-0"
140
0.0625
141
12.0
290
     0
  0
SCALE
  5
64
102
{ACAD_REACTORS
330
2D
102
}
330
2D
100
AcDbScale
 70
     0
300
3/32" = 1'-0"
140
0.09375
141
12.0
290
     0
  0
SCALE
  5
65
102
{ACAD_REACTORS
330
2D
102
}
330
2D
100
AcDbScale
 70
     0
300
1/8" = 1'-0"
140
0.125
141
12.0
290
     0
  0
SCALE
  5
66
102
{ACAD_REACTORS
330
2D
102
}
330
2D
100
AcDbScale
 70
     0
300
3/16" = 1'-0"
140
0.1875
141
12.0
290
     0
  0
SCALE
  5
67
102
{ACAD_REACTORS
330
2D
102
}
330
2D
100
AcDbScale
 70
     0
300
1/4" = 1'-0"
140
0.25
141
12.0
290
     0
  0
SCALE
  5
68
102
{ACAD_REACTORS
330
2D
102
}
330
2D
100
AcDbScale
 70
     0
300
3/8" = 1'-0"
140
0.375
141
12.0
290
     0
  0
SCALE
  5
69
102
{ACAD_REACTORS
330
2D
102
}
330
2D
100
AcDbScale
 70
     0
300
1/2" = 1'-0"
140
0.5
141
12.0
290
     0
  0
SCALE
  5
6A
102
{ACAD_REACTORS
330
2D
102
}
330
2D
100
AcDbScale
 70
     0
300
3/4" = 1'-0"
140
0.75
141
12.0
290
     0
  0
SCALE
  5
6B
102
{ACAD_REACTORS
330
2D
102
}
330
2D
100
AcDbScale
 70
     0
300
1" = 1'-0"
140
1.0
141
12.0
290
     0
  0
SCALE
  5
51
102
{ACAD_REACTORS
330
2D
102
}
330
2D
100
AcDbScale
 70
     0
300
1:4
140
1.0
141
4.0
290
     0
  0
SCALE
  5
6C
102
{ACAD_REACTORS
330
2D
102
}
330
2D
100
AcDbScale
 70
     0
300
1-1/2" = 1'-0"
140
1.5
141
12.0
290
     0
  0
SCALE
  5
6D
102
{ACAD_REACTORS
330
2D
102
}
330
2D
100
AcDbScale
 70
     0
300
3" = 1'-0"
140
3.0
141
12.0
290
     0
  0
SCALE
  5
6E
102
{ACAD_REACTORS
330
2D
102
}
330
2D
100
AcDbScale
 70
     0
300
6" = 1'-0"
140
6.0
141
12.0
290
     0
  0
SCALE
  5
6F
102
{ACAD_REACTORS
330
2D
102
}
330
2D
100
AcDbScale
 70
     0
300
1'-0" = 1'-0"
140
12.0
141
12.0
290
     0
  0
SCALE
  5
52
102
{ACAD_REACTORS
330
2D
102
}
330
2D
100
AcDbScale
 70
     0
300
1:5
140
1.0
141
5.0
290
     0
  0
SCALE
  5
53
102
{ACAD_REACTORS
330
2D
102
}
330
2D
100
AcDbScale
 70
     0
300
1:8
140
1.0
141
8.0
290
     0
  0
SCALE
  5
54
102
{ACAD_REACTORS
330
2D
102
}
330
2D
100
AcDbScale
 70
     0
300
1:10
140
1.0
141
10.0
290
     0
  0
SCALE
  5
55
102
{ACAD_REACTORS
330
2D
102
}
330
2D
100
AcDbScale
 70
     0
300
1:16
140
1.0
141
16.0
290
     0
  0
SCALE
  5
56
102
{ACAD_REACTORS
330
2D
102
}
330
2D
100
AcDbScale
 70
     0
300
1:20
140
1.0
141
20.0
290
     0
  0
SCALE
  5
57
102
{ACAD_REACTORS
330
2D
102
}
330
2D
100
AcDbScale
 70
     0
300
1:30
140
1.0
141
30.0
290
     0
  0
TABLESTYLE
  5
523
102
{ACAD_REACTORS
330
4B5
102
}
330
4B5
100
AcDbTableStyle
  3
Standard
 70
     0
 71
     0
 40
0.06
 41
0.06
280
     0
281
     0
  7
STANDARD
140
0.18
170
     2
 62
     0
 63
   257
283
     0
274
    -2
284
     1
 64
     0
275
    -2
285
     1
 65
     0
276
    -2
286
     1
 66
     0
277
    -2
287
     1
 67
     0
278
    -2
288
     1
 68
     0
279
    -2
289
     1
 69
     0
  7
STANDARD
140
0.25
170
     5
 62
     0
 63
   257
283
     0
274
    -2
284
     1
 64
     0
275
    -2
285
     1
 65
     0
276
    -2
286
     1
 66
     0
277
    -2
287
     1
 67
     0
278
    -2
288
     1
 68
     0
279
    -2
289
     1
 69
     0
  7
STANDARD
140
0.18
170
     5
 62
     0
 63
   257
283
     0
274
    -2
284
     1
 64
     0
275
    -2
285
     1
 65
     0
276
    -2
286
     1
 66
     0
277
    -2
287
     1
 67
     0
278
    -2
288
     1
 68
     0
279
    -2
289
     1
 69
     0
  0
VISUALSTYLE
  5
4BD
102
{ACAD_REACTORS
330
2A
102
}
102
{ACAD_XDICTIONARY
360
53E
102
}
330
2A
100
AcDbVisualStyle
  2
2dWireframe
 70
     4
 71
     0
 72
     2
 73
     0
 90
        0
 40
0.6
 41
30.0
 62
     5
 63
     7
 74
     1
 91
        4
 64
     7
 65
   257
 75
     1
175
     1
 42
1.0
 92
        0
 66
   257
 43
1.0
 76
     1
 77
     6
 78
     2
 67
     7
 79
     5
170
     0
171
     0
290
     0
174
     0
 93
        1
 44
0.0
173
     0
291
     0
 45
0.0
1001
ACAD
1000
AcDbSavedByObjectVersion
1070
     0
  0
VISUALSTYLE
  5
4C0
102
{ACAD_REACTORS
330
2A
102
}
102
{ACAD_XDICTIONARY
360
544
102
}
330
2A
100
AcDbVisualStyle
  2
Basic
 70
     7
 71
     1
 72
     0
 73
     1
 90
        0
 40
0.6
 41
30.0
 62
     5
 63
     7
 74
     0
 91
        4
 64
     7
 65
   257
 75
     1
175
     1
 42
1.0
 92
        8
 66
     7
 43
1.0
 76
     1
 77
     6
 78
     2
 67
     7
 79
     5
170
     0
171
     0
290
     0
174
     0
 93
        1
 44
0.0
173
     0
291
     1
 45
0.0
1001
ACAD
1000
AcDbSavedByObjectVersion
1070
     0
  0
VISUALSTYLE
  5
4C4
102
{ACAD_REACTORS
330
2A
102
}
102
{ACAD_XDICTIONARY
360
54C
102
}
330
2A
100
AcDbVisualStyle
  2
Brighten
 70
    12
 71
     2
 72
     2
 73
     0
 90
        0
 40
0.6
 41
30.0
 62
     5
 63
     7
 74
     1
 91
        4
 64
     7
 65
   257
 75
     1
175
     1
 42
1.0
 92
        8
 66
     7
 43
1.0
 76
     1
 77
     6
 78
     2
 67
     7
 79
     5
170
     0
171
     0
290
     0
174
     0
 93
        1
 44
50.0
173
     0
291
     1
 45
0.0
1001
ACAD
1000
AcDbSavedByObjectVersion
1070
     0
  0
VISUALSTYLE
  5
4C8
102
{ACAD_REACTORS
330
2A
102
}
102
{ACAD_XDICTIONARY
360
554
102
}
330
2A
100
AcDbVisualStyle
  2
ColorChange
 70
    16
 71
     2
 72
     2
 73
     3
 90
        0
 40
0.6
 41
30.0
 62
     5
 63
     8
 74
     1
 91
        4
 64
     7
 65
   257
 75
     1
175
     1
 42
1.0
 92
        8
 66
     8
 43
1.0
 76
     1
 77
     6
 78
     2
 67
     7
 79
     5
170
     0
171
     0
290
     0
174
     0
 93
        1
 44
0.0
173
     0
291
     1
 45
0.0
1001
ACAD
1000
AcDbSavedByObjectVersion
1070
     0
  0
VISUALSTYLE
  5
4C2
102
{ACAD_REACTORS
330
2A
102
}
102
{ACAD_XDICTIONARY
360
548
102
}
330
2A
100
AcDbVisualStyle
  2
Conceptual
 70
     9
 71
     3
 72
     2
 73
     0
 90
        0
 40
0.6
 41
30.0
 62
     5
 63
     7
 74
     2
 91
        2
 64
     7
 65
   257
 75
     1
175
     1
 42
40.0
 92
        8
 66
     7
 43
1.0
 76
     1
 77
     6
 78
     2
 67
     7
 79
     3
170
     0
171
     0
290
     0
174
     0
 93
        1
 44
0.0
173
     0
291
     0
 45
0.0
1001
ACAD
1000
AcDbSavedByObjectVersion
1070
     0
  0
VISUALSTYLE
  5
4C3
102
{ACAD_REACTORS
330
2A
102
}
102
{ACAD_XDICTIONARY
360
54A
102
}
330
2A
100
AcDbVisualStyle
  2
Dim
 70
    11
 71
     2
 72
     2
 73
     0
 90
        0
 40
0.6
 41
30.0
 62
     5
 63
     7
 74
     1
 91
        4
 64
     7
 65
   257
 75
     1
175
     1
 42
1.0
 92
        8
 66
     7
 43
1.0
 76
     1
 77
     6
 78
     2
 67
     7
 79
     5
170
     0
171
     0
290
     0
174
     0
 93
        1
 44
-50.0
173
     0
291
     1
 45
0.0
1001
ACAD
1000
AcDbSavedByObjectVersion
1070
     0
  0
VISUALSTYLE
  5
4CB
102
{ACAD_REACTORS
330
2A
102
}
102
{ACAD_XDICTIONARY
360
55A
102
}
330
2A
100
AcDbVisualStyle
  2
EdgeColorOff
 70
    22
 71
     2
 72
     2
 73
     0
 90
        0
 40
0.6
 41
30.0
 62
     5
 63
     7
 74
     1
 91
        4
 64
     7
 65
   257
 75
     1
175
     1
 42
1.0
 92
        8
 66
     7
 43
1.0
 76
     1
 77
     6
 78
     2
 67
     7
 79
     5
170
     0
171
     0
290
     0
174
     0
 93
        1
 44
0.0
173
     0
291
     1
 45
0.0
1001
ACAD
1000
AcDbSavedByObjectVersion
1070
     0
  0
VISUALSTYLE
  5
4C7
102
{ACAD_REACTORS
330
2A
102
}
102
{ACAD_XDICTIONARY
360
552
102
}
330
2A
100
AcDbVisualStyle
  2
Facepattern
 70
    15
 71
     2
 72
     2
 73
     0
 90
        0
 40
0.6
 41
30.0
 62
     5
 63
     7
 74
     1
 91
        4
 64
     7
 65
   257
 75
     1
175
     1
 42
1.0
 92
        8
 66
     7
 43
1.0
 76
     1
 77
     6
 78
     2
 67
     7
 79
     5
170
     0
171
     0
290
     0
174
     0
 93
        1
 44
0.0
173
     0
291
     1
 45
0.0
1001
ACAD
1000
AcDbSavedByObjectVersion
1070
     0
  0
VISUALSTYLE
  5
4B9
102
{ACAD_REACTORS
330
2A
102
}
102
{ACAD_XDICTIONARY
360
536
102
}
330
2A
100
AcDbVisualStyle
  2
Flat
 70
     0
 71
     2
 72
     1
 73
     1
 90
        2
 40
0.6
 41
30.0
 62
     5
 63
     7
 74
     0
 91
        4
 64
     7
 65
   257
 75
     1
175
     1
 42
1.0
 92
        8
 66
     7
 43
1.0
 76
     1
 77
     6
 78
     2
 67
     7
 79
     5
170
     0
171
     0
290
     0
174
     0
 93
       13
 44
0.0
173
     0
291
     1
 45
0.0
1001
ACAD
1000
AcDbSavedByObjectVersion
1070
     0
  0
VISUALSTYLE
  5
4BA
102
{ACAD_REACTORS
330
2A
102
}
102
{ACAD_XDICTIONARY
360
538
102
}
330
2A
100
AcDbVisualStyle
  2
FlatWithEdges
 70
     1
 71
     2
 72
     1
 73
     1
 90
        2
 40
0.6
 41
30.0
 62
     5
 63
     7
 74
     1
 91
        4
 64
     7
 65
   257
 75
     1
175
     1
 42
1.0
 92
        0
 66
   257
 43
1.0
 76
     1
 77
     6
 78
     2
 67
     7
 79
     5
170
     0
171
     0
290
     0
174
     0
 93
       13
 44
0.0
173
     0
291
     1
 45
0.0
1001
ACAD
1000
AcDbSavedByObjectVersion
1070
     0
  0
VISUALSTYLE
  5
4BB
102
{ACAD_REACTORS
330
2A
102
}
102
{ACAD_XDICTIONARY
360
53A
102
}
330
2A
100
AcDbVisualStyle
  2
Gouraud
 70
     2
 71
     2
 72
     2
 73
     1
 90
        2
 40
0.6
 41
30.0
 62
     5
 63
     7
 74
     0
 91
        4
 64
     7
 65
   257
 75
     1
175
     1
 42
1.0
 92
        0
 66
     7
 43
1.0
 76
     1
 77
     6
 78
     2
 67
     7
 79
     5
170
     0
171
     0
290
     0
174
     0
 93
       13
 44
0.0
173
     0
291
     1
 45
0.0
1001
ACAD
1000
AcDbSavedByObjectVersion
1070
     0
  0
VISUALSTYLE
  5
4BC
102
{ACAD_REACTORS
330
2A
102
}
102
{ACAD_XDICTIONARY
360
53C
102
}
330
2A
100
AcDbVisualStyle
  2
GouraudWithEdges
 70
     3
 71
     2
 72
     2
 73
     1
 90
        2
 40
0.6
 41
30.0
 62
     5
 63
     7
 74
     1
 91
        4
 64
     7
 65
   257
 75
     1
175
     1
 42
1.0
 92
        0
 66
   257
 43
1.0
 76
     1
 77
     6
 78
     2
 67
     7
 79
     5
170
     0
171
     0
290
     0
174
     0
 93
       13
 44
0.0
173
     0
291
     1
 45
0.0
1001
ACAD
1000
AcDbSavedByObjectVersion
1070
     0
  0
VISUALSTYLE
  5
4BF
102
{ACAD_REACTORS
330
2A
102
}
102
{ACAD_XDICTIONARY
360
542
102
}
330
2A
100
AcDbVisualStyle
  2
Hidden
 70
     6
 71
     1
 72
     2
 73
     2
 90
        0
 40
0.6
 41
30.0
 62
     5
 63
     7
 74
     2
 91
        2
 64
     7
 65
   257
 75
     2
175
     1
 42
40.0
 92
        0
 66
   257
 43
1.0
 76
     1
 77
     6
 78
     2
 67
     7
 79
     3
170
     0
171
     0
290
     0
174
     0
 93
        1
 44
0.0
173
     0
291
     0
 45
0.0
1001
ACAD
1000
AcDbSavedByObjectVersion
1070
     0
  0
VISUALSTYLE
  5
4C9
102
{ACAD_REACTORS
330
2A
102
}
102
{ACAD_XDICTIONARY
360
556
102
}
330
2A
100
AcDbVisualStyle
  2
JitterOff
 70
    20
 71
     2
 72
     2
 73
     0
 90
        0
 40
0.6
 41
30.0
 62
     5
 63
     7
 74
     1
 91
        4
 64
     7
 65
   257
 75
     1
175
     1
 42
1.0
 92
       10
 66
     7
 43
1.0
 76
     1
 77
     6
 78
     2
 67
     7
 79
     5
170
     0
171
     0
290
     0
174
     0
 93
        1
 44
0.0
173
     0
291
     1
 45
0.0
1001
ACAD
1000
AcDbSavedByObjectVersion
1070
     0
  0
VISUALSTYLE
  5
4C6
102
{ACAD_REACTORS
330
2A
102
}
102
{ACAD_XDICTIONARY
360
550
102
}
330
2A
100
AcDbVisualStyle
  2
Linepattern
 70
    14
 71
     2
 72
     2
 73
     0
 90
        0
 40
0.6
 41
30.0
 62
     5
 63
     7
 74
     1
 91
        4
 64
     7
 65
   257
 75
     7
175
     7
 42
1.0
 92
        8
 66
     7
 43
1.0
 76
     1
 77
     6
 78
     2
 67
     7
 79
     5
170
     0
171
     0
290
     0
174
     0
 93
        1
 44
0.0
173
     0
291
     1
 45
0.0
1001
ACAD
1000
AcDbSavedByObjectVersion
1070
     0
  0
VISUALSTYLE
  5
4CA
102
{ACAD_REACTORS
330
2A
102
}
102
{ACAD_XDICTIONARY
360
558
102
}
330
2A
100
AcDbVisualStyle
  2
OverhangOff
 70
    21
 71
     2
 72
     2
 73
     0
 90
        0
 40
0.6
 41
30.0
 62
     5
 63
     7
 74
     1
 91
        4
 64
     7
 65
   257
 75
     1
175
     1
 42
1.0
 92
        9
 66
     7
 43
1.0
 76
     1
 77
     6
 78
     2
 67
     7
 79
     5
170
     0
171
     0
290
     0
174
     0
 93
        1
 44
0.0
173
     0
291
     1
 45
0.0
1001
ACAD
1000
AcDbSavedByObjectVersion
1070
     0
  0
VISUALSTYLE
  5
4C1
102
{ACAD_REACTORS
330
2A
102
}
102
{ACAD_XDICTIONARY
360
546
102
}
330
2A
100
AcDbVisualStyle
  2
Realistic
 70
     8
 71
     2
 72
     3
 73
     0
 90
        2
 40
0.6
 41
30.0
 62
     5
 63
     7
 74
     0
 91
        0
 64
     7
 65
   257
 75
     1
175
     1
 42
1.0
 92
        8
 66
   257
 43
1.0
 76
     1
 77
     6
 78
     2
 67
     7
 79
     3
170
     0
171
     0
290
     0
174
     0
 93
       13
 44
0.0
173
     0
291
     0
 45
0.0
1001
ACAD
1000
AcDbSavedByObjectVersion
1070
     0
  0
VISUALSTYLE
  5
4D0
102
{ACAD_REACTORS
330
2A
102
}
102
{ACAD_XDICTIONARY
360
564
102
}
330
2A
100
AcDbVisualStyle
  2
Shaded
 70
    27
 71
     2
 72
     2
 73
     1
 90
        2
 40
0.6
 41
30.0
 62
     5
 63
     7
 74
     0
 91
        4
 64
     7
 65
   257
 75
     1
175
     1
 42
1.0
 92
        8
 66
   257
 43
1.0
 76
     1
 77
     6
 78
     2
 67
   251
 79
     3
170
     0
171
     0
290
     0
174
     0
 93
        5
 44
0.0
173
     0
291
     0
 45
0.0
1001
ACAD
1000
AcDbSavedByObjectVersion
1070
     0
  0
VISUALSTYLE
  5
4CF
102
{ACAD_REACTORS
330
2A
102
}
102
{ACAD_XDICTIONARY
360
562
102
}
330
2A
100
AcDbVisualStyle
  2
Shaded with edges
 70
    26
 71
     2
 72
     2
 73
     1
 90
        2
 40
0.6
 41
30.0
 62
     5
 63
     7
 74
     1
 91
       10
 64
     7
 65
   257
 75
     2
175
     1
 42
1.0
 92
        8
 66
   257
 43
1.0
 76
     1
 77
     6
 78
     2
 67
     7
 79
     3
170
     0
171
     0
290
     0
174
     0
 93
        5
 44
0.0
173
     0
291
     0
 45
0.0
1001
ACAD
1000
AcDbSavedByObjectVersion
1070
     0
  0
VISUALSTYLE
  5
4CC
102
{ACAD_REACTORS
330
2A
102
}
102
{ACAD_XDICTIONARY
360
55C
102
}
330
2A
100
AcDbVisualStyle
  2
Shades of Gray
 70
    23
 71
     2
 72
     2
 73
     3
 90
        0
 40
0.6
 41
30.0
 62
     5
 63
     7
 74
     2
 91
        2
 64
     7
 65
     7
 75
     1
175
     1
 42
40.0
 92
        8
 66
     7
 43
1.0
 76
     1
 77
     6
 78
     2
 67
     7
 79
     3
170
     0
171
     0
290
     0
174
     0
 93
        1
 44
0.0
173
     0
291
     0
 45
0.0
1001
ACAD
1000
AcDbSavedByObjectVersion
1070
     0
  0
VISUALSTYLE
  5
4CD
102
{ACAD_REACTORS
330
2A
102
}
102
{ACAD_XDICTIONARY
360
55E
102
}
330
2A
100
AcDbVisualStyle
  2
Sketchy
 70
    24
 71
     1
 72
     2
 73
     2
 90
        0
 40
0.6
 41
30.0
 62
     5
 63
     7
 74
     2
 91
        2
 64
     7
 65
     7
 75
     1
175
     1
 42
40.0
 92
       11
 66
     7
 43
1.0
 76
     1
 77
     6
 78
     2
 67
     7
 79
     6
170
     0
171
     0
290
     0
174
     0
 93
        1
 44
0.0
173
     0
291
     0
 45
0.0
1001
ACAD
1000
AcDbSavedByObjectVersion
1070
     0
  0
VISUALSTYLE
  5
4C5
102
{ACAD_REACTORS
330
2A
102
}
102
{ACAD_XDICTIONARY
360
54E
102
}
330
2A
100
AcDbVisualStyle
  2
Thicken
 70
    13
 71
     2
 72
     2
 73
     0
 90
        0
 40
0.6
 41
30.0
 62
     5
 63
     7
 74
     1
 91
        4
 64
     7
 65
   257
 75
     1
175
     1
 42
1.0
 92
       12
 66
     7
 43
1.0
 76
     1
 77
     6
 78
     2
 67
     7
 79
     5
170
     0
171
     0
290
     0
174
     0
 93
        1
 44
0.0
173
     0
291
     1
 45
0.0
1001
ACAD
1000
AcDbSavedByObjectVersion
1070
     0
  0
VISUALSTYLE
  5
4BE
102
{ACAD_REACTORS
330
2A
102
}
102
{ACAD_XDICTIONARY
360
540
102
}
330
2A
100
AcDbVisualStyle
  2
Wireframe
 70
     5
 71
     0
 72
     2
 73
     0
 90
        0
 40
0.6
 41
30.0
 62
     5
 63
     7
 74
     1
 91
        4
 64
     7
 65
   257
 75
     1
175
     1
 42
1.0
 92
        0
 66
   257
 43
1.0
 76
     1
 77
     6
 78
     2
 67
     7
 79
     5
170
     0
171
     0
290
     0
174
     0
 93
        1
 44
0.0
173
     0
291
     0
 45
0.0
1001
ACAD
1000
AcDbSavedByObjectVersion
1070
     0
  0
VISUALSTYLE
  5
4CE
102
{ACAD_REACTORS
330
2A
102
}
102
{ACAD_XDICTIONARY
360
560
102
}
330
2A
100
AcDbVisualStyle
  2
X-Ray
 70
    25
 71
     2
 72
     2
 73
     1
 90
        1
 40
0.5
 41
30.0
 62
     5
 63
     7
 74
     1
 91
        0
 64
     7
 65
   257
 75
     1
175
     1
 42
1.0
 92
        8
 66
     7
 43
1.0
 76
     1
 77
     6
 78
     2
 67
     7
 79
     3
170
     0
171
     0
290
     0
174
     0
 93
       13
 44
0.0
173
     0
291
     0
 45
0.0
1001
ACAD
1000
AcDbSavedByObjectVersion
1070
     0
  0
XRECORD
  5
52A
102
{ACAD_REACTORS
330
529
102
}
330
529
100
AcDbXrecord
280
     1
340
29
  0
XRECORD
  5
52B
102
{ACAD_REACTORS
330
529
102
}
330
529
100
AcDbXrecord
280
     1
340
7
  0
DICTIONARYVAR
  5
4B4
102
{ACAD_REACTORS
330
4B3
102
}
330
4B3
100
DictionaryVariables
280
     0
  1
1:1
  0
DICTIONARYVAR
  5
4D3
102
{ACAD_REACTORS
330
4B3
102
}
330
4B3
100
DictionaryVariables
280
     0
  1
Standard
  0
DICTIONARYVAR
  5
524
102
{ACAD_REACTORS
330
4B3
102
}
330
4B3
100
DictionaryVariables
280
     0
  1
Standard
  0
DICTIONARYVAR
  5
526
102
{ACAD_REACTORS
330
4B3
102
}
330
4B3
100
DictionaryVariables
280
     0
  1
0
  0
DICTIONARYVAR
  5
528
102
{ACAD_REACTORS
330
4B3
102
}
330
4B3
100
DictionaryVariables
280
     0
  1
1
  0
DICTIONARYVAR
  5
52F
102
{ACAD_REACTORS
330
4B3
102
}
330
4B3
100
DictionaryVariables
280
     0
  1
1
  0
DICTIONARYVAR
  5
527
102
{ACAD_REACTORS
330
4B3
102
}
330
4B3
100
DictionaryVariables
280
     0
  1
0
  0
DICTIONARY
  5
534
330
70
100
AcDbDictionary
280
     1
281
     1
  3
ACAD_XREC_ROUNDTRIP
360
535
  0
DICTIONARY
  5
530
330
10
100
AcDbDictionary
280
     1
281
     1
  3
ACAD_XREC_ROUNDTRIP
360
531
  0
DICTIONARY
  5
532
330
6
100
AcDbDictionary
280
     1
281
     1
  3
ACAD_XREC_ROUNDTRIP
360
533
  0
DICTIONARY
  5
566
330
4D1
100
AcDbDictionary
280
     1
281
     1
  3
ACAD_XREC_ROUNDTRIP
360
567
  0
DICTIONARY
  5
53E
330
4BD
100
AcDbDictionary
280
     1
281
     1
  3
ACAD_XREC_ROUNDTRIP
360
53F
  0
DICTIONARY
  5
544
330
4C0
100
AcDbDictionary
280
     1
281
     1
  3
ACAD_XREC_ROUNDTRIP
360
545
  0
DICTIONARY
  5
54C
330
4C4
100
AcDbDictionary
280
     1
281
     1
  3
ACAD_XREC_ROUNDTRIP
360
54D
  0
DICTIONARY
  5
554
330
4C8
100
AcDbDictionary
280
     1
281
     1
  3
ACAD_XREC_ROUNDTRIP
360
555
  0
DICTIONARY
  5
548
330
4C2
100
AcDbDictionary
280
     1
281
     1
  3
ACAD_XREC_ROUNDTRIP
360
549
  0
DICTIONARY
  5
54A
330
4C3
100
AcDbDictionary
280
     1
281
     1
  3
ACAD_XREC_ROUNDTRIP
360
54B
  0
DICTIONARY
  5
55A
330
4CB
100
AcDbDictionary
280
     1
281
     1
  3
ACAD_XREC_ROUNDTRIP
360
55B
  0
DICTIONARY
  5
552
330
4C7
100
AcDbDictionary
280
     1
281
     1
  3
ACAD_XREC_ROUNDTRIP
360
553
  0
DICTIONARY
  5
536
330
4B9
100
AcDbDictionary
280
     1
281
     1
  3
ACAD_XREC_ROUNDTRIP
360
537
  0
DICTIONARY
  5
538
330
4BA
100
AcDbDictionary
280
     1
281
     1
  3
ACAD_XREC_ROUNDTRIP
360
539
  0
DICTIONARY
  5
53A
330
4BB
100
AcDbDictionary
280
     1
281
     1
  3
ACAD_XREC_ROUNDTRIP
360
53B
  0
DICTIONARY
  5
53C
330
4BC
100
AcDbDictionary
280
     1
281
     1
  3
ACAD_XREC_ROUNDTRIP
360
53D
  0
DICTIONARY
  5
542
330
4BF
100
AcDbDictionary
280
     1
281
     1
  3
ACAD_XREC_ROUNDTRIP
360
543
  0
DICTIONARY
  5
556
330
4C9
100
AcDbDictionary
280
     1
281
     1
  3
ACAD_XREC_ROUNDTRIP
360
557
  0
DICTIONARY
  5
550
330
4C6
100
AcDbDictionary
280
     1
281
     1
  3
ACAD_XREC_ROUNDTRIP
360
551
  0
DICTIONARY
  5
558
330
4CA
100
AcDbDictionary
280
     1
281
     1
  3
ACAD_XREC_ROUNDTRIP
360
559
  0
DICTIONARY
  5
546
330
4C1
100
AcDbDictionary
280
     1
281
     1
  3
ACAD_XREC_ROUNDTRIP
360
547
  0
DICTIONARY
  5
564
330
4D0
100
AcDbDictionary
280
     1
281
     1
  3
ACAD_XREC_ROUNDTRIP
360
565
  0
DICTIONARY
  5
562
330
4CF
100
AcDbDictionary
280
     1
281
     1
  3
ACAD_XREC_ROUNDTRIP
360
563
  0
DICTIONARY
  5
55C
330
4CC
100
AcDbDictionary
280
     1
281
     1
  3
ACAD_XREC_ROUNDTRIP
360
55D
  0
DICTIONARY
  5
55E
330
4CD
100
AcDbDictionary
280
     1
281
     1
  3
ACAD_XREC_ROUNDTRIP
360
55F
  0
DICTIONARY
  5
54E
330
4C5
100
AcDbDictionary
280
     1
281
     1
  3
ACAD_XREC_ROUNDTRIP
360
54F
  0
DICTIONARY
  5
540
330
4BE
100
AcDbDictionary
280
     1
281
     1
  3
ACAD_XREC_ROUNDTRIP
360
541
  0
DICTIONARY
  5
560
330
4CE
100
AcDbDictionary
280
     1
281
     1
  3
ACAD_XREC_ROUNDTRIP
360
561
  0
XRECORD
  5
535
102
{ACAD_REACTORS
330
534
102
}
330
534
100
AcDbXrecord
280
     1
102
MATERIAL
148
0.0
149
0.0
149
0.0
 93
        0
 94
      127
282
     0
 72
     1
 77
     1
171
     1
175
     1
179
     1
273
     0
  0
XRECORD
  5
531
102
{ACAD_REACTORS
330
530
102
}
330
530
100
AcDbXrecord
280
     1
102
MATERIAL
148
0.0
149
0.0
149
0.0
 93
        0
 94
      127
282
     0
 72
     1
 77
     1
171
     1
175
     1
179
     1
273
     0
  0
XRECORD
  5
533
102
{ACAD_REACTORS
330
532
102
}
330
532
100
AcDbXrecord
280
     1
102
MATERIAL
148
0.0
149
0.0
149
0.0
 93
        0
 94
      127
282
     0
 72
     1
 77
     1
171
     1
175
     1
179
     1
273
     0
  0
XRECORD
  5
567
102
{ACAD_REACTORS
330
566
102
}
330
566
100
AcDbXrecord
280
     1
102
ACAD_ROUNDTRIP_2010_MLEADER_STYLE
  0
XRECORD
  5
53F
102
{ACAD_REACTORS
330
53E
102
}
330
53E
100
AcDbXrecord
280
     1
102
RTVSPropertyOp0
 70
     1
102
RTVSPropertyOp1
 70
     1
102
RTVSPropertyOp2
 70
     1
102
RTVSPropertyOp3
 70
     1
102
RTVSPropertyOp4
 70
     1
102
RTVSPropertyOp5
 70
     1
102
RTVSPropertyOp6
 70
     1
102
RTVSPropertyOp7
 70
     1
102
RTVSPropertyOp8
 70
     1
102
RTVSPropertyOp9
 70
     1
102
RTVSPropertyOp10
 70
     1
102
RTVSPropertyOp11
 70
     1
102
RTVSPropertyOp12
 70
     1
102
RTVSPropertyOp13
 70
     1
102
RTVSPropertyOp14
 70
     1
102
RTVSPropertyOp15
 70
     1
102
RTVSPropertyOp16
 70
     1
102
RTVSPropertyOp17
 70
     1
102
RTVSPropertyOp18
 70
     1
102
RTVSPropertyOp19
 70
     1
102
RTVSPropertyOp20
 70
     1
102
RTVSPropertyOp21
 70
     1
102
RTVSPropertyOp22
 70
     1
102
RTVSPropertyOp23
 70
     1
102
RTVSPropertyOp24
 70
     1
102
RTVSPropertyOp25
 70
     1
102
RTVSPropertyOp26
 70
     1
102
RTVSPropertyOp27
 70
     1
102
RTVSPropertyOp28
 70
     1
102
RTVSPropertyOp29
 70
     1
102
RTVSPropertyOp30
 70
     1
102
RTVSPropertyOp31
 70
     1
102
RTVSPropertyOp32
 70
     1
102
RTVSPropertyOp33
 70
     1
102
RTVSPropertyOp34
 70
     1
102
RTVSPropertyOp35
 70
     1
102
RTVSPropertyOp36
 70
     1
102
RTVSPropertyOp37
 70
     1
102
RTVSPropertyOp38
 70
     1
102
RTVSPropertyOp39
 70
     1
102
RTVSPropertyOp40
 70
     1
102
RTVSPropertyOp41
 70
     1
102
RTVSPropertyOp42
 70
     1
102
RTVSPropertyOp43
 70
     1
102
RTVSPropertyOp44
 70
     1
102
RTVSPropertyOp45
 70
     1
102
RTVSPropertyOp46
 70
     1
102
RTVSPropertyOp47
 70
     1
102
RTVSPropertyOp48
 70
     1
102
RTVSPropertyOp49
 70
     1
102
RTVSPropertyOp50
 70
     1
102
RTVSPropertyOp51
 70
     0
102
RTVSPropertyOp52
 70
     0
102
RTVSPropertyOp53
 70
     1
102
RTVSPropertyOp54
 70
     1
102
RTVSPropertyOp55
 70
     1
102
RTVSPropertyOp56
 70
     1
102
RTVSPropertyOp57
 70
     1
102
RTVSPost2010Prop28
280
     1
102
RTVSPost2010PropOp28
 70
     1
102
RTVSPost2010Prop29
280
     1
102
RTVSPost2010PropOp29
 70
     1
102
RTVSPost2010Prop30
280
     0
102
RTVSPost2010PropOp30
 70
     1
102
RTVSPost2010Prop31
280
     0
102
RTVSPost2010PropOp31
 70
     1
102
RTVSPost2010Prop32
280
     0
102
RTVSPost2010PropOp32
 70
     1
102
RTVSPost2010Prop33
280
     0
102
RTVSPost2010PropOp33
 70
     1
102
RTVSPost2010Prop34
280
     0
102
RTVSPost2010PropOp34
 70
     1
102
RTVSPost2010Prop35
280
     0
102
RTVSPost2010PropOp35
 70
     1
102
RTVSPost2010Prop36
280
     0
102
RTVSPost2010PropOp36
 70
     1
102
RTVSPost2010Prop37
 90
       50
102
RTVSPost2010PropOp37
 70
     1
102
RTVSPost2010Prop38
140
0.0
102
RTVSPost2010PropOp38
 70
     1
102
RTVSPost2010Prop39
140
1.0
102
RTVSPost2010PropOp39
 70
     1
102
RTVSPost2010Prop40
 90
        0
102
RTVSPost2010PropOp40
 70
     1
102
RTVSPost2010Prop41ColorIndex
 90
       18
102
RTVSPost2010Prop41ColorRGB
 90
        0
102
RTVSPost2010PropOp41
 70
     1
102
RTVSPost2010Prop42
 90
       50
102
RTVSPost2010PropOp42
 70
     1
102
RTVSPost2010Prop43
 90
        3
102
RTVSPost2010PropOp43
 70
     1
102
RTVSPost2010Prop44ColorIndex
 90
        5
102
RTVSPost2010Prop44ColorRGB
 90
      255
102
RTVSPost2010PropOp44
 70
     1
102
RTVSPost2010Prop45
280
     0
102
RTVSPost2010PropOp45
 70
     1
102
RTVSPost2010Prop46
 90
       50
102
RTVSPost2010PropOp46
 70
     1
102
RTVSPost2010Prop47
 90
       50
102
RTVSPost2010PropOp47
 70
     1
102
RTVSPost2010Prop48
 90
       50
102
RTVSPost2010PropOp48
 70
     1
102
RTVSPost2010Prop49
280
     0
102
RTVSPost2010PropOp49
 70
     1
102
RTVSPost2010Prop50
 90
       50
102
RTVSPost2010PropOp50
 70
     1
102
RTVSPost2010Prop51ColorIndex
 90
      256
102
RTVSPost2010Prop51ColorRGB
 90
-16777216
102
RTVSPost2010PropOp51
 70
     0
102
RTVSPost2010Prop52
140
1.0
102
RTVSPost2010PropOp52
 70
     0
102
RTVSPost2010Prop53
 90
        2
102
RTVSPost2010PropOp53
 70
     1
102
RTVSPost2010Prop54
  1
strokes_ogs.tif
102
RTVSPost2010PropOp54
 70
     1
102
RTVSPost2010Prop55
280
     0
102
RTVSPost2010PropOp55
 70
     1
102
RTVSPost2010Prop56
140
1.0
102
RTVSPost2010PropOp56
 70
     1
102
RTVSPost2010Prop57
140
1.0
102
RTVSPost2010PropOp57
 70
     1
  0
XRECORD
  5
545
102
{ACAD_REACTORS
330
544
102
}
330
544
100
AcDbXrecord
280
     1
102
RTVSPropertyOp0
 70
     1
102
RTVSPropertyOp1
 70
     1
102
RTVSPropertyOp2
 70
     1
102
RTVSPropertyOp3
 70
     1
102
RTVSPropertyOp4
 70
     1
102
RTVSPropertyOp5
 70
     1
102
RTVSPropertyOp6
 70
     1
102
RTVSPropertyOp7
 70
     1
102
RTVSPropertyOp8
 70
     1
102
RTVSPropertyOp9
 70
     1
102
RTVSPropertyOp10
 70
     1
102
RTVSPropertyOp11
 70
     1
102
RTVSPropertyOp12
 70
     1
102
RTVSPropertyOp13
 70
     1
102
RTVSPropertyOp14
 70
     1
102
RTVSPropertyOp15
 70
     1
102
RTVSPropertyOp16
 70
     1
102
RTVSPropertyOp17
 70
     1
102
RTVSPropertyOp18
 70
     1
102
RTVSPropertyOp19
 70
     1
102
RTVSPropertyOp20
 70
     1
102
RTVSPropertyOp21
 70
     1
102
RTVSPropertyOp22
 70
     1
102
RTVSPropertyOp23
 70
     1
102
RTVSPropertyOp24
 70
     1
102
RTVSPropertyOp25
 70
     1
102
RTVSPropertyOp26
 70
     1
102
RTVSPropertyOp27
 70
     1
102
RTVSPropertyOp28
 70
     1
102
RTVSPropertyOp29
 70
     1
102
RTVSPropertyOp30
 70
     1
102
RTVSPropertyOp31
 70
     1
102
RTVSPropertyOp32
 70
     1
102
RTVSPropertyOp33
 70
     1
102
RTVSPropertyOp34
 70
     1
102
RTVSPropertyOp35
 70
     1
102
RTVSPropertyOp36
 70
     1
102
RTVSPropertyOp37
 70
     1
102
RTVSPropertyOp38
 70
     1
102
RTVSPropertyOp39
 70
     1
102
RTVSPropertyOp40
 70
     1
102
RTVSPropertyOp41
 70
     1
102
RTVSPropertyOp42
 70
     1
102
RTVSPropertyOp43
 70
     1
102
RTVSPropertyOp44
 70
     1
102
RTVSPropertyOp45
 70
     1
102
RTVSPropertyOp46
 70
     1
102
RTVSPropertyOp47
 70
     1
102
RTVSPropertyOp48
 70
     1
102
RTVSPropertyOp49
 70
     1
102
RTVSPropertyOp50
 70
     1
102
RTVSPropertyOp51
 70
     0
102
RTVSPropertyOp52
 70
     0
102
RTVSPropertyOp53
 70
     1
102
RTVSPropertyOp54
 70
     1
102
RTVSPropertyOp55
 70
     1
102
RTVSPropertyOp56
 70
     1
102
RTVSPropertyOp57
 70
     1
102
RTVSPost2010Prop28
280
     0
102
RTVSPost2010PropOp28
 70
     1
102
RTVSPost2010Prop29
280
     1
102
RTVSPost2010PropOp29
 70
     1
102
RTVSPost2010Prop30
280
     1
102
RTVSPost2010PropOp30
 70
     1
102
RTVSPost2010Prop31
280
     0
102
RTVSPost2010PropOp31
 70
     1
102
RTVSPost2010Prop32
280
     0
102
RTVSPost2010PropOp32
 70
     1
102
RTVSPost2010Prop33
280
     0
102
RTVSPost2010PropOp33
 70
     1
102
RTVSPost2010Prop34
280
     0
102
RTVSPost2010PropOp34
 70
     1
102
RTVSPost2010Prop35
280
     0
102
RTVSPost2010PropOp35
 70
     1
102
RTVSPost2010Prop36
280
     0
102
RTVSPost2010PropOp36
 70
     1
102
RTVSPost2010Prop37
 90
       50
102
RTVSPost2010PropOp37
 70
     1
102
RTVSPost2010Prop38
140
0.0
102
RTVSPost2010PropOp38
 70
     1
102
RTVSPost2010Prop39
140
1.0
102
RTVSPost2010PropOp39
 70
     1
102
RTVSPost2010Prop40
 90
        0
102
RTVSPost2010PropOp40
 70
     1
102
RTVSPost2010Prop41ColorIndex
 90
       18
102
RTVSPost2010Prop41ColorRGB
 90
        0
102
RTVSPost2010PropOp41
 70
     1
102
RTVSPost2010Prop42
 90
       50
102
RTVSPost2010PropOp42
 70
     1
102
RTVSPost2010Prop43
 90
        3
102
RTVSPost2010PropOp43
 70
     1
102
RTVSPost2010Prop44ColorIndex
 90
        5
102
RTVSPost2010Prop44ColorRGB
 90
      255
102
RTVSPost2010PropOp44
 70
     1
102
RTVSPost2010Prop45
280
     0
102
RTVSPost2010PropOp45
 70
     1
102
RTVSPost2010Prop46
 90
       50
102
RTVSPost2010PropOp46
 70
     1
102
RTVSPost2010Prop47
 90
       50
102
RTVSPost2010PropOp47
 70
     1
102
RTVSPost2010Prop48
 90
       50
102
RTVSPost2010PropOp48
 70
     1
102
RTVSPost2010Prop49
280
     0
102
RTVSPost2010PropOp49
 70
     1
102
RTVSPost2010Prop50
 90
       50
102
RTVSPost2010PropOp50
 70
     1
102
RTVSPost2010Prop51ColorIndex
 90
      256
102
RTVSPost2010Prop51ColorRGB
 90
-16777216
102
RTVSPost2010PropOp51
 70
     0
102
RTVSPost2010Prop52
140
1.0
102
RTVSPost2010PropOp52
 70
     0
102
RTVSPost2010Prop53
 90
        2
102
RTVSPost2010PropOp53
 70
     1
102
RTVSPost2010Prop54
  1
strokes_ogs.tif
102
RTVSPost2010PropOp54
 70
     1
102
RTVSPost2010Prop55
280
     0
102
RTVSPost2010PropOp55
 70
     1
102
RTVSPost2010Prop56
140
1.0
102
RTVSPost2010PropOp56
 70
     1
102
RTVSPost2010Prop57
140
1.0
102
RTVSPost2010PropOp57
 70
     1
  0
XRECORD
  5
54D
102
{ACAD_REACTORS
330
54C
102
}
330
54C
100
AcDbXrecord
280
     1
102
RTVSPropertyOp0
 70
     1
102
RTVSPropertyOp1
 70
     1
102
RTVSPropertyOp2
 70
     1
102
RTVSPropertyOp3
 70
     1
102
RTVSPropertyOp4
 70
     1
102
RTVSPropertyOp5
 70
     1
102
RTVSPropertyOp6
 70
     1
102
RTVSPropertyOp7
 70
     1
102
RTVSPropertyOp8
 70
     1
102
RTVSPropertyOp9
 70
     1
102
RTVSPropertyOp10
 70
     1
102
RTVSPropertyOp11
 70
     1
102
RTVSPropertyOp12
 70
     1
102
RTVSPropertyOp13
 70
     1
102
RTVSPropertyOp14
 70
     1
102
RTVSPropertyOp15
 70
     1
102
RTVSPropertyOp16
 70
     1
102
RTVSPropertyOp17
 70
     1
102
RTVSPropertyOp18
 70
     1
102
RTVSPropertyOp19
 70
     1
102
RTVSPropertyOp20
 70
     1
102
RTVSPropertyOp21
 70
     1
102
RTVSPropertyOp22
 70
     1
102
RTVSPropertyOp23
 70
     1
102
RTVSPropertyOp24
 70
     1
102
RTVSPropertyOp25
 70
     1
102
RTVSPropertyOp26
 70
     1
102
RTVSPropertyOp27
 70
     1
102
RTVSPropertyOp28
 70
     1
102
RTVSPropertyOp29
 70
     1
102
RTVSPropertyOp30
 70
     1
102
RTVSPropertyOp31
 70
     1
102
RTVSPropertyOp32
 70
     1
102
RTVSPropertyOp33
 70
     1
102
RTVSPropertyOp34
 70
     1
102
RTVSPropertyOp35
 70
     1
102
RTVSPropertyOp36
 70
     1
102
RTVSPropertyOp37
 70
     1
102
RTVSPropertyOp38
 70
     1
102
RTVSPropertyOp39
 70
     1
102
RTVSPropertyOp40
 70
     1
102
RTVSPropertyOp41
 70
     1
102
RTVSPropertyOp42
 70
     1
102
RTVSPropertyOp43
 70
     1
102
RTVSPropertyOp44
 70
     1
102
RTVSPropertyOp45
 70
     1
102
RTVSPropertyOp46
 70
     1
102
RTVSPropertyOp47
 70
     1
102
RTVSPropertyOp48
 70
     1
102
RTVSPropertyOp49
 70
     1
102
RTVSPropertyOp50
 70
     1
102
RTVSPropertyOp51
 70
     0
102
RTVSPropertyOp52
 70
     0
102
RTVSPropertyOp53
 70
     1
102
RTVSPropertyOp54
 70
     1
102
RTVSPropertyOp55
 70
     1
102
RTVSPropertyOp56
 70
     1
102
RTVSPropertyOp57
 70
     1
102
RTVSPost2010Prop28
280
     0
102
RTVSPost2010PropOp28
 70
     1
102
RTVSPost2010Prop29
280
     1
102
RTVSPost2010PropOp29
 70
     1
102
RTVSPost2010Prop30
280
     1
102
RTVSPost2010PropOp30
 70
     1
102
RTVSPost2010Prop31
280
     0
102
RTVSPost2010PropOp31
 70
     1
102
RTVSPost2010Prop32
280
     0
102
RTVSPost2010PropOp32
 70
     1
102
RTVSPost2010Prop33
280
     0
102
RTVSPost2010PropOp33
 70
     1
102
RTVSPost2010Prop34
280
     0
102
RTVSPost2010PropOp34
 70
     1
102
RTVSPost2010Prop35
280
     0
102
RTVSPost2010PropOp35
 70
     1
102
RTVSPost2010Prop36
280
     0
102
RTVSPost2010PropOp36
 70
     1
102
RTVSPost2010Prop37
 90
       50
102
RTVSPost2010PropOp37
 70
     1
102
RTVSPost2010Prop38
140
0.0
102
RTVSPost2010PropOp38
 70
     1
102
RTVSPost2010Prop39
140
1.0
102
RTVSPost2010PropOp39
 70
     1
102
RTVSPost2010Prop40
 90
        0
102
RTVSPost2010PropOp40
 70
     1
102
RTVSPost2010Prop41ColorIndex
 90
       18
102
RTVSPost2010Prop41ColorRGB
 90
        0
102
RTVSPost2010PropOp41
 70
     1
102
RTVSPost2010Prop42
 90
       50
102
RTVSPost2010PropOp42
 70
     1
102
RTVSPost2010Prop43
 90
        3
102
RTVSPost2010PropOp43
 70
     1
102
RTVSPost2010Prop44ColorIndex
 90
        5
102
RTVSPost2010Prop44ColorRGB
 90
      255
102
RTVSPost2010PropOp44
 70
     1
102
RTVSPost2010Prop45
280
     0
102
RTVSPost2010PropOp45
 70
     1
102
RTVSPost2010Prop46
 90
       50
102
RTVSPost2010PropOp46
 70
     1
102
RTVSPost2010Prop47
 90
       50
102
RTVSPost2010PropOp47
 70
     1
102
RTVSPost2010Prop48
 90
       50
102
RTVSPost2010PropOp48
 70
     1
102
RTVSPost2010Prop49
280
     0
102
RTVSPost2010PropOp49
 70
     1
102
RTVSPost2010Prop50
 90
       50
102
RTVSPost2010PropOp50
 70
     1
102
RTVSPost2010Prop51ColorIndex
 90
      256
102
RTVSPost2010Prop51ColorRGB
 90
-16777216
102
RTVSPost2010PropOp51
 70
     0
102
RTVSPost2010Prop52
140
1.0
102
RTVSPost2010PropOp52
 70
     0
102
RTVSPost2010Prop53
 90
        2
102
RTVSPost2010PropOp53
 70
     1
102
RTVSPost2010Prop54
  1
strokes_ogs.tif
102
RTVSPost2010PropOp54
 70
     1
102
RTVSPost2010Prop55
280
     0
102
RTVSPost2010PropOp55
 70
     1
102
RTVSPost2010Prop56
140
1.0
102
RTVSPost2010PropOp56
 70
     1
102
RTVSPost2010Prop57
140
1.0
102
RTVSPost2010PropOp57
 70
     1
  0
XRECORD
  5
555
102
{ACAD_REACTORS
330
554
102
}
330
554
100
AcDbXrecord
280
     1
102
RTVSPropertyOp0
 70
     1
102
RTVSPropertyOp1
 70
     1
102
RTVSPropertyOp2
 70
     1
102
RTVSPropertyOp3
 70
     1
102
RTVSPropertyOp4
 70
     1
102
RTVSPropertyOp5
 70
     1
102
RTVSPropertyOp6
 70
     1
102
RTVSPropertyOp7
 70
     1
102
RTVSPropertyOp8
 70
     1
102
RTVSPropertyOp9
 70
     1
102
RTVSPropertyOp10
 70
     1
102
RTVSPropertyOp11
 70
     1
102
RTVSPropertyOp12
 70
     1
102
RTVSPropertyOp13
 70
     1
102
RTVSPropertyOp14
 70
     1
102
RTVSPropertyOp15
 70
     1
102
RTVSPropertyOp16
 70
     1
102
RTVSPropertyOp17
 70
     1
102
RTVSPropertyOp18
 70
     1
102
RTVSPropertyOp19
 70
     1
102
RTVSPropertyOp20
 70
     1
102
RTVSPropertyOp21
 70
     1
102
RTVSPropertyOp22
 70
     1
102
RTVSPropertyOp23
 70
     1
102
RTVSPropertyOp24
 70
     1
102
RTVSPropertyOp25
 70
     1
102
RTVSPropertyOp26
 70
     1
102
RTVSPropertyOp27
 70
     1
102
RTVSPropertyOp28
 70
     1
102
RTVSPropertyOp29
 70
     1
102
RTVSPropertyOp30
 70
     1
102
RTVSPropertyOp31
 70
     1
102
RTVSPropertyOp32
 70
     1
102
RTVSPropertyOp33
 70
     1
102
RTVSPropertyOp34
 70
     1
102
RTVSPropertyOp35
 70
     1
102
RTVSPropertyOp36
 70
     1
102
RTVSPropertyOp37
 70
     1
102
RTVSPropertyOp38
 70
     1
102
RTVSPropertyOp39
 70
     1
102
RTVSPropertyOp40
 70
     1
102
RTVSPropertyOp41
 70
     1
102
RTVSPropertyOp42
 70
     1
102
RTVSPropertyOp43
 70
     1
102
RTVSPropertyOp44
 70
     1
102
RTVSPropertyOp45
 70
     1
102
RTVSPropertyOp46
 70
     1
102
RTVSPropertyOp47
 70
     1
102
RTVSPropertyOp48
 70
     1
102
RTVSPropertyOp49
 70
     1
102
RTVSPropertyOp50
 70
     1
102
RTVSPropertyOp51
 70
     0
102
RTVSPropertyOp52
 70
     0
102
RTVSPropertyOp53
 70
     1
102
RTVSPropertyOp54
 70
     1
102
RTVSPropertyOp55
 70
     1
102
RTVSPropertyOp56
 70
     1
102
RTVSPropertyOp57
 70
     1
102
RTVSPost2010Prop28
280
     0
102
RTVSPost2010PropOp28
 70
     1
102
RTVSPost2010Prop29
280
     1
102
RTVSPost2010PropOp29
 70
     1
102
RTVSPost2010Prop30
280
     1
102
RTVSPost2010PropOp30
 70
     1
102
RTVSPost2010Prop31
280
     0
102
RTVSPost2010PropOp31
 70
     1
102
RTVSPost2010Prop32
280
     0
102
RTVSPost2010PropOp32
 70
     1
102
RTVSPost2010Prop33
280
     0
102
RTVSPost2010PropOp33
 70
     1
102
RTVSPost2010Prop34
280
     0
102
RTVSPost2010PropOp34
 70
     1
102
RTVSPost2010Prop35
280
     0
102
RTVSPost2010PropOp35
 70
     1
102
RTVSPost2010Prop36
280
     0
102
RTVSPost2010PropOp36
 70
     1
102
RTVSPost2010Prop37
 90
       50
102
RTVSPost2010PropOp37
 70
     1
102
RTVSPost2010Prop38
140
0.0
102
RTVSPost2010PropOp38
 70
     1
102
RTVSPost2010Prop39
140
1.0
102
RTVSPost2010PropOp39
 70
     1
102
RTVSPost2010Prop40
 90
        0
102
RTVSPost2010PropOp40
 70
     1
102
RTVSPost2010Prop41ColorIndex
 90
       18
102
RTVSPost2010Prop41ColorRGB
 90
        0
102
RTVSPost2010PropOp41
 70
     1
102
RTVSPost2010Prop42
 90
       50
102
RTVSPost2010PropOp42
 70
     1
102
RTVSPost2010Prop43
 90
        3
102
RTVSPost2010PropOp43
 70
     1
102
RTVSPost2010Prop44ColorIndex
 90
        5
102
RTVSPost2010Prop44ColorRGB
 90
      255
102
RTVSPost2010PropOp44
 70
     1
102
RTVSPost2010Prop45
280
     0
102
RTVSPost2010PropOp45
 70
     1
102
RTVSPost2010Prop46
 90
       50
102
RTVSPost2010PropOp46
 70
     1
102
RTVSPost2010Prop47
 90
       50
102
RTVSPost2010PropOp47
 70
     1
102
RTVSPost2010Prop48
 90
       50
102
RTVSPost2010PropOp48
 70
     1
102
RTVSPost2010Prop49
280
     0
102
RTVSPost2010PropOp49
 70
     1
102
RTVSPost2010Prop50
 90
       50
102
RTVSPost2010PropOp50
 70
     1
102
RTVSPost2010Prop51ColorIndex
 90
      256
102
RTVSPost2010Prop51ColorRGB
 90
-16777216
102
RTVSPost2010PropOp51
 70
     0
102
RTVSPost2010Prop52
140
1.0
102
RTVSPost2010PropOp52
 70
     0
102
RTVSPost2010Prop53
 90
        2
102
RTVSPost2010PropOp53
 70
     1
102
RTVSPost2010Prop54
  1
strokes_ogs.tif
102
RTVSPost2010PropOp54
 70
     1
102
RTVSPost2010Prop55
280
     0
102
RTVSPost2010PropOp55
 70
     1
102
RTVSPost2010Prop56
140
1.0
102
RTVSPost2010PropOp56
 70
     1
102
RTVSPost2010Prop57
140
1.0
102
RTVSPost2010PropOp57
 70
     1
  0
XRECORD
  5
549
102
{ACAD_REACTORS
330
548
102
}
330
548
100
AcDbXrecord
280
     1
102
RTVSPropertyOp0
 70
     1
102
RTVSPropertyOp1
 70
     1
102
RTVSPropertyOp2
 70
     1
102
RTVSPropertyOp3
 70
     1
102
RTVSPropertyOp4
 70
     1
102
RTVSPropertyOp5
 70
     1
102
RTVSPropertyOp6
 70
     1
102
RTVSPropertyOp7
 70
     1
102
RTVSPropertyOp8
 70
     1
102
RTVSPropertyOp9
 70
     1
102
RTVSPropertyOp10
 70
     1
102
RTVSPropertyOp11
 70
     1
102
RTVSPropertyOp12
 70
     1
102
RTVSPropertyOp13
 70
     1
102
RTVSPropertyOp14
 70
     1
102
RTVSPropertyOp15
 70
     1
102
RTVSPropertyOp16
 70
     1
102
RTVSPropertyOp17
 70
     1
102
RTVSPropertyOp18
 70
     1
102
RTVSPropertyOp19
 70
     1
102
RTVSPropertyOp20
 70
     1
102
RTVSPropertyOp21
 70
     1
102
RTVSPropertyOp22
 70
     1
102
RTVSPropertyOp23
 70
     1
102
RTVSPropertyOp24
 70
     1
102
RTVSPropertyOp25
 70
     1
102
RTVSPropertyOp26
 70
     1
102
RTVSPropertyOp27
 70
     1
102
RTVSPropertyOp28
 70
     1
102
RTVSPropertyOp29
 70
     1
102
RTVSPropertyOp30
 70
     1
102
RTVSPropertyOp31
 70
     1
102
RTVSPropertyOp32
 70
     1
102
RTVSPropertyOp33
 70
     1
102
RTVSPropertyOp34
 70
     1
102
RTVSPropertyOp35
 70
     1
102
RTVSPropertyOp36
 70
     1
102
RTVSPropertyOp37
 70
     1
102
RTVSPropertyOp38
 70
     1
102
RTVSPropertyOp39
 70
     1
102
RTVSPropertyOp40
 70
     1
102
RTVSPropertyOp41
 70
     1
102
RTVSPropertyOp42
 70
     1
102
RTVSPropertyOp43
 70
     1
102
RTVSPropertyOp44
 70
     1
102
RTVSPropertyOp45
 70
     1
102
RTVSPropertyOp46
 70
     1
102
RTVSPropertyOp47
 70
     1
102
RTVSPropertyOp48
 70
     1
102
RTVSPropertyOp49
 70
     1
102
RTVSPropertyOp50
 70
     1
102
RTVSPropertyOp51
 70
     0
102
RTVSPropertyOp52
 70
     0
102
RTVSPropertyOp53
 70
     1
102
RTVSPropertyOp54
 70
     1
102
RTVSPropertyOp55
 70
     1
102
RTVSPropertyOp56
 70
     1
102
RTVSPropertyOp57
 70
     1
102
RTVSPost2010Prop28
280
     0
102
RTVSPost2010PropOp28
 70
     1
102
RTVSPost2010Prop29
280
     1
102
RTVSPost2010PropOp29
 70
     1
102
RTVSPost2010Prop30
280
     1
102
RTVSPost2010PropOp30
 70
     1
102
RTVSPost2010Prop31
280
     0
102
RTVSPost2010PropOp31
 70
     1
102
RTVSPost2010Prop32
280
     0
102
RTVSPost2010PropOp32
 70
     1
102
RTVSPost2010Prop33
280
     0
102
RTVSPost2010PropOp33
 70
     1
102
RTVSPost2010Prop34
280
     0
102
RTVSPost2010PropOp34
 70
     1
102
RTVSPost2010Prop35
280
     0
102
RTVSPost2010PropOp35
 70
     1
102
RTVSPost2010Prop36
280
     0
102
RTVSPost2010PropOp36
 70
     1
102
RTVSPost2010Prop37
 90
       50
102
RTVSPost2010PropOp37
 70
     1
102
RTVSPost2010Prop38
140
0.0
102
RTVSPost2010PropOp38
 70
     1
102
RTVSPost2010Prop39
140
1.0
102
RTVSPost2010PropOp39
 70
     1
102
RTVSPost2010Prop40
 90
        0
102
RTVSPost2010PropOp40
 70
     1
102
RTVSPost2010Prop41ColorIndex
 90
       18
102
RTVSPost2010Prop41ColorRGB
 90
        0
102
RTVSPost2010PropOp41
 70
     1
102
RTVSPost2010Prop42
 90
       50
102
RTVSPost2010PropOp42
 70
     1
102
RTVSPost2010Prop43
 90
        3
102
RTVSPost2010PropOp43
 70
     1
102
RTVSPost2010Prop44ColorIndex
 90
        5
102
RTVSPost2010Prop44ColorRGB
 90
      255
102
RTVSPost2010PropOp44
 70
     1
102
RTVSPost2010Prop45
280
     0
102
RTVSPost2010PropOp45
 70
     1
102
RTVSPost2010Prop46
 90
       50
102
RTVSPost2010PropOp46
 70
     1
102
RTVSPost2010Prop47
 90
       50
102
RTVSPost2010PropOp47
 70
     1
102
RTVSPost2010Prop48
 90
       50
102
RTVSPost2010PropOp48
 70
     1
102
RTVSPost2010Prop49
280
     0
102
RTVSPost2010PropOp49
 70
     1
102
RTVSPost2010Prop50
 90
       50
102
RTVSPost2010PropOp50
 70
     1
102
RTVSPost2010Prop51ColorIndex
 90
      256
102
RTVSPost2010Prop51ColorRGB
 90
-16777216
102
RTVSPost2010PropOp51
 70
     0
102
RTVSPost2010Prop52
140
1.0
102
RTVSPost2010PropOp52
 70
     0
102
RTVSPost2010Prop53
 90
        2
102
RTVSPost2010PropOp53
 70
     1
102
RTVSPost2010Prop54
  1
strokes_ogs.tif
102
RTVSPost2010PropOp54
 70
     1
102
RTVSPost2010Prop55
280
     0
102
RTVSPost2010PropOp55
 70
     1
102
RTVSPost2010Prop56
140
1.0
102
RTVSPost2010PropOp56
 70
     1
102
RTVSPost2010Prop57
140
1.0
102
RTVSPost2010PropOp57
 70
     1
  0
XRECORD
  5
54B
102
{ACAD_REACTORS
330
54A
102
}
330
54A
100
AcDbXrecord
280
     1
102
RTVSPropertyOp0
 70
     1
102
RTVSPropertyOp1
 70
     1
102
RTVSPropertyOp2
 70
     1
102
RTVSPropertyOp3
 70
     1
102
RTVSPropertyOp4
 70
     1
102
RTVSPropertyOp5
 70
     1
102
RTVSPropertyOp6
 70
     1
102
RTVSPropertyOp7
 70
     1
102
RTVSPropertyOp8
 70
     1
102
RTVSPropertyOp9
 70
     1
102
RTVSPropertyOp10
 70
     1
102
RTVSPropertyOp11
 70
     1
102
RTVSPropertyOp12
 70
     1
102
RTVSPropertyOp13
 70
     1
102
RTVSPropertyOp14
 70
     1
102
RTVSPropertyOp15
 70
     1
102
RTVSPropertyOp16
 70
     1
102
RTVSPropertyOp17
 70
     1
102
RTVSPropertyOp18
 70
     1
102
RTVSPropertyOp19
 70
     1
102
RTVSPropertyOp20
 70
     1
102
RTVSPropertyOp21
 70
     1
102
RTVSPropertyOp22
 70
     1
102
RTVSPropertyOp23
 70
     1
102
RTVSPropertyOp24
 70
     1
102
RTVSPropertyOp25
 70
     1
102
RTVSPropertyOp26
 70
     1
102
RTVSPropertyOp27
 70
     1
102
RTVSPropertyOp28
 70
     1
102
RTVSPropertyOp29
 70
     1
102
RTVSPropertyOp30
 70
     1
102
RTVSPropertyOp31
 70
     1
102
RTVSPropertyOp32
 70
     1
102
RTVSPropertyOp33
 70
     1
102
RTVSPropertyOp34
 70
     1
102
RTVSPropertyOp35
 70
     1
102
RTVSPropertyOp36
 70
     1
102
RTVSPropertyOp37
 70
     1
102
RTVSPropertyOp38
 70
     1
102
RTVSPropertyOp39
 70
     1
102
RTVSPropertyOp40
 70
     1
102
RTVSPropertyOp41
 70
     1
102
RTVSPropertyOp42
 70
     1
102
RTVSPropertyOp43
 70
     1
102
RTVSPropertyOp44
 70
     1
102
RTVSPropertyOp45
 70
     1
102
RTVSPropertyOp46
 70
     1
102
RTVSPropertyOp47
 70
     1
102
RTVSPropertyOp48
 70
     1
102
RTVSPropertyOp49
 70
     1
102
RTVSPropertyOp50
 70
     1
102
RTVSPropertyOp51
 70
     0
102
RTVSPropertyOp52
 70
     0
102
RTVSPropertyOp53
 70
     1
102
RTVSPropertyOp54
 70
     1
102
RTVSPropertyOp55
 70
     1
102
RTVSPropertyOp56
 70
     1
102
RTVSPropertyOp57
 70
     1
102
RTVSPost2010Prop28
280
     0
102
RTVSPost2010PropOp28
 70
     1
102
RTVSPost2010Prop29
280
     1
102
RTVSPost2010PropOp29
 70
     1
102
RTVSPost2010Prop30
280
     1
102
RTVSPost2010PropOp30
 70
     1
102
RTVSPost2010Prop31
280
     0
102
RTVSPost2010PropOp31
 70
     1
102
RTVSPost2010Prop32
280
     0
102
RTVSPost2010PropOp32
 70
     1
102
RTVSPost2010Prop33
280
     0
102
RTVSPost2010PropOp33
 70
     1
102
RTVSPost2010Prop34
280
     0
102
RTVSPost2010PropOp34
 70
     1
102
RTVSPost2010Prop35
280
     0
102
RTVSPost2010PropOp35
 70
     1
102
RTVSPost2010Prop36
280
     0
102
RTVSPost2010PropOp36
 70
     1
102
RTVSPost2010Prop37
 90
       50
102
RTVSPost2010PropOp37
 70
     1
102
RTVSPost2010Prop38
140
0.0
102
RTVSPost2010PropOp38
 70
     1
102
RTVSPost2010Prop39
140
1.0
102
RTVSPost2010PropOp39
 70
     1
102
RTVSPost2010Prop40
 90
        0
102
RTVSPost2010PropOp40
 70
     1
102
RTVSPost2010Prop41ColorIndex
 90
       18
102
RTVSPost2010Prop41ColorRGB
 90
        0
102
RTVSPost2010PropOp41
 70
     1
102
RTVSPost2010Prop42
 90
       50
102
RTVSPost2010PropOp42
 70
     1
102
RTVSPost2010Prop43
 90
        3
102
RTVSPost2010PropOp43
 70
     1
102
RTVSPost2010Prop44ColorIndex
 90
        5
102
RTVSPost2010Prop44ColorRGB
 90
      255
102
RTVSPost2010PropOp44
 70
     1
102
RTVSPost2010Prop45
280
     0
102
RTVSPost2010PropOp45
 70
     1
102
RTVSPost2010Prop46
 90
       50
102
RTVSPost2010PropOp46
 70
     1
102
RTVSPost2010Prop47
 90
       50
102
RTVSPost2010PropOp47
 70
     1
102
RTVSPost2010Prop48
 90
       50
102
RTVSPost2010PropOp48
 70
     1
102
RTVSPost2010Prop49
280
     0
102
RTVSPost2010PropOp49
 70
     1
102
RTVSPost2010Prop50
 90
       50
102
RTVSPost2010PropOp50
 70
     1
102
RTVSPost2010Prop51ColorIndex
 90
      256
102
RTVSPost2010Prop51ColorRGB
 90
-16777216
102
RTVSPost2010PropOp51
 70
     0
102
RTVSPost2010Prop52
140
1.0
102
RTVSPost2010PropOp52
 70
     0
102
RTVSPost2010Prop53
 90
        2
102
RTVSPost2010PropOp53
 70
     1
102
RTVSPost2010Prop54
  1
strokes_ogs.tif
102
RTVSPost2010PropOp54
 70
     1
102
RTVSPost2010Prop55
280
     0
102
RTVSPost2010PropOp55
 70
     1
102
RTVSPost2010Prop56
140
1.0
102
RTVSPost2010PropOp56
 70
     1
102
RTVSPost2010Prop57
140
1.0
102
RTVSPost2010PropOp57
 70
     1
  0
XRECORD
  5
55B
102
{ACAD_REACTORS
330
55A
102
}
330
55A
100
AcDbXrecord
280
     1
102
RTVSPropertyOp0
 70
     0
102
RTVSPropertyOp1
 70
     0
102
RTVSPropertyOp2
 70
     0
102
RTVSPropertyOp3
 70
     0
102
RTVSPropertyOp4
 70
     0
102
RTVSPropertyOp5
 70
     0
102
RTVSPropertyOp6
 70
     0
102
RTVSPropertyOp7
 70
     0
102
RTVSPropertyOp8
 70
     0
102
RTVSPropertyOp9
 70
     0
102
RTVSPropertyOp10
 70
     0
102
RTVSPropertyOp11
 70
     0
102
RTVSPropertyOp12
 70
     0
102
RTVSPropertyOp13
 70
     0
102
RTVSPropertyOp14
 70
     0
102
RTVSPropertyOp15
 70
     0
102
RTVSPropertyOp16
 70
     0
102
RTVSPropertyOp17
 70
     0
102
RTVSPropertyOp18
 70
     0
102
RTVSPropertyOp19
 70
     0
102
RTVSPropertyOp20
 70
     0
102
RTVSPropertyOp21
 70
     0
102
RTVSPropertyOp22
 70
     0
102
RTVSPropertyOp23
 70
     0
102
RTVSPropertyOp24
 70
     0
102
RTVSPropertyOp25
 70
     0
102
RTVSPropertyOp26
 70
     0
102
RTVSPropertyOp27
 70
     0
102
RTVSPropertyOp28
 70
     1
102
RTVSPropertyOp29
 70
     1
102
RTVSPropertyOp30
 70
     1
102
RTVSPropertyOp31
 70
     1
102
RTVSPropertyOp32
 70
     1
102
RTVSPropertyOp33
 70
     1
102
RTVSPropertyOp34
 70
     1
102
RTVSPropertyOp35
 70
     1
102
RTVSPropertyOp36
 70
     1
102
RTVSPropertyOp37
 70
     1
102
RTVSPropertyOp38
 70
     1
102
RTVSPropertyOp39
 70
     1
102
RTVSPropertyOp40
 70
     1
102
RTVSPropertyOp41
 70
     1
102
RTVSPropertyOp42
 70
     1
102
RTVSPropertyOp43
 70
     1
102
RTVSPropertyOp44
 70
     1
102
RTVSPropertyOp45
 70
     1
102
RTVSPropertyOp46
 70
     1
102
RTVSPropertyOp47
 70
     1
102
RTVSPropertyOp48
 70
     1
102
RTVSPropertyOp49
 70
     1
102
RTVSPropertyOp50
 70
     1
102
RTVSPropertyOp51
 70
     0
102
RTVSPropertyOp52
 70
     0
102
RTVSPropertyOp53
 70
     1
102
RTVSPropertyOp54
 70
     1
102
RTVSPropertyOp55
 70
     1
102
RTVSPropertyOp56
 70
     1
102
RTVSPropertyOp57
 70
     1
102
RTVSPost2010Prop28
280
     0
102
RTVSPost2010PropOp28
 70
     1
102
RTVSPost2010Prop29
280
     1
102
RTVSPost2010PropOp29
 70
     1
102
RTVSPost2010Prop30
280
     1
102
RTVSPost2010PropOp30
 70
     1
102
RTVSPost2010Prop31
280
     0
102
RTVSPost2010PropOp31
 70
     1
102
RTVSPost2010Prop32
280
     0
102
RTVSPost2010PropOp32
 70
     1
102
RTVSPost2010Prop33
280
     0
102
RTVSPost2010PropOp33
 70
     1
102
RTVSPost2010Prop34
280
     0
102
RTVSPost2010PropOp34
 70
     1
102
RTVSPost2010Prop35
280
     0
102
RTVSPost2010PropOp35
 70
     1
102
RTVSPost2010Prop36
280
     0
102
RTVSPost2010PropOp36
 70
     1
102
RTVSPost2010Prop37
 90
       50
102
RTVSPost2010PropOp37
 70
     1
102
RTVSPost2010Prop38
140
0.0
102
RTVSPost2010PropOp38
 70
     1
102
RTVSPost2010Prop39
140
1.0
102
RTVSPost2010PropOp39
 70
     1
102
RTVSPost2010Prop40
 90
        0
102
RTVSPost2010PropOp40
 70
     1
102
RTVSPost2010Prop41ColorIndex
 90
       18
102
RTVSPost2010Prop41ColorRGB
 90
        0
102
RTVSPost2010PropOp41
 70
     1
102
RTVSPost2010Prop42
 90
       50
102
RTVSPost2010PropOp42
 70
     1
102
RTVSPost2010Prop43
 90
        3
102
RTVSPost2010PropOp43
 70
     1
102
RTVSPost2010Prop44ColorIndex
 90
        5
102
RTVSPost2010Prop44ColorRGB
 90
      255
102
RTVSPost2010PropOp44
 70
     1
102
RTVSPost2010Prop45
280
     0
102
RTVSPost2010PropOp45
 70
     1
102
RTVSPost2010Prop46
 90
       50
102
RTVSPost2010PropOp46
 70
     1
102
RTVSPost2010Prop47
 90
       50
102
RTVSPost2010PropOp47
 70
     1
102
RTVSPost2010Prop48
 90
       50
102
RTVSPost2010PropOp48
 70
     1
102
RTVSPost2010Prop49
280
     0
102
RTVSPost2010PropOp49
 70
     1
102
RTVSPost2010Prop50
 90
       50
102
RTVSPost2010PropOp50
 70
     1
102
RTVSPost2010Prop51ColorIndex
 90
      256
102
RTVSPost2010Prop51ColorRGB
 90
-16777216
102
RTVSPost2010PropOp51
 70
     0
102
RTVSPost2010Prop52
140
1.0
102
RTVSPost2010PropOp52
 70
     0
102
RTVSPost2010Prop53
 90
        2
102
RTVSPost2010PropOp53
 70
     1
102
RTVSPost2010Prop54
  1
strokes_ogs.tif
102
RTVSPost2010PropOp54
 70
     1
102
RTVSPost2010Prop55
280
     0
102
RTVSPost2010PropOp55
 70
     1
102
RTVSPost2010Prop56
140
1.0
102
RTVSPost2010PropOp56
 70
     1
102
RTVSPost2010Prop57
140
1.0
102
RTVSPost2010PropOp57
 70
     1
  0
XRECORD
  5
553
102
{ACAD_REACTORS
330
552
102
}
330
552
100
AcDbXrecord
280
     1
102
RTVSPropertyOp0
 70
     1
102
RTVSPropertyOp1
 70
     1
102
RTVSPropertyOp2
 70
     1
102
RTVSPropertyOp3
 70
     1
102
RTVSPropertyOp4
 70
     1
102
RTVSPropertyOp5
 70
     1
102
RTVSPropertyOp6
 70
     1
102
RTVSPropertyOp7
 70
     1
102
RTVSPropertyOp8
 70
     1
102
RTVSPropertyOp9
 70
     1
102
RTVSPropertyOp10
 70
     1
102
RTVSPropertyOp11
 70
     1
102
RTVSPropertyOp12
 70
     1
102
RTVSPropertyOp13
 70
     1
102
RTVSPropertyOp14
 70
     1
102
RTVSPropertyOp15
 70
     1
102
RTVSPropertyOp16
 70
     1
102
RTVSPropertyOp17
 70
     1
102
RTVSPropertyOp18
 70
     1
102
RTVSPropertyOp19
 70
     1
102
RTVSPropertyOp20
 70
     1
102
RTVSPropertyOp21
 70
     1
102
RTVSPropertyOp22
 70
     1
102
RTVSPropertyOp23
 70
     1
102
RTVSPropertyOp24
 70
     1
102
RTVSPropertyOp25
 70
     1
102
RTVSPropertyOp26
 70
     1
102
RTVSPropertyOp27
 70
     1
102
RTVSPropertyOp28
 70
     1
102
RTVSPropertyOp29
 70
     1
102
RTVSPropertyOp30
 70
     1
102
RTVSPropertyOp31
 70
     1
102
RTVSPropertyOp32
 70
     1
102
RTVSPropertyOp33
 70
     1
102
RTVSPropertyOp34
 70
     1
102
RTVSPropertyOp35
 70
     1
102
RTVSPropertyOp36
 70
     1
102
RTVSPropertyOp37
 70
     1
102
RTVSPropertyOp38
 70
     1
102
RTVSPropertyOp39
 70
     1
102
RTVSPropertyOp40
 70
     1
102
RTVSPropertyOp41
 70
     1
102
RTVSPropertyOp42
 70
     1
102
RTVSPropertyOp43
 70
     1
102
RTVSPropertyOp44
 70
     1
102
RTVSPropertyOp45
 70
     1
102
RTVSPropertyOp46
 70
     1
102
RTVSPropertyOp47
 70
     1
102
RTVSPropertyOp48
 70
     1
102
RTVSPropertyOp49
 70
     1
102
RTVSPropertyOp50
 70
     1
102
RTVSPropertyOp51
 70
     0
102
RTVSPropertyOp52
 70
     0
102
RTVSPropertyOp53
 70
     1
102
RTVSPropertyOp54
 70
     1
102
RTVSPropertyOp55
 70
     1
102
RTVSPropertyOp56
 70
     1
102
RTVSPropertyOp57
 70
     1
102
RTVSPost2010Prop28
280
     0
102
RTVSPost2010PropOp28
 70
     1
102
RTVSPost2010Prop29
280
     1
102
RTVSPost2010PropOp29
 70
     1
102
RTVSPost2010Prop30
280
     1
102
RTVSPost2010PropOp30
 70
     1
102
RTVSPost2010Prop31
280
     0
102
RTVSPost2010PropOp31
 70
     1
102
RTVSPost2010Prop32
280
     0
102
RTVSPost2010PropOp32
 70
     1
102
RTVSPost2010Prop33
280
     0
102
RTVSPost2010PropOp33
 70
     1
102
RTVSPost2010Prop34
280
     0
102
RTVSPost2010PropOp34
 70
     1
102
RTVSPost2010Prop35
280
     0
102
RTVSPost2010PropOp35
 70
     1
102
RTVSPost2010Prop36
280
     0
102
RTVSPost2010PropOp36
 70
     1
102
RTVSPost2010Prop37
 90
       50
102
RTVSPost2010PropOp37
 70
     1
102
RTVSPost2010Prop38
140
0.0
102
RTVSPost2010PropOp38
 70
     1
102
RTVSPost2010Prop39
140
1.0
102
RTVSPost2010PropOp39
 70
     1
102
RTVSPost2010Prop40
 90
        0
102
RTVSPost2010PropOp40
 70
     1
102
RTVSPost2010Prop41ColorIndex
 90
       18
102
RTVSPost2010Prop41ColorRGB
 90
        0
102
RTVSPost2010PropOp41
 70
     1
102
RTVSPost2010Prop42
 90
       50
102
RTVSPost2010PropOp42
 70
     1
102
RTVSPost2010Prop43
 90
        3
102
RTVSPost2010PropOp43
 70
     1
102
RTVSPost2010Prop44ColorIndex
 90
        5
102
RTVSPost2010Prop44ColorRGB
 90
      255
102
RTVSPost2010PropOp44
 70
     1
102
RTVSPost2010Prop45
280
     0
102
RTVSPost2010PropOp45
 70
     1
102
RTVSPost2010Prop46
 90
       50
102
RTVSPost2010PropOp46
 70
     1
102
RTVSPost2010Prop47
 90
       50
102
RTVSPost2010PropOp47
 70
     1
102
RTVSPost2010Prop48
 90
       50
102
RTVSPost2010PropOp48
 70
     1
102
RTVSPost2010Prop49
280
     0
102
RTVSPost2010PropOp49
 70
     1
102
RTVSPost2010Prop50
 90
       50
102
RTVSPost2010PropOp50
 70
     1
102
RTVSPost2010Prop51ColorIndex
 90
      256
102
RTVSPost2010Prop51ColorRGB
 90
-16777216
102
RTVSPost2010PropOp51
 70
     0
102
RTVSPost2010Prop52
140
1.0
102
RTVSPost2010PropOp52
 70
     0
102
RTVSPost2010Prop53
 90
        2
102
RTVSPost2010PropOp53
 70
     1
102
RTVSPost2010Prop54
  1
strokes_ogs.tif
102
RTVSPost2010PropOp54
 70
     1
102
RTVSPost2010Prop55
280
     0
102
RTVSPost2010PropOp55
 70
     1
102
RTVSPost2010Prop56
140
1.0
102
RTVSPost2010PropOp56
 70
     1
102
RTVSPost2010Prop57
140
1.0
102
RTVSPost2010PropOp57
 70
     1
  0
XRECORD
  5
537
102
{ACAD_REACTORS
330
536
102
}
330
536
100
AcDbXrecord
280
     1
102
RTVSPropertyOp0
 70
     1
102
RTVSPropertyOp1
 70
     1
102
RTVSPropertyOp2
 70
     1
102
RTVSPropertyOp3
 70
     1
102
RTVSPropertyOp4
 70
     1
102
RTVSPropertyOp5
 70
     1
102
RTVSPropertyOp6
 70
     1
102
RTVSPropertyOp7
 70
     1
102
RTVSPropertyOp8
 70
     1
102
RTVSPropertyOp9
 70
     1
102
RTVSPropertyOp10
 70
     1
102
RTVSPropertyOp11
 70
     1
102
RTVSPropertyOp12
 70
     1
102
RTVSPropertyOp13
 70
     1
102
RTVSPropertyOp14
 70
     1
102
RTVSPropertyOp15
 70
     1
102
RTVSPropertyOp16
 70
     1
102
RTVSPropertyOp17
 70
     1
102
RTVSPropertyOp18
 70
     1
102
RTVSPropertyOp19
 70
     1
102
RTVSPropertyOp20
 70
     1
102
RTVSPropertyOp21
 70
     1
102
RTVSPropertyOp22
 70
     1
102
RTVSPropertyOp23
 70
     1
102
RTVSPropertyOp24
 70
     1
102
RTVSPropertyOp25
 70
     1
102
RTVSPropertyOp26
 70
     1
102
RTVSPropertyOp27
 70
     1
102
RTVSPropertyOp28
 70
     1
102
RTVSPropertyOp29
 70
     1
102
RTVSPropertyOp30
 70
     1
102
RTVSPropertyOp31
 70
     1
102
RTVSPropertyOp32
 70
     1
102
RTVSPropertyOp33
 70
     1
102
RTVSPropertyOp34
 70
     1
102
RTVSPropertyOp35
 70
     1
102
RTVSPropertyOp36
 70
     1
102
RTVSPropertyOp37
 70
     1
102
RTVSPropertyOp38
 70
     1
102
RTVSPropertyOp39
 70
     1
102
RTVSPropertyOp40
 70
     1
102
RTVSPropertyOp41
 70
     1
102
RTVSPropertyOp42
 70
     1
102
RTVSPropertyOp43
 70
     1
102
RTVSPropertyOp44
 70
     1
102
RTVSPropertyOp45
 70
     1
102
RTVSPropertyOp46
 70
     1
102
RTVSPropertyOp47
 70
     1
102
RTVSPropertyOp48
 70
     1
102
RTVSPropertyOp49
 70
     1
102
RTVSPropertyOp50
 70
     1
102
RTVSPropertyOp51
 70
     0
102
RTVSPropertyOp52
 70
     0
102
RTVSPropertyOp53
 70
     1
102
RTVSPropertyOp54
 70
     1
102
RTVSPropertyOp55
 70
     1
102
RTVSPropertyOp56
 70
     1
102
RTVSPropertyOp57
 70
     1
102
RTVSPost2010Prop28
280
     0
102
RTVSPost2010PropOp28
 70
     1
102
RTVSPost2010Prop29
280
     1
102
RTVSPost2010PropOp29
 70
     1
102
RTVSPost2010Prop30
280
     1
102
RTVSPost2010PropOp30
 70
     1
102
RTVSPost2010Prop31
280
     0
102
RTVSPost2010PropOp31
 70
     1
102
RTVSPost2010Prop32
280
     0
102
RTVSPost2010PropOp32
 70
     1
102
RTVSPost2010Prop33
280
     0
102
RTVSPost2010PropOp33
 70
     1
102
RTVSPost2010Prop34
280
     0
102
RTVSPost2010PropOp34
 70
     1
102
RTVSPost2010Prop35
280
     0
102
RTVSPost2010PropOp35
 70
     1
102
RTVSPost2010Prop36
280
     0
102
RTVSPost2010PropOp36
 70
     1
102
RTVSPost2010Prop37
 90
       50
102
RTVSPost2010PropOp37
 70
     1
102
RTVSPost2010Prop38
140
0.0
102
RTVSPost2010PropOp38
 70
     1
102
RTVSPost2010Prop39
140
1.0
102
RTVSPost2010PropOp39
 70
     1
102
RTVSPost2010Prop40
 90
        0
102
RTVSPost2010PropOp40
 70
     1
102
RTVSPost2010Prop41ColorIndex
 90
       18
102
RTVSPost2010Prop41ColorRGB
 90
        0
102
RTVSPost2010PropOp41
 70
     1
102
RTVSPost2010Prop42
 90
       50
102
RTVSPost2010PropOp42
 70
     1
102
RTVSPost2010Prop43
 90
        3
102
RTVSPost2010PropOp43
 70
     1
102
RTVSPost2010Prop44ColorIndex
 90
        5
102
RTVSPost2010Prop44ColorRGB
 90
      255
102
RTVSPost2010PropOp44
 70
     1
102
RTVSPost2010Prop45
280
     0
102
RTVSPost2010PropOp45
 70
     1
102
RTVSPost2010Prop46
 90
       50
102
RTVSPost2010PropOp46
 70
     1
102
RTVSPost2010Prop47
 90
       50
102
RTVSPost2010PropOp47
 70
     1
102
RTVSPost2010Prop48
 90
       50
102
RTVSPost2010PropOp48
 70
     1
102
RTVSPost2010Prop49
280
     0
102
RTVSPost2010PropOp49
 70
     1
102
RTVSPost2010Prop50
 90
       50
102
RTVSPost2010PropOp50
 70
     1
102
RTVSPost2010Prop51ColorIndex
 90
      256
102
RTVSPost2010Prop51ColorRGB
 90
-16777216
102
RTVSPost2010PropOp51
 70
     0
102
RTVSPost2010Prop52
140
1.0
102
RTVSPost2010PropOp52
 70
     0
102
RTVSPost2010Prop53
 90
        2
102
RTVSPost2010PropOp53
 70
     1
102
RTVSPost2010Prop54
  1
strokes_ogs.tif
102
RTVSPost2010PropOp54
 70
     1
102
RTVSPost2010Prop55
280
     0
102
RTVSPost2010PropOp55
 70
     1
102
RTVSPost2010Prop56
140
1.0
102
RTVSPost2010PropOp56
 70
     1
102
RTVSPost2010Prop57
140
1.0
102
RTVSPost2010PropOp57
 70
     1
  0
XRECORD
  5
539
102
{ACAD_REACTORS
330
538
102
}
330
538
100
AcDbXrecord
280
     1
102
RTVSPropertyOp0
 70
     1
102
RTVSPropertyOp1
 70
     1
102
RTVSPropertyOp2
 70
     1
102
RTVSPropertyOp3
 70
     1
102
RTVSPropertyOp4
 70
     1
102
RTVSPropertyOp5
 70
     1
102
RTVSPropertyOp6
 70
     1
102
RTVSPropertyOp7
 70
     1
102
RTVSPropertyOp8
 70
     1
102
RTVSPropertyOp9
 70
     1
102
RTVSPropertyOp10
 70
     1
102
RTVSPropertyOp11
 70
     1
102
RTVSPropertyOp12
 70
     1
102
RTVSPropertyOp13
 70
     1
102
RTVSPropertyOp14
 70
     1
102
RTVSPropertyOp15
 70
     1
102
RTVSPropertyOp16
 70
     1
102
RTVSPropertyOp17
 70
     1
102
RTVSPropertyOp18
 70
     1
102
RTVSPropertyOp19
 70
     1
102
RTVSPropertyOp20
 70
     1
102
RTVSPropertyOp21
 70
     1
102
RTVSPropertyOp22
 70
     1
102
RTVSPropertyOp23
 70
     1
102
RTVSPropertyOp24
 70
     1
102
RTVSPropertyOp25
 70
     1
102
RTVSPropertyOp26
 70
     1
102
RTVSPropertyOp27
 70
     1
102
RTVSPropertyOp28
 70
     1
102
RTVSPropertyOp29
 70
     1
102
RTVSPropertyOp30
 70
     1
102
RTVSPropertyOp31
 70
     1
102
RTVSPropertyOp32
 70
     1
102
RTVSPropertyOp33
 70
     1
102
RTVSPropertyOp34
 70
     1
102
RTVSPropertyOp35
 70
     1
102
RTVSPropertyOp36
 70
     1
102
RTVSPropertyOp37
 70
     1
102
RTVSPropertyOp38
 70
     1
102
RTVSPropertyOp39
 70
     1
102
RTVSPropertyOp40
 70
     1
102
RTVSPropertyOp41
 70
     1
102
RTVSPropertyOp42
 70
     1
102
RTVSPropertyOp43
 70
     1
102
RTVSPropertyOp44
 70
     1
102
RTVSPropertyOp45
 70
     1
102
RTVSPropertyOp46
 70
     1
102
RTVSPropertyOp47
 70
     1
102
RTVSPropertyOp48
 70
     1
102
RTVSPropertyOp49
 70
     1
102
RTVSPropertyOp50
 70
     1
102
RTVSPropertyOp51
 70
     0
102
RTVSPropertyOp52
 70
     0
102
RTVSPropertyOp53
 70
     1
102
RTVSPropertyOp54
 70
     1
102
RTVSPropertyOp55
 70
     1
102
RTVSPropertyOp56
 70
     1
102
RTVSPropertyOp57
 70
     1
102
RTVSPost2010Prop28
280
     0
102
RTVSPost2010PropOp28
 70
     1
102
RTVSPost2010Prop29
280
     1
102
RTVSPost2010PropOp29
 70
     1
102
RTVSPost2010Prop30
280
     1
102
RTVSPost2010PropOp30
 70
     1
102
RTVSPost2010Prop31
280
     0
102
RTVSPost2010PropOp31
 70
     1
102
RTVSPost2010Prop32
280
     0
102
RTVSPost2010PropOp32
 70
     1
102
RTVSPost2010Prop33
280
     0
102
RTVSPost2010PropOp33
 70
     1
102
RTVSPost2010Prop34
280
     0
102
RTVSPost2010PropOp34
 70
     1
102
RTVSPost2010Prop35
280
     0
102
RTVSPost2010PropOp35
 70
     1
102
RTVSPost2010Prop36
280
     0
102
RTVSPost2010PropOp36
 70
     1
102
RTVSPost2010Prop37
 90
       50
102
RTVSPost2010PropOp37
 70
     1
102
RTVSPost2010Prop38
140
0.0
102
RTVSPost2010PropOp38
 70
     1
102
RTVSPost2010Prop39
140
1.0
102
RTVSPost2010PropOp39
 70
     1
102
RTVSPost2010Prop40
 90
        0
102
RTVSPost2010PropOp40
 70
     1
102
RTVSPost2010Prop41ColorIndex
 90
       18
102
RTVSPost2010Prop41ColorRGB
 90
        0
102
RTVSPost2010PropOp41
 70
     1
102
RTVSPost2010Prop42
 90
       50
102
RTVSPost2010PropOp42
 70
     1
102
RTVSPost2010Prop43
 90
        3
102
RTVSPost2010PropOp43
 70
     1
102
RTVSPost2010Prop44ColorIndex
 90
        5
102
RTVSPost2010Prop44ColorRGB
 90
      255
102
RTVSPost2010PropOp44
 70
     1
102
RTVSPost2010Prop45
280
     0
102
RTVSPost2010PropOp45
 70
     1
102
RTVSPost2010Prop46
 90
       50
102
RTVSPost2010PropOp46
 70
     1
102
RTVSPost2010Prop47
 90
       50
102
RTVSPost2010PropOp47
 70
     1
102
RTVSPost2010Prop48
 90
       50
102
RTVSPost2010PropOp48
 70
     1
102
RTVSPost2010Prop49
280
     0
102
RTVSPost2010PropOp49
 70
     1
102
RTVSPost2010Prop50
 90
       50
102
RTVSPost2010PropOp50
 70
     1
102
RTVSPost2010Prop51ColorIndex
 90
      256
102
RTVSPost2010Prop51ColorRGB
 90
-16777216
102
RTVSPost2010PropOp51
 70
     0
102
RTVSPost2010Prop52
140
1.0
102
RTVSPost2010PropOp52
 70
     0
102
RTVSPost2010Prop53
 90
        2
102
RTVSPost2010PropOp53
 70
     1
102
RTVSPost2010Prop54
  1
strokes_ogs.tif
102
RTVSPost2010PropOp54
 70
     1
102
RTVSPost2010Prop55
280
     0
102
RTVSPost2010PropOp55
 70
     1
102
RTVSPost2010Prop56
140
1.0
102
RTVSPost2010PropOp56
 70
     1
102
RTVSPost2010Prop57
140
1.0
102
RTVSPost2010PropOp57
 70
     1
  0
XRECORD
  5
53B
102
{ACAD_REACTORS
330
53A
102
}
330
53A
100
AcDbXrecord
280
     1
102
RTVSPropertyOp0
 70
     1
102
RTVSPropertyOp1
 70
     1
102
RTVSPropertyOp2
 70
     1
102
RTVSPropertyOp3
 70
     1
102
RTVSPropertyOp4
 70
     1
102
RTVSPropertyOp5
 70
     1
102
RTVSPropertyOp6
 70
     1
102
RTVSPropertyOp7
 70
     1
102
RTVSPropertyOp8
 70
     1
102
RTVSPropertyOp9
 70
     1
102
RTVSPropertyOp10
 70
     1
102
RTVSPropertyOp11
 70
     1
102
RTVSPropertyOp12
 70
     1
102
RTVSPropertyOp13
 70
     1
102
RTVSPropertyOp14
 70
     1
102
RTVSPropertyOp15
 70
     1
102
RTVSPropertyOp16
 70
     1
102
RTVSPropertyOp17
 70
     1
102
RTVSPropertyOp18
 70
     1
102
RTVSPropertyOp19
 70
     1
102
RTVSPropertyOp20
 70
     1
102
RTVSPropertyOp21
 70
     1
102
RTVSPropertyOp22
 70
     1
102
RTVSPropertyOp23
 70
     1
102
RTVSPropertyOp24
 70
     1
102
RTVSPropertyOp25
 70
     1
102
RTVSPropertyOp26
 70
     1
102
RTVSPropertyOp27
 70
     1
102
RTVSPropertyOp28
 70
     1
102
RTVSPropertyOp29
 70
     1
102
RTVSPropertyOp30
 70
     1
102
RTVSPropertyOp31
 70
     1
102
RTVSPropertyOp32
 70
     1
102
RTVSPropertyOp33
 70
     1
102
RTVSPropertyOp34
 70
     1
102
RTVSPropertyOp35
 70
     1
102
RTVSPropertyOp36
 70
     1
102
RTVSPropertyOp37
 70
     1
102
RTVSPropertyOp38
 70
     1
102
RTVSPropertyOp39
 70
     1
102
RTVSPropertyOp40
 70
     1
102
RTVSPropertyOp41
 70
     1
102
RTVSPropertyOp42
 70
     1
102
RTVSPropertyOp43
 70
     1
102
RTVSPropertyOp44
 70
     1
102
RTVSPropertyOp45
 70
     1
102
RTVSPropertyOp46
 70
     1
102
RTVSPropertyOp47
 70
     1
102
RTVSPropertyOp48
 70
     1
102
RTVSPropertyOp49
 70
     1
102
RTVSPropertyOp50
 70
     1
102
RTVSPropertyOp51
 70
     0
102
RTVSPropertyOp52
 70
     0
102
RTVSPropertyOp53
 70
     1
102
RTVSPropertyOp54
 70
     1
102
RTVSPropertyOp55
 70
     1
102
RTVSPropertyOp56
 70
     1
102
RTVSPropertyOp57
 70
     1
102
RTVSPost2010Prop28
280
     0
102
RTVSPost2010PropOp28
 70
     1
102
RTVSPost2010Prop29
280
     1
102
RTVSPost2010PropOp29
 70
     1
102
RTVSPost2010Prop30
280
     1
102
RTVSPost2010PropOp30
 70
     1
102
RTVSPost2010Prop31
280
     0
102
RTVSPost2010PropOp31
 70
     1
102
RTVSPost2010Prop32
280
     0
102
RTVSPost2010PropOp32
 70
     1
102
RTVSPost2010Prop33
280
     0
102
RTVSPost2010PropOp33
 70
     1
102
RTVSPost2010Prop34
280
     0
102
RTVSPost2010PropOp34
 70
     1
102
RTVSPost2010Prop35
280
     0
102
RTVSPost2010PropOp35
 70
     1
102
RTVSPost2010Prop36
280
     0
102
RTVSPost2010PropOp36
 70
     1
102
RTVSPost2010Prop37
 90
       50
102
RTVSPost2010PropOp37
 70
     1
102
RTVSPost2010Prop38
140
0.0
102
RTVSPost2010PropOp38
 70
     1
102
RTVSPost2010Prop39
140
1.0
102
RTVSPost2010PropOp39
 70
     1
102
RTVSPost2010Prop40
 90
        0
102
RTVSPost2010PropOp40
 70
     1
102
RTVSPost2010Prop41ColorIndex
 90
       18
102
RTVSPost2010Prop41ColorRGB
 90
        0
102
RTVSPost2010PropOp41
 70
     1
102
RTVSPost2010Prop42
 90
       50
102
RTVSPost2010PropOp42
 70
     1
102
RTVSPost2010Prop43
 90
        3
102
RTVSPost2010PropOp43
 70
     1
102
RTVSPost2010Prop44ColorIndex
 90
        5
102
RTVSPost2010Prop44ColorRGB
 90
      255
102
RTVSPost2010PropOp44
 70
     1
102
RTVSPost2010Prop45
280
     0
102
RTVSPost2010PropOp45
 70
     1
102
RTVSPost2010Prop46
 90
       50
102
RTVSPost2010PropOp46
 70
     1
102
RTVSPost2010Prop47
 90
       50
102
RTVSPost2010PropOp47
 70
     1
102
RTVSPost2010Prop48
 90
       50
102
RTVSPost2010PropOp48
 70
     1
102
RTVSPost2010Prop49
280
     0
102
RTVSPost2010PropOp49
 70
     1
102
RTVSPost2010Prop50
 90
       50
102
RTVSPost2010PropOp50
 70
     1
102
RTVSPost2010Prop51ColorIndex
 90
      256
102
RTVSPost2010Prop51ColorRGB
 90
-16777216
102
RTVSPost2010PropOp51
 70
     0
102
RTVSPost2010Prop52
140
1.0
102
RTVSPost2010PropOp52
 70
     0
102
RTVSPost2010Prop53
 90
        2
102
RTVSPost2010PropOp53
 70
     1
102
RTVSPost2010Prop54
  1
strokes_ogs.tif
102
RTVSPost2010PropOp54
 70
     1
102
RTVSPost2010Prop55
280
     0
102
RTVSPost2010PropOp55
 70
     1
102
RTVSPost2010Prop56
140
1.0
102
RTVSPost2010PropOp56
 70
     1
102
RTVSPost2010Prop57
140
1.0
102
RTVSPost2010PropOp57
 70
     1
  0
XRECORD
  5
53D
102
{ACAD_REACTORS
330
53C
102
}
330
53C
100
AcDbXrecord
280
     1
102
RTVSPropertyOp0
 70
     1
102
RTVSPropertyOp1
 70
     1
102
RTVSPropertyOp2
 70
     1
102
RTVSPropertyOp3
 70
     1
102
RTVSPropertyOp4
 70
     1
102
RTVSPropertyOp5
 70
     1
102
RTVSPropertyOp6
 70
     1
102
RTVSPropertyOp7
 70
     1
102
RTVSPropertyOp8
 70
     1
102
RTVSPropertyOp9
 70
     1
102
RTVSPropertyOp10
 70
     1
102
RTVSPropertyOp11
 70
     1
102
RTVSPropertyOp12
 70
     1
102
RTVSPropertyOp13
 70
     1
102
RTVSPropertyOp14
 70
     1
102
RTVSPropertyOp15
 70
     1
102
RTVSPropertyOp16
 70
     1
102
RTVSPropertyOp17
 70
     1
102
RTVSPropertyOp18
 70
     1
102
RTVSPropertyOp19
 70
     1
102
RTVSPropertyOp20
 70
     1
102
RTVSPropertyOp21
 70
     1
102
RTVSPropertyOp22
 70
     1
102
RTVSPropertyOp23
 70
     1
102
RTVSPropertyOp24
 70
     1
102
RTVSPropertyOp25
 70
     1
102
RTVSPropertyOp26
 70
     1
102
RTVSPropertyOp27
 70
     1
102
RTVSPropertyOp28
 70
     1
102
RTVSPropertyOp29
 70
     1
102
RTVSPropertyOp30
 70
     1
102
RTVSPropertyOp31
 70
     1
102
RTVSPropertyOp32
 70
     1
102
RTVSPropertyOp33
 70
     1
102
RTVSPropertyOp34
 70
     1
102
RTVSPropertyOp35
 70
     1
102
RTVSPropertyOp36
 70
     1
102
RTVSPropertyOp37
 70
     1
102
RTVSPropertyOp38
 70
     1
102
RTVSPropertyOp39
 70
     1
102
RTVSPropertyOp40
 70
     1
102
RTVSPropertyOp41
 70
     1
102
RTVSPropertyOp42
 70
     1
102
RTVSPropertyOp43
 70
     1
102
RTVSPropertyOp44
 70
     1
102
RTVSPropertyOp45
 70
     1
102
RTVSPropertyOp46
 70
     1
102
RTVSPropertyOp47
 70
     1
102
RTVSPropertyOp48
 70
     1
102
RTVSPropertyOp49
 70
     1
102
RTVSPropertyOp50
 70
     1
102
RTVSPropertyOp51
 70
     0
102
RTVSPropertyOp52
 70
     0
102
RTVSPropertyOp53
 70
     1
102
RTVSPropertyOp54
 70
     1
102
RTVSPropertyOp55
 70
     1
102
RTVSPropertyOp56
 70
     1
102
RTVSPropertyOp57
 70
     1
102
RTVSPost2010Prop28
280
     0
102
RTVSPost2010PropOp28
 70
     1
102
RTVSPost2010Prop29
280
     1
102
RTVSPost2010PropOp29
 70
     1
102
RTVSPost2010Prop30
280
     1
102
RTVSPost2010PropOp30
 70
     1
102
RTVSPost2010Prop31
280
     0
102
RTVSPost2010PropOp31
 70
     1
102
RTVSPost2010Prop32
280
     0
102
RTVSPost2010PropOp32
 70
     1
102
RTVSPost2010Prop33
280
     0
102
RTVSPost2010PropOp33
 70
     1
102
RTVSPost2010Prop34
280
     0
102
RTVSPost2010PropOp34
 70
     1
102
RTVSPost2010Prop35
280
     0
102
RTVSPost2010PropOp35
 70
     1
102
RTVSPost2010Prop36
280
     0
102
RTVSPost2010PropOp36
 70
     1
102
RTVSPost2010Prop37
 90
       50
102
RTVSPost2010PropOp37
 70
     1
102
RTVSPost2010Prop38
140
0.0
102
RTVSPost2010PropOp38
 70
     1
102
RTVSPost2010Prop39
140
1.0
102
RTVSPost2010PropOp39
 70
     1
102
RTVSPost2010Prop40
 90
        0
102
RTVSPost2010PropOp40
 70
     1
102
RTVSPost2010Prop41ColorIndex
 90
       18
102
RTVSPost2010Prop41ColorRGB
 90
        0
102
RTVSPost2010PropOp41
 70
     1
102
RTVSPost2010Prop42
 90
       50
102
RTVSPost2010PropOp42
 70
     1
102
RTVSPost2010Prop43
 90
        3
102
RTVSPost2010PropOp43
 70
     1
102
RTVSPost2010Prop44ColorIndex
 90
        5
102
RTVSPost2010Prop44ColorRGB
 90
      255
102
RTVSPost2010PropOp44
 70
     1
102
RTVSPost2010Prop45
280
     0
102
RTVSPost2010PropOp45
 70
     1
102
RTVSPost2010Prop46
 90
       50
102
RTVSPost2010PropOp46
 70
     1
102
RTVSPost2010Prop47
 90
       50
102
RTVSPost2010PropOp47
 70
     1
102
RTVSPost2010Prop48
 90
       50
102
RTVSPost2010PropOp48
 70
     1
102
RTVSPost2010Prop49
280
     0
102
RTVSPost2010PropOp49
 70
     1
102
RTVSPost2010Prop50
 90
       50
102
RTVSPost2010PropOp50
 70
     1
102
RTVSPost2010Prop51ColorIndex
 90
      256
102
RTVSPost2010Prop51ColorRGB
 90
-16777216
102
RTVSPost2010PropOp51
 70
     0
102
RTVSPost2010Prop52
140
1.0
102
RTVSPost2010PropOp52
 70
     0
102
RTVSPost2010Prop53
 90
        2
102
RTVSPost2010PropOp53
 70
     1
102
RTVSPost2010Prop54
  1
strokes_ogs.tif
102
RTVSPost2010PropOp54
 70
     1
102
RTVSPost2010Prop55
280
     0
102
RTVSPost2010PropOp55
 70
     1
102
RTVSPost2010Prop56
140
1.0
102
RTVSPost2010PropOp56
 70
     1
102
RTVSPost2010Prop57
140
1.0
102
RTVSPost2010PropOp57
 70
     1
  0
XRECORD
  5
543
102
{ACAD_REACTORS
330
542
102
}
330
542
100
AcDbXrecord
280
     1
102
RTVSPropertyOp0
 70
     1
102
RTVSPropertyOp1
 70
     1
102
RTVSPropertyOp2
 70
     1
102
RTVSPropertyOp3
 70
     1
102
RTVSPropertyOp4
 70
     1
102
RTVSPropertyOp5
 70
     1
102
RTVSPropertyOp6
 70
     1
102
RTVSPropertyOp7
 70
     1
102
RTVSPropertyOp8
 70
     1
102
RTVSPropertyOp9
 70
     1
102
RTVSPropertyOp10
 70
     1
102
RTVSPropertyOp11
 70
     1
102
RTVSPropertyOp12
 70
     1
102
RTVSPropertyOp13
 70
     1
102
RTVSPropertyOp14
 70
     1
102
RTVSPropertyOp15
 70
     1
102
RTVSPropertyOp16
 70
     1
102
RTVSPropertyOp17
 70
     1
102
RTVSPropertyOp18
 70
     1
102
RTVSPropertyOp19
 70
     1
102
RTVSPropertyOp20
 70
     1
102
RTVSPropertyOp21
 70
     1
102
RTVSPropertyOp22
 70
     1
102
RTVSPropertyOp23
 70
     1
102
RTVSPropertyOp24
 70
     1
102
RTVSPropertyOp25
 70
     1
102
RTVSPropertyOp26
 70
     1
102
RTVSPropertyOp27
 70
     1
102
RTVSPropertyOp28
 70
     1
102
RTVSPropertyOp29
 70
     1
102
RTVSPropertyOp30
 70
     1
102
RTVSPropertyOp31
 70
     1
102
RTVSPropertyOp32
 70
     1
102
RTVSPropertyOp33
 70
     1
102
RTVSPropertyOp34
 70
     1
102
RTVSPropertyOp35
 70
     1
102
RTVSPropertyOp36
 70
     1
102
RTVSPropertyOp37
 70
     1
102
RTVSPropertyOp38
 70
     1
102
RTVSPropertyOp39
 70
     1
102
RTVSPropertyOp40
 70
     1
102
RTVSPropertyOp41
 70
     1
102
RTVSPropertyOp42
 70
     1
102
RTVSPropertyOp43
 70
     1
102
RTVSPropertyOp44
 70
     1
102
RTVSPropertyOp45
 70
     1
102
RTVSPropertyOp46
 70
     1
102
RTVSPropertyOp47
 70
     1
102
RTVSPropertyOp48
 70
     1
102
RTVSPropertyOp49
 70
     1
102
RTVSPropertyOp50
 70
     1
102
RTVSPropertyOp51
 70
     0
102
RTVSPropertyOp52
 70
     0
102
RTVSPropertyOp53
 70
     1
102
RTVSPropertyOp54
 70
     1
102
RTVSPropertyOp55
 70
     1
102
RTVSPropertyOp56
 70
     1
102
RTVSPropertyOp57
 70
     1
102
RTVSPost2010Prop28
280
     0
102
RTVSPost2010PropOp28
 70
     1
102
RTVSPost2010Prop29
280
     1
102
RTVSPost2010PropOp29
 70
     1
102
RTVSPost2010Prop30
280
     1
102
RTVSPost2010PropOp30
 70
     1
102
RTVSPost2010Prop31
280
     0
102
RTVSPost2010PropOp31
 70
     1
102
RTVSPost2010Prop32
280
     0
102
RTVSPost2010PropOp32
 70
     1
102
RTVSPost2010Prop33
280
     0
102
RTVSPost2010PropOp33
 70
     1
102
RTVSPost2010Prop34
280
     0
102
RTVSPost2010PropOp34
 70
     1
102
RTVSPost2010Prop35
280
     0
102
RTVSPost2010PropOp35
 70
     1
102
RTVSPost2010Prop36
280
     0
102
RTVSPost2010PropOp36
 70
     1
102
RTVSPost2010Prop37
 90
       50
102
RTVSPost2010PropOp37
 70
     1
102
RTVSPost2010Prop38
140
0.0
102
RTVSPost2010PropOp38
 70
     1
102
RTVSPost2010Prop39
140
1.0
102
RTVSPost2010PropOp39
 70
     1
102
RTVSPost2010Prop40
 90
        0
102
RTVSPost2010PropOp40
 70
     1
102
RTVSPost2010Prop41ColorIndex
 90
       18
102
RTVSPost2010Prop41ColorRGB
 90
        0
102
RTVSPost2010PropOp41
 70
     1
102
RTVSPost2010Prop42
 90
       50
102
RTVSPost2010PropOp42
 70
     1
102
RTVSPost2010Prop43
 90
        3
102
RTVSPost2010PropOp43
 70
     1
102
RTVSPost2010Prop44ColorIndex
 90
        5
102
RTVSPost2010Prop44ColorRGB
 90
      255
102
RTVSPost2010PropOp44
 70
     1
102
RTVSPost2010Prop45
280
     0
102
RTVSPost2010PropOp45
 70
     1
102
RTVSPost2010Prop46
 90
       50
102
RTVSPost2010PropOp46
 70
     1
102
RTVSPost2010Prop47
 90
       50
102
RTVSPost2010PropOp47
 70
     1
102
RTVSPost2010Prop48
 90
       50
102
RTVSPost2010PropOp48
 70
     1
102
RTVSPost2010Prop49
280
     0
102
RTVSPost2010PropOp49
 70
     1
102
RTVSPost2010Prop50
 90
       50
102
RTVSPost2010PropOp50
 70
     1
102
RTVSPost2010Prop51ColorIndex
 90
      256
102
RTVSPost2010Prop51ColorRGB
 90
-16777216
102
RTVSPost2010PropOp51
 70
     0
102
RTVSPost2010Prop52
140
1.0
102
RTVSPost2010PropOp52
 70
     0
102
RTVSPost2010Prop53
 90
        2
102
RTVSPost2010PropOp53
 70
     1
102
RTVSPost2010Prop54
  1
strokes_ogs.tif
102
RTVSPost2010PropOp54
 70
     1
102
RTVSPost2010Prop55
280
     0
102
RTVSPost2010PropOp55
 70
     1
102
RTVSPost2010Prop56
140
1.0
102
RTVSPost2010PropOp56
 70
     1
102
RTVSPost2010Prop57
140
1.0
102
RTVSPost2010PropOp57
 70
     1
  0
XRECORD
  5
557
102
{ACAD_REACTORS
330
556
102
}
330
556
100
AcDbXrecord
280
     1
102
RTVSPropertyOp0
 70
     0
102
RTVSPropertyOp1
 70
     0
102
RTVSPropertyOp2
 70
     0
102
RTVSPropertyOp3
 70
     0
102
RTVSPropertyOp4
 70
     0
102
RTVSPropertyOp5
 70
     0
102
RTVSPropertyOp6
 70
     0
102
RTVSPropertyOp7
 70
     0
102
RTVSPropertyOp8
 70
     0
102
RTVSPropertyOp9
 70
     0
102
RTVSPropertyOp10
 70
     0
102
RTVSPropertyOp11
 70
     0
102
RTVSPropertyOp12
 70
     0
102
RTVSPropertyOp13
 70
     0
102
RTVSPropertyOp14
 70
     0
102
RTVSPropertyOp15
 70
     0
102
RTVSPropertyOp16
 70
     0
102
RTVSPropertyOp17
 70
     0
102
RTVSPropertyOp18
 70
     0
102
RTVSPropertyOp19
 70
     0
102
RTVSPropertyOp20
 70
     0
102
RTVSPropertyOp21
 70
     0
102
RTVSPropertyOp22
 70
     0
102
RTVSPropertyOp23
 70
     0
102
RTVSPropertyOp24
 70
     0
102
RTVSPropertyOp25
 70
     0
102
RTVSPropertyOp26
 70
     0
102
RTVSPropertyOp27
 70
     0
102
RTVSPropertyOp28
 70
     1
102
RTVSPropertyOp29
 70
     1
102
RTVSPropertyOp30
 70
     1
102
RTVSPropertyOp31
 70
     1
102
RTVSPropertyOp32
 70
     1
102
RTVSPropertyOp33
 70
     1
102
RTVSPropertyOp34
 70
     1
102
RTVSPropertyOp35
 70
     1
102
RTVSPropertyOp36
 70
     1
102
RTVSPropertyOp37
 70
     1
102
RTVSPropertyOp38
 70
     1
102
RTVSPropertyOp39
 70
     1
102
RTVSPropertyOp40
 70
     1
102
RTVSPropertyOp41
 70
     1
102
RTVSPropertyOp42
 70
     1
102
RTVSPropertyOp43
 70
     1
102
RTVSPropertyOp44
 70
     1
102
RTVSPropertyOp45
 70
     1
102
RTVSPropertyOp46
 70
     1
102
RTVSPropertyOp47
 70
     1
102
RTVSPropertyOp48
 70
     1
102
RTVSPropertyOp49
 70
     1
102
RTVSPropertyOp50
 70
     1
102
RTVSPropertyOp51
 70
     0
102
RTVSPropertyOp52
 70
     0
102
RTVSPropertyOp53
 70
     1
102
RTVSPropertyOp54
 70
     1
102
RTVSPropertyOp55
 70
     1
102
RTVSPropertyOp56
 70
     1
102
RTVSPropertyOp57
 70
     1
102
RTVSPost2010Prop28
280
     0
102
RTVSPost2010PropOp28
 70
     1
102
RTVSPost2010Prop29
280
     1
102
RTVSPost2010PropOp29
 70
     1
102
RTVSPost2010Prop30
280
     1
102
RTVSPost2010PropOp30
 70
     1
102
RTVSPost2010Prop31
280
     0
102
RTVSPost2010PropOp31
 70
     1
102
RTVSPost2010Prop32
280
     0
102
RTVSPost2010PropOp32
 70
     1
102
RTVSPost2010Prop33
280
     0
102
RTVSPost2010PropOp33
 70
     1
102
RTVSPost2010Prop34
280
     0
102
RTVSPost2010PropOp34
 70
     1
102
RTVSPost2010Prop35
280
     0
102
RTVSPost2010PropOp35
 70
     1
102
RTVSPost2010Prop36
280
     0
102
RTVSPost2010PropOp36
 70
     1
102
RTVSPost2010Prop37
 90
       50
102
RTVSPost2010PropOp37
 70
     1
102
RTVSPost2010Prop38
140
0.0
102
RTVSPost2010PropOp38
 70
     1
102
RTVSPost2010Prop39
140
1.0
102
RTVSPost2010PropOp39
 70
     1
102
RTVSPost2010Prop40
 90
        0
102
RTVSPost2010PropOp40
 70
     1
102
RTVSPost2010Prop41ColorIndex
 90
       18
102
RTVSPost2010Prop41ColorRGB
 90
        0
102
RTVSPost2010PropOp41
 70
     1
102
RTVSPost2010Prop42
 90
       50
102
RTVSPost2010PropOp42
 70
     1
102
RTVSPost2010Prop43
 90
        3
102
RTVSPost2010PropOp43
 70
     1
102
RTVSPost2010Prop44ColorIndex
 90
        5
102
RTVSPost2010Prop44ColorRGB
 90
      255
102
RTVSPost2010PropOp44
 70
     1
102
RTVSPost2010Prop45
280
     0
102
RTVSPost2010PropOp45
 70
     1
102
RTVSPost2010Prop46
 90
       50
102
RTVSPost2010PropOp46
 70
     1
102
RTVSPost2010Prop47
 90
       50
102
RTVSPost2010PropOp47
 70
     1
102
RTVSPost2010Prop48
 90
       50
102
RTVSPost2010PropOp48
 70
     1
102
RTVSPost2010Prop49
280
     0
102
RTVSPost2010PropOp49
 70
     1
102
RTVSPost2010Prop50
 90
       50
102
RTVSPost2010PropOp50
 70
     1
102
RTVSPost2010Prop51ColorIndex
 90
      256
102
RTVSPost2010Prop51ColorRGB
 90
-16777216
102
RTVSPost2010PropOp51
 70
     0
102
RTVSPost2010Prop52
140
1.0
102
RTVSPost2010PropOp52
 70
     0
102
RTVSPost2010Prop53
 90
        2
102
RTVSPost2010PropOp53
 70
     1
102
RTVSPost2010Prop54
  1
strokes_ogs.tif
102
RTVSPost2010PropOp54
 70
     1
102
RTVSPost2010Prop55
280
     0
102
RTVSPost2010PropOp55
 70
     1
102
RTVSPost2010Prop56
140
1.0
102
RTVSPost2010PropOp56
 70
     1
102
RTVSPost2010Prop57
140
1.0
102
RTVSPost2010PropOp57
 70
     1
  0
XRECORD
  5
551
102
{ACAD_REACTORS
330
550
102
}
330
550
100
AcDbXrecord
280
     1
102
RTVSPropertyOp0
 70
     1
102
RTVSPropertyOp1
 70
     1
102
RTVSPropertyOp2
 70
     1
102
RTVSPropertyOp3
 70
     1
102
RTVSPropertyOp4
 70
     1
102
RTVSPropertyOp5
 70
     1
102
RTVSPropertyOp6
 70
     1
102
RTVSPropertyOp7
 70
     1
102
RTVSPropertyOp8
 70
     1
102
RTVSPropertyOp9
 70
     1
102
RTVSPropertyOp10
 70
     1
102
RTVSPropertyOp11
 70
     1
102
RTVSPropertyOp12
 70
     1
102
RTVSPropertyOp13
 70
     1
102
RTVSPropertyOp14
 70
     1
102
RTVSPropertyOp15
 70
     1
102
RTVSPropertyOp16
 70
     1
102
RTVSPropertyOp17
 70
     1
102
RTVSPropertyOp18
 70
     1
102
RTVSPropertyOp19
 70
     1
102
RTVSPropertyOp20
 70
     1
102
RTVSPropertyOp21
 70
     1
102
RTVSPropertyOp22
 70
     1
102
RTVSPropertyOp23
 70
     1
102
RTVSPropertyOp24
 70
     1
102
RTVSPropertyOp25
 70
     1
102
RTVSPropertyOp26
 70
     1
102
RTVSPropertyOp27
 70
     1
102
RTVSPropertyOp28
 70
     1
102
RTVSPropertyOp29
 70
     1
102
RTVSPropertyOp30
 70
     1
102
RTVSPropertyOp31
 70
     1
102
RTVSPropertyOp32
 70
     1
102
RTVSPropertyOp33
 70
     1
102
RTVSPropertyOp34
 70
     1
102
RTVSPropertyOp35
 70
     1
102
RTVSPropertyOp36
 70
     1
102
RTVSPropertyOp37
 70
     1
102
RTVSPropertyOp38
 70
     1
102
RTVSPropertyOp39
 70
     1
102
RTVSPropertyOp40
 70
     1
102
RTVSPropertyOp41
 70
     1
102
RTVSPropertyOp42
 70
     1
102
RTVSPropertyOp43
 70
     1
102
RTVSPropertyOp44
 70
     1
102
RTVSPropertyOp45
 70
     1
102
RTVSPropertyOp46
 70
     1
102
RTVSPropertyOp47
 70
     1
102
RTVSPropertyOp48
 70
     1
102
RTVSPropertyOp49
 70
     1
102
RTVSPropertyOp50
 70
     1
102
RTVSPropertyOp51
 70
     0
102
RTVSPropertyOp52
 70
     0
102
RTVSPropertyOp53
 70
     1
102
RTVSPropertyOp54
 70
     1
102
RTVSPropertyOp55
 70
     1
102
RTVSPropertyOp56
 70
     1
102
RTVSPropertyOp57
 70
     1
102
RTVSPost2010Prop28
280
     0
102
RTVSPost2010PropOp28
 70
     1
102
RTVSPost2010Prop29
280
     1
102
RTVSPost2010PropOp29
 70
     1
102
RTVSPost2010Prop30
280
     1
102
RTVSPost2010PropOp30
 70
     1
102
RTVSPost2010Prop31
280
     0
102
RTVSPost2010PropOp31
 70
     1
102
RTVSPost2010Prop32
280
     0
102
RTVSPost2010PropOp32
 70
     1
102
RTVSPost2010Prop33
280
     0
102
RTVSPost2010PropOp33
 70
     1
102
RTVSPost2010Prop34
280
     0
102
RTVSPost2010PropOp34
 70
     1
102
RTVSPost2010Prop35
280
     0
102
RTVSPost2010PropOp35
 70
     1
102
RTVSPost2010Prop36
280
     0
102
RTVSPost2010PropOp36
 70
     1
102
RTVSPost2010Prop37
 90
       50
102
RTVSPost2010PropOp37
 70
     1
102
RTVSPost2010Prop38
140
0.0
102
RTVSPost2010PropOp38
 70
     1
102
RTVSPost2010Prop39
140
1.0
102
RTVSPost2010PropOp39
 70
     1
102
RTVSPost2010Prop40
 90
        0
102
RTVSPost2010PropOp40
 70
     1
102
RTVSPost2010Prop41ColorIndex
 90
       18
102
RTVSPost2010Prop41ColorRGB
 90
        0
102
RTVSPost2010PropOp41
 70
     1
102
RTVSPost2010Prop42
 90
       50
102
RTVSPost2010PropOp42
 70
     1
102
RTVSPost2010Prop43
 90
        3
102
RTVSPost2010PropOp43
 70
     1
102
RTVSPost2010Prop44ColorIndex
 90
        5
102
RTVSPost2010Prop44ColorRGB
 90
      255
102
RTVSPost2010PropOp44
 70
     1
102
RTVSPost2010Prop45
280
     0
102
RTVSPost2010PropOp45
 70
     1
102
RTVSPost2010Prop46
 90
       50
102
RTVSPost2010PropOp46
 70
     1
102
RTVSPost2010Prop47
 90
       50
102
RTVSPost2010PropOp47
 70
     1
102
RTVSPost2010Prop48
 90
       50
102
RTVSPost2010PropOp48
 70
     1
102
RTVSPost2010Prop49
280
     0
102
RTVSPost2010PropOp49
 70
     1
102
RTVSPost2010Prop50
 90
       50
102
RTVSPost2010PropOp50
 70
     1
102
RTVSPost2010Prop51ColorIndex
 90
      256
102
RTVSPost2010Prop51ColorRGB
 90
-16777216
102
RTVSPost2010PropOp51
 70
     0
102
RTVSPost2010Prop52
140
1.0
102
RTVSPost2010PropOp52
 70
     0
102
RTVSPost2010Prop53
 90
        2
102
RTVSPost2010PropOp53
 70
     1
102
RTVSPost2010Prop54
  1
strokes_ogs.tif
102
RTVSPost2010PropOp54
 70
     1
102
RTVSPost2010Prop55
280
     0
102
RTVSPost2010PropOp55
 70
     1
102
RTVSPost2010Prop56
140
1.0
102
RTVSPost2010PropOp56
 70
     1
102
RTVSPost2010Prop57
140
1.0
102
RTVSPost2010PropOp57
 70
     1
  0
XRECORD
  5
559
102
{ACAD_REACTORS
330
558
102
}
330
558
100
AcDbXrecord
280
     1
102
RTVSPropertyOp0
 70
     0
102
RTVSPropertyOp1
 70
     0
102
RTVSPropertyOp2
 70
     0
102
RTVSPropertyOp3
 70
     0
102
RTVSPropertyOp4
 70
     0
102
RTVSPropertyOp5
 70
     0
102
RTVSPropertyOp6
 70
     0
102
RTVSPropertyOp7
 70
     0
102
RTVSPropertyOp8
 70
     0
102
RTVSPropertyOp9
 70
     0
102
RTVSPropertyOp10
 70
     0
102
RTVSPropertyOp11
 70
     0
102
RTVSPropertyOp12
 70
     0
102
RTVSPropertyOp13
 70
     0
102
RTVSPropertyOp14
 70
     0
102
RTVSPropertyOp15
 70
     0
102
RTVSPropertyOp16
 70
     0
102
RTVSPropertyOp17
 70
     0
102
RTVSPropertyOp18
 70
     0
102
RTVSPropertyOp19
 70
     0
102
RTVSPropertyOp20
 70
     0
102
RTVSPropertyOp21
 70
     0
102
RTVSPropertyOp22
 70
     0
102
RTVSPropertyOp23
 70
     0
102
RTVSPropertyOp24
 70
     0
102
RTVSPropertyOp25
 70
     0
102
RTVSPropertyOp26
 70
     0
102
RTVSPropertyOp27
 70
     0
102
RTVSPropertyOp28
 70
     1
102
RTVSPropertyOp29
 70
     1
102
RTVSPropertyOp30
 70
     1
102
RTVSPropertyOp31
 70
     1
102
RTVSPropertyOp32
 70
     1
102
RTVSPropertyOp33
 70
     1
102
RTVSPropertyOp34
 70
     1
102
RTVSPropertyOp35
 70
     1
102
RTVSPropertyOp36
 70
     1
102
RTVSPropertyOp37
 70
     1
102
RTVSPropertyOp38
 70
     1
102
RTVSPropertyOp39
 70
     1
102
RTVSPropertyOp40
 70
     1
102
RTVSPropertyOp41
 70
     1
102
RTVSPropertyOp42
 70
     1
102
RTVSPropertyOp43
 70
     1
102
RTVSPropertyOp44
 70
     1
102
RTVSPropertyOp45
 70
     1
102
RTVSPropertyOp46
 70
     1
102
RTVSPropertyOp47
 70
     1
102
RTVSPropertyOp48
 70
     1
102
RTVSPropertyOp49
 70
     1
102
RTVSPropertyOp50
 70
     1
102
RTVSPropertyOp51
 70
     0
102
RTVSPropertyOp52
 70
     0
102
RTVSPropertyOp53
 70
     1
102
RTVSPropertyOp54
 70
     1
102
RTVSPropertyOp55
 70
     1
102
RTVSPropertyOp56
 70
     1
102
RTVSPropertyOp57
 70
     1
102
RTVSPost2010Prop28
280
     0
102
RTVSPost2010PropOp28
 70
     1
102
RTVSPost2010Prop29
280
     1
102
RTVSPost2010PropOp29
 70
     1
102
RTVSPost2010Prop30
280
     1
102
RTVSPost2010PropOp30
 70
     1
102
RTVSPost2010Prop31
280
     0
102
RTVSPost2010PropOp31
 70
     1
102
RTVSPost2010Prop32
280
     0
102
RTVSPost2010PropOp32
 70
     1
102
RTVSPost2010Prop33
280
     0
102
RTVSPost2010PropOp33
 70
     1
102
RTVSPost2010Prop34
280
     0
102
RTVSPost2010PropOp34
 70
     1
102
RTVSPost2010Prop35
280
     0
102
RTVSPost2010PropOp35
 70
     1
102
RTVSPost2010Prop36
280
     0
102
RTVSPost2010PropOp36
 70
     1
102
RTVSPost2010Prop37
 90
       50
102
RTVSPost2010PropOp37
 70
     1
102
RTVSPost2010Prop38
140
0.0
102
RTVSPost2010PropOp38
 70
     1
102
RTVSPost2010Prop39
140
1.0
102
RTVSPost2010PropOp39
 70
     1
102
RTVSPost2010Prop40
 90
        0
102
RTVSPost2010PropOp40
 70
     1
102
RTVSPost2010Prop41ColorIndex
 90
       18
102
RTVSPost2010Prop41ColorRGB
 90
        0
102
RTVSPost2010PropOp41
 70
     1
102
RTVSPost2010Prop42
 90
       50
102
RTVSPost2010PropOp42
 70
     1
102
RTVSPost2010Prop43
 90
        3
102
RTVSPost2010PropOp43
 70
     1
102
RTVSPost2010Prop44ColorIndex
 90
        5
102
RTVSPost2010Prop44ColorRGB
 90
      255
102
RTVSPost2010PropOp44
 70
     1
102
RTVSPost2010Prop45
280
     0
102
RTVSPost2010PropOp45
 70
     1
102
RTVSPost2010Prop46
 90
       50
102
RTVSPost2010PropOp46
 70
     1
102
RTVSPost2010Prop47
 90
       50
102
RTVSPost2010PropOp47
 70
     1
102
RTVSPost2010Prop48
 90
       50
102
RTVSPost2010PropOp48
 70
     1
102
RTVSPost2010Prop49
280
     0
102
RTVSPost2010PropOp49
 70
     1
102
RTVSPost2010Prop50
 90
       50
102
RTVSPost2010PropOp50
 70
     1
102
RTVSPost2010Prop51ColorIndex
 90
      256
102
RTVSPost2010Prop51ColorRGB
 90
-16777216
102
RTVSPost2010PropOp51
 70
     0
102
RTVSPost2010Prop52
140
1.0
102
RTVSPost2010PropOp52
 70
     0
102
RTVSPost2010Prop53
 90
        2
102
RTVSPost2010PropOp53
 70
     1
102
RTVSPost2010Prop54
  1
strokes_ogs.tif
102
RTVSPost2010PropOp54
 70
     1
102
RTVSPost2010Prop55
280
     0
102
RTVSPost2010PropOp55
 70
     1
102
RTVSPost2010Prop56
140
1.0
102
RTVSPost2010PropOp56
 70
     1
102
RTVSPost2010Prop57
140
1.0
102
RTVSPost2010PropOp57
 70
     1
  0
XRECORD
  5
547
102
{ACAD_REACTORS
330
546
102
}
330
546
100
AcDbXrecord
280
     1
102
RTVSPropertyOp0
 70
     1
102
RTVSPropertyOp1
 70
     1
102
RTVSPropertyOp2
 70
     1
102
RTVSPropertyOp3
 70
     1
102
RTVSPropertyOp4
 70
     1
102
RTVSPropertyOp5
 70
     1
102
RTVSPropertyOp6
 70
     1
102
RTVSPropertyOp7
 70
     1
102
RTVSPropertyOp8
 70
     1
102
RTVSPropertyOp9
 70
     1
102
RTVSPropertyOp10
 70
     1
102
RTVSPropertyOp11
 70
     1
102
RTVSPropertyOp12
 70
     1
102
RTVSPropertyOp13
 70
     1
102
RTVSPropertyOp14
 70
     1
102
RTVSPropertyOp15
 70
     1
102
RTVSPropertyOp16
 70
     1
102
RTVSPropertyOp17
 70
     1
102
RTVSPropertyOp18
 70
     1
102
RTVSPropertyOp19
 70
     1
102
RTVSPropertyOp20
 70
     1
102
RTVSPropertyOp21
 70
     1
102
RTVSPropertyOp22
 70
     1
102
RTVSPropertyOp23
 70
     1
102
RTVSPropertyOp24
 70
     1
102
RTVSPropertyOp25
 70
     1
102
RTVSPropertyOp26
 70
     1
102
RTVSPropertyOp27
 70
     1
102
RTVSPropertyOp28
 70
     1
102
RTVSPropertyOp29
 70
     1
102
RTVSPropertyOp30
 70
     1
102
RTVSPropertyOp31
 70
     1
102
RTVSPropertyOp32
 70
     1
102
RTVSPropertyOp33
 70
     1
102
RTVSPropertyOp34
 70
     1
102
RTVSPropertyOp35
 70
     1
102
RTVSPropertyOp36
 70
     1
102
RTVSPropertyOp37
 70
     1
102
RTVSPropertyOp38
 70
     1
102
RTVSPropertyOp39
 70
     1
102
RTVSPropertyOp40
 70
     1
102
RTVSPropertyOp41
 70
     1
102
RTVSPropertyOp42
 70
     1
102
RTVSPropertyOp43
 70
     1
102
RTVSPropertyOp44
 70
     1
102
RTVSPropertyOp45
 70
     1
102
RTVSPropertyOp46
 70
     1
102
RTVSPropertyOp47
 70
     1
102
RTVSPropertyOp48
 70
     1
102
RTVSPropertyOp49
 70
     1
102
RTVSPropertyOp50
 70
     1
102
RTVSPropertyOp51
 70
     0
102
RTVSPropertyOp52
 70
     0
102
RTVSPropertyOp53
 70
     1
102
RTVSPropertyOp54
 70
     1
102
RTVSPropertyOp55
 70
     1
102
RTVSPropertyOp56
 70
     1
102
RTVSPropertyOp57
 70
     1
102
RTVSPost2010Prop28
280
     0
102
RTVSPost2010PropOp28
 70
     1
102
RTVSPost2010Prop29
280
     1
102
RTVSPost2010PropOp29
 70
     1
102
RTVSPost2010Prop30
280
     1
102
RTVSPost2010PropOp30
 70
     1
102
RTVSPost2010Prop31
280
     0
102
RTVSPost2010PropOp31
 70
     1
102
RTVSPost2010Prop32
280
     0
102
RTVSPost2010PropOp32
 70
     1
102
RTVSPost2010Prop33
280
     0
102
RTVSPost2010PropOp33
 70
     1
102
RTVSPost2010Prop34
280
     0
102
RTVSPost2010PropOp34
 70
     1
102
RTVSPost2010Prop35
280
     0
102
RTVSPost2010PropOp35
 70
     1
102
RTVSPost2010Prop36
280
     0
102
RTVSPost2010PropOp36
 70
     1
102
RTVSPost2010Prop37
 90
       50
102
RTVSPost2010PropOp37
 70
     1
102
RTVSPost2010Prop38
140
0.0
102
RTVSPost2010PropOp38
 70
     1
102
RTVSPost2010Prop39
140
1.0
102
RTVSPost2010PropOp39
 70
     1
102
RTVSPost2010Prop40
 90
        0
102
RTVSPost2010PropOp40
 70
     1
102
RTVSPost2010Prop41ColorIndex
 90
       18
102
RTVSPost2010Prop41ColorRGB
 90
        0
102
RTVSPost2010PropOp41
 70
     1
102
RTVSPost2010Prop42
 90
       50
102
RTVSPost2010PropOp42
 70
     1
102
RTVSPost2010Prop43
 90
        3
102
RTVSPost2010PropOp43
 70
     1
102
RTVSPost2010Prop44ColorIndex
 90
        5
102
RTVSPost2010Prop44ColorRGB
 90
      255
102
RTVSPost2010PropOp44
 70
     1
102
RTVSPost2010Prop45
280
     0
102
RTVSPost2010PropOp45
 70
     1
102
RTVSPost2010Prop46
 90
       50
102
RTVSPost2010PropOp46
 70
     1
102
RTVSPost2010Prop47
 90
       50
102
RTVSPost2010PropOp47
 70
     1
102
RTVSPost2010Prop48
 90
       50
102
RTVSPost2010PropOp48
 70
     1
102
RTVSPost2010Prop49
280
     0
102
RTVSPost2010PropOp49
 70
     1
102
RTVSPost2010Prop50
 90
       50
102
RTVSPost2010PropOp50
 70
     1
102
RTVSPost2010Prop51ColorIndex
 90
      256
102
RTVSPost2010Prop51ColorRGB
 90
-16777216
102
RTVSPost2010PropOp51
 70
     0
102
RTVSPost2010Prop52
140
1.0
102
RTVSPost2010PropOp52
 70
     0
102
RTVSPost2010Prop53
 90
        2
102
RTVSPost2010PropOp53
 70
     1
102
RTVSPost2010Prop54
  1
strokes_ogs.tif
102
RTVSPost2010PropOp54
 70
     1
102
RTVSPost2010Prop55
280
     0
102
RTVSPost2010PropOp55
 70
     1
102
RTVSPost2010Prop56
140
1.0
102
RTVSPost2010PropOp56
 70
     1
102
RTVSPost2010Prop57
140
1.0
102
RTVSPost2010PropOp57
 70
     1
  0
XRECORD
  5
565
102
{ACAD_REACTORS
330
564
102
}
330
564
100
AcDbXrecord
280
     1
102
RTVSPropertyOp0
 70
     1
102
RTVSPropertyOp1
 70
     1
102
RTVSPropertyOp2
 70
     1
102
RTVSPropertyOp3
 70
     1
102
RTVSPropertyOp4
 70
     1
102
RTVSPropertyOp5
 70
     1
102
RTVSPropertyOp6
 70
     1
102
RTVSPropertyOp7
 70
     1
102
RTVSPropertyOp8
 70
     1
102
RTVSPropertyOp9
 70
     1
102
RTVSPropertyOp10
 70
     1
102
RTVSPropertyOp11
 70
     1
102
RTVSPropertyOp12
 70
     1
102
RTVSPropertyOp13
 70
     1
102
RTVSPropertyOp14
 70
     1
102
RTVSPropertyOp15
 70
     1
102
RTVSPropertyOp16
 70
     1
102
RTVSPropertyOp17
 70
     1
102
RTVSPropertyOp18
 70
     1
102
RTVSPropertyOp19
 70
     1
102
RTVSPropertyOp20
 70
     1
102
RTVSPropertyOp21
 70
     1
102
RTVSPropertyOp22
 70
     1
102
RTVSPropertyOp23
 70
     1
102
RTVSPropertyOp24
 70
     1
102
RTVSPropertyOp25
 70
     1
102
RTVSPropertyOp26
 70
     1
102
RTVSPropertyOp27
 70
     1
102
RTVSPropertyOp28
 70
     1
102
RTVSPropertyOp29
 70
     1
102
RTVSPropertyOp30
 70
     1
102
RTVSPropertyOp31
 70
     1
102
RTVSPropertyOp32
 70
     1
102
RTVSPropertyOp33
 70
     1
102
RTVSPropertyOp34
 70
     1
102
RTVSPropertyOp35
 70
     1
102
RTVSPropertyOp36
 70
     1
102
RTVSPropertyOp37
 70
     1
102
RTVSPropertyOp38
 70
     1
102
RTVSPropertyOp39
 70
     1
102
RTVSPropertyOp40
 70
     1
102
RTVSPropertyOp41
 70
     1
102
RTVSPropertyOp42
 70
     1
102
RTVSPropertyOp43
 70
     1
102
RTVSPropertyOp44
 70
     1
102
RTVSPropertyOp45
 70
     1
102
RTVSPropertyOp46
 70
     1
102
RTVSPropertyOp47
 70
     1
102
RTVSPropertyOp48
 70
     1
102
RTVSPropertyOp49
 70
     1
102
RTVSPropertyOp50
 70
     1
102
RTVSPropertyOp51
 70
     0
102
RTVSPropertyOp52
 70
     0
102
RTVSPropertyOp53
 70
     1
102
RTVSPropertyOp54
 70
     1
102
RTVSPropertyOp55
 70
     1
102
RTVSPropertyOp56
 70
     1
102
RTVSPropertyOp57
 70
     1
102
RTVSPost2010Prop28
280
     0
102
RTVSPost2010PropOp28
 70
     1
102
RTVSPost2010Prop29
280
     1
102
RTVSPost2010PropOp29
 70
     1
102
RTVSPost2010Prop30
280
     1
102
RTVSPost2010PropOp30
 70
     1
102
RTVSPost2010Prop31
280
     0
102
RTVSPost2010PropOp31
 70
     1
102
RTVSPost2010Prop32
280
     0
102
RTVSPost2010PropOp32
 70
     1
102
RTVSPost2010Prop33
280
     0
102
RTVSPost2010PropOp33
 70
     1
102
RTVSPost2010Prop34
280
     0
102
RTVSPost2010PropOp34
 70
     1
102
RTVSPost2010Prop35
280
     0
102
RTVSPost2010PropOp35
 70
     1
102
RTVSPost2010Prop36
280
     0
102
RTVSPost2010PropOp36
 70
     1
102
RTVSPost2010Prop37
 90
       50
102
RTVSPost2010PropOp37
 70
     1
102
RTVSPost2010Prop38
140
0.0
102
RTVSPost2010PropOp38
 70
     1
102
RTVSPost2010Prop39
140
1.0
102
RTVSPost2010PropOp39
 70
     1
102
RTVSPost2010Prop40
 90
        0
102
RTVSPost2010PropOp40
 70
     1
102
RTVSPost2010Prop41ColorIndex
 90
       18
102
RTVSPost2010Prop41ColorRGB
 90
        0
102
RTVSPost2010PropOp41
 70
     1
102
RTVSPost2010Prop42
 90
       50
102
RTVSPost2010PropOp42
 70
     1
102
RTVSPost2010Prop43
 90
        3
102
RTVSPost2010PropOp43
 70
     1
102
RTVSPost2010Prop44ColorIndex
 90
        5
102
RTVSPost2010Prop44ColorRGB
 90
      255
102
RTVSPost2010PropOp44
 70
     1
102
RTVSPost2010Prop45
280
     0
102
RTVSPost2010PropOp45
 70
     1
102
RTVSPost2010Prop46
 90
       50
102
RTVSPost2010PropOp46
 70
     1
102
RTVSPost2010Prop47
 90
       50
102
RTVSPost2010PropOp47
 70
     1
102
RTVSPost2010Prop48
 90
       50
102
RTVSPost2010PropOp48
 70
     1
102
RTVSPost2010Prop49
280
     0
102
RTVSPost2010PropOp49
 70
     1
102
RTVSPost2010Prop50
 90
       50
102
RTVSPost2010PropOp50
 70
     1
102
RTVSPost2010Prop51ColorIndex
 90
      256
102
RTVSPost2010Prop51ColorRGB
 90
-16777216
102
RTVSPost2010PropOp51
 70
     0
102
RTVSPost2010Prop52
140
1.0
102
RTVSPost2010PropOp52
 70
     0
102
RTVSPost2010Prop53
 90
        2
102
RTVSPost2010PropOp53
 70
     1
102
RTVSPost2010Prop54
  1
strokes_ogs.tif
102
RTVSPost2010PropOp54
 70
     1
102
RTVSPost2010Prop55
280
     0
102
RTVSPost2010PropOp55
 70
     1
102
RTVSPost2010Prop56
140
1.0
102
RTVSPost2010PropOp56
 70
     1
102
RTVSPost2010Prop57
140
1.0
102
RTVSPost2010PropOp57
 70
     1
  0
XRECORD
  5
563
102
{ACAD_REACTORS
330
562
102
}
330
562
100
AcDbXrecord
280
     1
102
RTVSPropertyOp0
 70
     1
102
RTVSPropertyOp1
 70
     1
102
RTVSPropertyOp2
 70
     1
102
RTVSPropertyOp3
 70
     1
102
RTVSPropertyOp4
 70
     1
102
RTVSPropertyOp5
 70
     1
102
RTVSPropertyOp6
 70
     1
102
RTVSPropertyOp7
 70
     1
102
RTVSPropertyOp8
 70
     1
102
RTVSPropertyOp9
 70
     1
102
RTVSPropertyOp10
 70
     1
102
RTVSPropertyOp11
 70
     1
102
RTVSPropertyOp12
 70
     1
102
RTVSPropertyOp13
 70
     1
102
RTVSPropertyOp14
 70
     1
102
RTVSPropertyOp15
 70
     1
102
RTVSPropertyOp16
 70
     1
102
RTVSPropertyOp17
 70
     1
102
RTVSPropertyOp18
 70
     1
102
RTVSPropertyOp19
 70
     1
102
RTVSPropertyOp20
 70
     1
102
RTVSPropertyOp21
 70
     1
102
RTVSPropertyOp22
 70
     1
102
RTVSPropertyOp23
 70
     1
102
RTVSPropertyOp24
 70
     1
102
RTVSPropertyOp25
 70
     1
102
RTVSPropertyOp26
 70
     1
102
RTVSPropertyOp27
 70
     1
102
RTVSPropertyOp28
 70
     1
102
RTVSPropertyOp29
 70
     1
102
RTVSPropertyOp30
 70
     1
102
RTVSPropertyOp31
 70
     1
102
RTVSPropertyOp32
 70
     1
102
RTVSPropertyOp33
 70
     1
102
RTVSPropertyOp34
 70
     1
102
RTVSPropertyOp35
 70
     1
102
RTVSPropertyOp36
 70
     1
102
RTVSPropertyOp37
 70
     1
102
RTVSPropertyOp38
 70
     1
102
RTVSPropertyOp39
 70
     1
102
RTVSPropertyOp40
 70
     1
102
RTVSPropertyOp41
 70
     1
102
RTVSPropertyOp42
 70
     1
102
RTVSPropertyOp43
 70
     1
102
RTVSPropertyOp44
 70
     1
102
RTVSPropertyOp45
 70
     1
102
RTVSPropertyOp46
 70
     1
102
RTVSPropertyOp47
 70
     1
102
RTVSPropertyOp48
 70
     1
102
RTVSPropertyOp49
 70
     1
102
RTVSPropertyOp50
 70
     1
102
RTVSPropertyOp51
 70
     0
102
RTVSPropertyOp52
 70
     0
102
RTVSPropertyOp53
 70
     1
102
RTVSPropertyOp54
 70
     1
102
RTVSPropertyOp55
 70
     1
102
RTVSPropertyOp56
 70
     1
102
RTVSPropertyOp57
 70
     1
102
RTVSPost2010Prop28
280
     0
102
RTVSPost2010PropOp28
 70
     1
102
RTVSPost2010Prop29
280
     1
102
RTVSPost2010PropOp29
 70
     1
102
RTVSPost2010Prop30
280
     1
102
RTVSPost2010PropOp30
 70
     1
102
RTVSPost2010Prop31
280
     0
102
RTVSPost2010PropOp31
 70
     1
102
RTVSPost2010Prop32
280
     0
102
RTVSPost2010PropOp32
 70
     1
102
RTVSPost2010Prop33
280
     0
102
RTVSPost2010PropOp33
 70
     1
102
RTVSPost2010Prop34
280
     0
102
RTVSPost2010PropOp34
 70
     1
102
RTVSPost2010Prop35
280
     0
102
RTVSPost2010PropOp35
 70
     1
102
RTVSPost2010Prop36
280
     0
102
RTVSPost2010PropOp36
 70
     1
102
RTVSPost2010Prop37
 90
       50
102
RTVSPost2010PropOp37
 70
     1
102
RTVSPost2010Prop38
140
0.0
102
RTVSPost2010PropOp38
 70
     1
102
RTVSPost2010Prop39
140
1.0
102
RTVSPost2010PropOp39
 70
     1
102
RTVSPost2010Prop40
 90
        0
102
RTVSPost2010PropOp40
 70
     1
102
RTVSPost2010Prop41ColorIndex
 90
       18
102
RTVSPost2010Prop41ColorRGB
 90
        0
102
RTVSPost2010PropOp41
 70
     1
102
RTVSPost2010Prop42
 90
       50
102
RTVSPost2010PropOp42
 70
     1
102
RTVSPost2010Prop43
 90
        3
102
RTVSPost2010PropOp43
 70
     1
102
RTVSPost2010Prop44ColorIndex
 90
        5
102
RTVSPost2010Prop44ColorRGB
 90
      255
102
RTVSPost2010PropOp44
 70
     1
102
RTVSPost2010Prop45
280
     0
102
RTVSPost2010PropOp45
 70
     1
102
RTVSPost2010Prop46
 90
       50
102
RTVSPost2010PropOp46
 70
     1
102
RTVSPost2010Prop47
 90
       50
102
RTVSPost2010PropOp47
 70
     1
102
RTVSPost2010Prop48
 90
       50
102
RTVSPost2010PropOp48
 70
     1
102
RTVSPost2010Prop49
280
     0
102
RTVSPost2010PropOp49
 70
     1
102
RTVSPost2010Prop50
 90
       50
102
RTVSPost2010PropOp50
 70
     1
102
RTVSPost2010Prop51ColorIndex
 90
      256
102
RTVSPost2010Prop51ColorRGB
 90
-16777216
102
RTVSPost2010PropOp51
 70
     0
102
RTVSPost2010Prop52
140
1.0
102
RTVSPost2010PropOp52
 70
     0
102
RTVSPost2010Prop53
 90
        2
102
RTVSPost2010PropOp53
 70
     1
102
RTVSPost2010Prop54
  1
strokes_ogs.tif
102
RTVSPost2010PropOp54
 70
     1
102
RTVSPost2010Prop55
280
     0
102
RTVSPost2010PropOp55
 70
     1
102
RTVSPost2010Prop56
140
1.0
102
RTVSPost2010PropOp56
 70
     1
102
RTVSPost2010Prop57
140
1.0
102
RTVSPost2010PropOp57
 70
     1
  0
XRECORD
  5
55D
102
{ACAD_REACTORS
330
55C
102
}
330
55C
100
AcDbXrecord
280
     1
102
RTVSPropertyOp0
 70
     1
102
RTVSPropertyOp1
 70
     1
102
RTVSPropertyOp2
 70
     1
102
RTVSPropertyOp3
 70
     1
102
RTVSPropertyOp4
 70
     1
102
RTVSPropertyOp5
 70
     1
102
RTVSPropertyOp6
 70
     1
102
RTVSPropertyOp7
 70
     1
102
RTVSPropertyOp8
 70
     1
102
RTVSPropertyOp9
 70
     1
102
RTVSPropertyOp10
 70
     1
102
RTVSPropertyOp11
 70
     1
102
RTVSPropertyOp12
 70
     1
102
RTVSPropertyOp13
 70
     1
102
RTVSPropertyOp14
 70
     1
102
RTVSPropertyOp15
 70
     1
102
RTVSPropertyOp16
 70
     1
102
RTVSPropertyOp17
 70
     1
102
RTVSPropertyOp18
 70
     1
102
RTVSPropertyOp19
 70
     1
102
RTVSPropertyOp20
 70
     1
102
RTVSPropertyOp21
 70
     1
102
RTVSPropertyOp22
 70
     1
102
RTVSPropertyOp23
 70
     1
102
RTVSPropertyOp24
 70
     1
102
RTVSPropertyOp25
 70
     1
102
RTVSPropertyOp26
 70
     1
102
RTVSPropertyOp27
 70
     1
102
RTVSPropertyOp28
 70
     1
102
RTVSPropertyOp29
 70
     1
102
RTVSPropertyOp30
 70
     1
102
RTVSPropertyOp31
 70
     1
102
RTVSPropertyOp32
 70
     1
102
RTVSPropertyOp33
 70
     1
102
RTVSPropertyOp34
 70
     1
102
RTVSPropertyOp35
 70
     1
102
RTVSPropertyOp36
 70
     1
102
RTVSPropertyOp37
 70
     1
102
RTVSPropertyOp38
 70
     1
102
RTVSPropertyOp39
 70
     1
102
RTVSPropertyOp40
 70
     1
102
RTVSPropertyOp41
 70
     1
102
RTVSPropertyOp42
 70
     1
102
RTVSPropertyOp43
 70
     1
102
RTVSPropertyOp44
 70
     1
102
RTVSPropertyOp45
 70
     1
102
RTVSPropertyOp46
 70
     1
102
RTVSPropertyOp47
 70
     1
102
RTVSPropertyOp48
 70
     1
102
RTVSPropertyOp49
 70
     1
102
RTVSPropertyOp50
 70
     1
102
RTVSPropertyOp51
 70
     0
102
RTVSPropertyOp52
 70
     0
102
RTVSPropertyOp53
 70
     1
102
RTVSPropertyOp54
 70
     1
102
RTVSPropertyOp55
 70
     1
102
RTVSPropertyOp56
 70
     1
102
RTVSPropertyOp57
 70
     1
102
RTVSPost2010Prop28
280
     0
102
RTVSPost2010PropOp28
 70
     1
102
RTVSPost2010Prop29
280
     1
102
RTVSPost2010PropOp29
 70
     1
102
RTVSPost2010Prop30
280
     1
102
RTVSPost2010PropOp30
 70
     1
102
RTVSPost2010Prop31
280
     0
102
RTVSPost2010PropOp31
 70
     1
102
RTVSPost2010Prop32
280
     0
102
RTVSPost2010PropOp32
 70
     1
102
RTVSPost2010Prop33
280
     0
102
RTVSPost2010PropOp33
 70
     1
102
RTVSPost2010Prop34
280
     0
102
RTVSPost2010PropOp34
 70
     1
102
RTVSPost2010Prop35
280
     0
102
RTVSPost2010PropOp35
 70
     1
102
RTVSPost2010Prop36
280
     0
102
RTVSPost2010PropOp36
 70
     1
102
RTVSPost2010Prop37
 90
       50
102
RTVSPost2010PropOp37
 70
     1
102
RTVSPost2010Prop38
140
0.0
102
RTVSPost2010PropOp38
 70
     1
102
RTVSPost2010Prop39
140
1.0
102
RTVSPost2010PropOp39
 70
     1
102
RTVSPost2010Prop40
 90
        0
102
RTVSPost2010PropOp40
 70
     1
102
RTVSPost2010Prop41ColorIndex
 90
       18
102
RTVSPost2010Prop41ColorRGB
 90
        0
102
RTVSPost2010PropOp41
 70
     1
102
RTVSPost2010Prop42
 90
       50
102
RTVSPost2010PropOp42
 70
     1
102
RTVSPost2010Prop43
 90
        3
102
RTVSPost2010PropOp43
 70
     1
102
RTVSPost2010Prop44ColorIndex
 90
        5
102
RTVSPost2010Prop44ColorRGB
 90
      255
102
RTVSPost2010PropOp44
 70
     1
102
RTVSPost2010Prop45
280
     0
102
RTVSPost2010PropOp45
 70
     1
102
RTVSPost2010Prop46
 90
       50
102
RTVSPost2010PropOp46
 70
     1
102
RTVSPost2010Prop47
 90
       50
102
RTVSPost2010PropOp47
 70
     1
102
RTVSPost2010Prop48
 90
       50
102
RTVSPost2010PropOp48
 70
     1
102
RTVSPost2010Prop49
280
     0
102
RTVSPost2010PropOp49
 70
     1
102
RTVSPost2010Prop50
 90
       50
102
RTVSPost2010PropOp50
 70
     1
102
RTVSPost2010Prop51ColorIndex
 90
      256
102
RTVSPost2010Prop51ColorRGB
 90
-16777216
102
RTVSPost2010PropOp51
 70
     0
102
RTVSPost2010Prop52
140
1.0
102
RTVSPost2010PropOp52
 70
     0
102
RTVSPost2010Prop53
 90
        2
102
RTVSPost2010PropOp53
 70
     1
102
RTVSPost2010Prop54
  1
strokes_ogs.tif
102
RTVSPost2010PropOp54
 70
     1
102
RTVSPost2010Prop55
280
     0
102
RTVSPost2010PropOp55
 70
     1
102
RTVSPost2010Prop56
140
1.0
102
RTVSPost2010PropOp56
 70
     1
102
RTVSPost2010Prop57
140
1.0
102
RTVSPost2010PropOp57
 70
     1
  0
XRECORD
  5
55F
102
{ACAD_REACTORS
330
55E
102
}
330
55E
100
AcDbXrecord
280
     1
102
RTVSPropertyOp0
 70
     1
102
RTVSPropertyOp1
 70
     1
102
RTVSPropertyOp2
 70
     1
102
RTVSPropertyOp3
 70
     1
102
RTVSPropertyOp4
 70
     1
102
RTVSPropertyOp5
 70
     1
102
RTVSPropertyOp6
 70
     1
102
RTVSPropertyOp7
 70
     1
102
RTVSPropertyOp8
 70
     1
102
RTVSPropertyOp9
 70
     1
102
RTVSPropertyOp10
 70
     1
102
RTVSPropertyOp11
 70
     1
102
RTVSPropertyOp12
 70
     1
102
RTVSPropertyOp13
 70
     1
102
RTVSPropertyOp14
 70
     1
102
RTVSPropertyOp15
 70
     1
102
RTVSPropertyOp16
 70
     1
102
RTVSPropertyOp17
 70
     1
102
RTVSPropertyOp18
 70
     1
102
RTVSPropertyOp19
 70
     1
102
RTVSPropertyOp20
 70
     1
102
RTVSPropertyOp21
 70
     1
102
RTVSPropertyOp22
 70
     1
102
RTVSPropertyOp23
 70
     1
102
RTVSPropertyOp24
 70
     1
102
RTVSPropertyOp25
 70
     1
102
RTVSPropertyOp26
 70
     1
102
RTVSPropertyOp27
 70
     1
102
RTVSPropertyOp28
 70
     1
102
RTVSPropertyOp29
 70
     1
102
RTVSPropertyOp30
 70
     1
102
RTVSPropertyOp31
 70
     1
102
RTVSPropertyOp32
 70
     1
102
RTVSPropertyOp33
 70
     1
102
RTVSPropertyOp34
 70
     1
102
RTVSPropertyOp35
 70
     1
102
RTVSPropertyOp36
 70
     1
102
RTVSPropertyOp37
 70
     1
102
RTVSPropertyOp38
 70
     1
102
RTVSPropertyOp39
 70
     1
102
RTVSPropertyOp40
 70
     1
102
RTVSPropertyOp41
 70
     1
102
RTVSPropertyOp42
 70
     1
102
RTVSPropertyOp43
 70
     1
102
RTVSPropertyOp44
 70
     1
102
RTVSPropertyOp45
 70
     1
102
RTVSPropertyOp46
 70
     1
102
RTVSPropertyOp47
 70
     1
102
RTVSPropertyOp48
 70
     1
102
RTVSPropertyOp49
 70
     1
102
RTVSPropertyOp50
 70
     1
102
RTVSPropertyOp51
 70
     0
102
RTVSPropertyOp52
 70
     0
102
RTVSPropertyOp53
 70
     1
102
RTVSPropertyOp54
 70
     1
102
RTVSPropertyOp55
 70
     1
102
RTVSPropertyOp56
 70
     1
102
RTVSPropertyOp57
 70
     1
102
RTVSPost2010Prop28
280
     0
102
RTVSPost2010PropOp28
 70
     1
102
RTVSPost2010Prop29
280
     1
102
RTVSPost2010PropOp29
 70
     1
102
RTVSPost2010Prop30
280
     1
102
RTVSPost2010PropOp30
 70
     1
102
RTVSPost2010Prop31
280
     0
102
RTVSPost2010PropOp31
 70
     1
102
RTVSPost2010Prop32
280
     0
102
RTVSPost2010PropOp32
 70
     1
102
RTVSPost2010Prop33
280
     0
102
RTVSPost2010PropOp33
 70
     1
102
RTVSPost2010Prop34
280
     0
102
RTVSPost2010PropOp34
 70
     1
102
RTVSPost2010Prop35
280
     0
102
RTVSPost2010PropOp35
 70
     1
102
RTVSPost2010Prop36
280
     0
102
RTVSPost2010PropOp36
 70
     1
102
RTVSPost2010Prop37
 90
       50
102
RTVSPost2010PropOp37
 70
     1
102
RTVSPost2010Prop38
140
0.0
102
RTVSPost2010PropOp38
 70
     1
102
RTVSPost2010Prop39
140
1.0
102
RTVSPost2010PropOp39
 70
     1
102
RTVSPost2010Prop40
 90
        0
102
RTVSPost2010PropOp40
 70
     1
102
RTVSPost2010Prop41ColorIndex
 90
       18
102
RTVSPost2010Prop41ColorRGB
 90
        0
102
RTVSPost2010PropOp41
 70
     1
102
RTVSPost2010Prop42
 90
       50
102
RTVSPost2010PropOp42
 70
     1
102
RTVSPost2010Prop43
 90
        3
102
RTVSPost2010PropOp43
 70
     1
102
RTVSPost2010Prop44ColorIndex
 90
        5
102
RTVSPost2010Prop44ColorRGB
 90
      255
102
RTVSPost2010PropOp44
 70
     1
102
RTVSPost2010Prop45
280
     0
102
RTVSPost2010PropOp45
 70
     1
102
RTVSPost2010Prop46
 90
       50
102
RTVSPost2010PropOp46
 70
     1
102
RTVSPost2010Prop47
 90
       50
102
RTVSPost2010PropOp47
 70
     1
102
RTVSPost2010Prop48
 90
       50
102
RTVSPost2010PropOp48
 70
     1
102
RTVSPost2010Prop49
280
     0
102
RTVSPost2010PropOp49
 70
     1
102
RTVSPost2010Prop50
 90
       50
102
RTVSPost2010PropOp50
 70
     1
102
RTVSPost2010Prop51ColorIndex
 90
      256
102
RTVSPost2010Prop51ColorRGB
 90
-16777216
102
RTVSPost2010PropOp51
 70
     0
102
RTVSPost2010Prop52
140
1.0
102
RTVSPost2010PropOp52
 70
     0
102
RTVSPost2010Prop53
 90
        2
102
RTVSPost2010PropOp53
 70
     1
102
RTVSPost2010Prop54
  1
strokes_ogs.tif
102
RTVSPost2010PropOp54
 70
     1
102
RTVSPost2010Prop55
280
     0
102
RTVSPost2010PropOp55
 70
     1
102
RTVSPost2010Prop56
140
1.0
102
RTVSPost2010PropOp56
 70
     1
102
RTVSPost2010Prop57
140
1.0
102
RTVSPost2010PropOp57
 70
     1
  0
XRECORD
  5
54F
102
{ACAD_REACTORS
330
54E
102
}
330
54E
100
AcDbXrecord
280
     1
102
RTVSPropertyOp0
 70
     1
102
RTVSPropertyOp1
 70
     1
102
RTVSPropertyOp2
 70
     1
102
RTVSPropertyOp3
 70
     1
102
RTVSPropertyOp4
 70
     1
102
RTVSPropertyOp5
 70
     1
102
RTVSPropertyOp6
 70
     1
102
RTVSPropertyOp7
 70
     1
102
RTVSPropertyOp8
 70
     1
102
RTVSPropertyOp9
 70
     1
102
RTVSPropertyOp10
 70
     1
102
RTVSPropertyOp11
 70
     1
102
RTVSPropertyOp12
 70
     1
102
RTVSPropertyOp13
 70
     1
102
RTVSPropertyOp14
 70
     1
102
RTVSPropertyOp15
 70
     1
102
RTVSPropertyOp16
 70
     1
102
RTVSPropertyOp17
 70
     1
102
RTVSPropertyOp18
 70
     1
102
RTVSPropertyOp19
 70
     1
102
RTVSPropertyOp20
 70
     1
102
RTVSPropertyOp21
 70
     1
102
RTVSPropertyOp22
 70
     1
102
RTVSPropertyOp23
 70
     1
102
RTVSPropertyOp24
 70
     1
102
RTVSPropertyOp25
 70
     1
102
RTVSPropertyOp26
 70
     1
102
RTVSPropertyOp27
 70
     1
102
RTVSPropertyOp28
 70
     1
102
RTVSPropertyOp29
 70
     1
102
RTVSPropertyOp30
 70
     1
102
RTVSPropertyOp31
 70
     1
102
RTVSPropertyOp32
 70
     1
102
RTVSPropertyOp33
 70
     1
102
RTVSPropertyOp34
 70
     1
102
RTVSPropertyOp35
 70
     1
102
RTVSPropertyOp36
 70
     1
102
RTVSPropertyOp37
 70
     1
102
RTVSPropertyOp38
 70
     1
102
RTVSPropertyOp39
 70
     1
102
RTVSPropertyOp40
 70
     1
102
RTVSPropertyOp41
 70
     1
102
RTVSPropertyOp42
 70
     1
102
RTVSPropertyOp43
 70
     1
102
RTVSPropertyOp44
 70
     1
102
RTVSPropertyOp45
 70
     1
102
RTVSPropertyOp46
 70
     1
102
RTVSPropertyOp47
 70
     1
102
RTVSPropertyOp48
 70
     1
102
RTVSPropertyOp49
 70
     1
102
RTVSPropertyOp50
 70
     1
102
RTVSPropertyOp51
 70
     0
102
RTVSPropertyOp52
 70
     0
102
RTVSPropertyOp53
 70
     1
102
RTVSPropertyOp54
 70
     1
102
RTVSPropertyOp55
 70
     1
102
RTVSPropertyOp56
 70
     1
102
RTVSPropertyOp57
 70
     1
102
RTVSPost2010Prop28
280
     0
102
RTVSPost2010PropOp28
 70
     1
102
RTVSPost2010Prop29
280
     1
102
RTVSPost2010PropOp29
 70
     1
102
RTVSPost2010Prop30
280
     1
102
RTVSPost2010PropOp30
 70
     1
102
RTVSPost2010Prop31
280
     0
102
RTVSPost2010PropOp31
 70
     1
102
RTVSPost2010Prop32
280
     0
102
RTVSPost2010PropOp32
 70
     1
102
RTVSPost2010Prop33
280
     0
102
RTVSPost2010PropOp33
 70
     1
102
RTVSPost2010Prop34
280
     0
102
RTVSPost2010PropOp34
 70
     1
102
RTVSPost2010Prop35
280
     0
102
RTVSPost2010PropOp35
 70
     1
102
RTVSPost2010Prop36
280
     0
102
RTVSPost2010PropOp36
 70
     1
102
RTVSPost2010Prop37
 90
       50
102
RTVSPost2010PropOp37
 70
     1
102
RTVSPost2010Prop38
140
0.0
102
RTVSPost2010PropOp38
 70
     1
102
RTVSPost2010Prop39
140
1.0
102
RTVSPost2010PropOp39
 70
     1
102
RTVSPost2010Prop40
 90
        0
102
RTVSPost2010PropOp40
 70
     1
102
RTVSPost2010Prop41ColorIndex
 90
       18
102
RTVSPost2010Prop41ColorRGB
 90
        0
102
RTVSPost2010PropOp41
 70
     1
102
RTVSPost2010Prop42
 90
       50
102
RTVSPost2010PropOp42
 70
     1
102
RTVSPost2010Prop43
 90
        3
102
RTVSPost2010PropOp43
 70
     1
102
RTVSPost2010Prop44ColorIndex
 90
        5
102
RTVSPost2010Prop44ColorRGB
 90
      255
102
RTVSPost2010PropOp44
 70
     1
102
RTVSPost2010Prop45
280
     0
102
RTVSPost2010PropOp45
 70
     1
102
RTVSPost2010Prop46
 90
       50
102
RTVSPost2010PropOp46
 70
     1
102
RTVSPost2010Prop47
 90
       50
102
RTVSPost2010PropOp47
 70
     1
102
RTVSPost2010Prop48
 90
       50
102
RTVSPost2010PropOp48
 70
     1
102
RTVSPost2010Prop49
280
     0
102
RTVSPost2010PropOp49
 70
     1
102
RTVSPost2010Prop50
 90
       50
102
RTVSPost2010PropOp50
 70
     1
102
RTVSPost2010Prop51ColorIndex
 90
      256
102
RTVSPost2010Prop51ColorRGB
 90
-16777216
102
RTVSPost2010PropOp51
 70
     0
102
RTVSPost2010Prop52
140
1.0
102
RTVSPost2010PropOp52
 70
     0
102
RTVSPost2010Prop53
 90
        2
102
RTVSPost2010PropOp53
 70
     1
102
RTVSPost2010Prop54
  1
strokes_ogs.tif
102
RTVSPost2010PropOp54
 70
     1
102
RTVSPost2010Prop55
280
     0
102
RTVSPost2010PropOp55
 70
     1
102
RTVSPost2010Prop56
140
1.0
102
RTVSPost2010PropOp56
 70
     1
102
RTVSPost2010Prop57
140
1.0
102
RTVSPost2010PropOp57
 70
     1
  0
XRECORD
  5
541
102
{ACAD_REACTORS
330
540
102
}
330
540
100
AcDbXrecord
280
     1
102
RTVSPropertyOp0
 70
     1
102
RTVSPropertyOp1
 70
     1
102
RTVSPropertyOp2
 70
     1
102
RTVSPropertyOp3
 70
     1
102
RTVSPropertyOp4
 70
     1
102
RTVSPropertyOp5
 70
     1
102
RTVSPropertyOp6
 70
     1
102
RTVSPropertyOp7
 70
     1
102
RTVSPropertyOp8
 70
     1
102
RTVSPropertyOp9
 70
     1
102
RTVSPropertyOp10
 70
     1
102
RTVSPropertyOp11
 70
     1
102
RTVSPropertyOp12
 70
     1
102
RTVSPropertyOp13
 70
     1
102
RTVSPropertyOp14
 70
     1
102
RTVSPropertyOp15
 70
     1
102
RTVSPropertyOp16
 70
     1
102
RTVSPropertyOp17
 70
     1
102
RTVSPropertyOp18
 70
     1
102
RTVSPropertyOp19
 70
     1
102
RTVSPropertyOp20
 70
     1
102
RTVSPropertyOp21
 70
     1
102
RTVSPropertyOp22
 70
     1
102
RTVSPropertyOp23
 70
     1
102
RTVSPropertyOp24
 70
     1
102
RTVSPropertyOp25
 70
     1
102
RTVSPropertyOp26
 70
     1
102
RTVSPropertyOp27
 70
     1
102
RTVSPropertyOp28
 70
     1
102
RTVSPropertyOp29
 70
     1
102
RTVSPropertyOp30
 70
     1
102
RTVSPropertyOp31
 70
     1
102
RTVSPropertyOp32
 70
     1
102
RTVSPropertyOp33
 70
     1
102
RTVSPropertyOp34
 70
     1
102
RTVSPropertyOp35
 70
     1
102
RTVSPropertyOp36
 70
     1
102
RTVSPropertyOp37
 70
     1
102
RTVSPropertyOp38
 70
     1
102
RTVSPropertyOp39
 70
     1
102
RTVSPropertyOp40
 70
     1
102
RTVSPropertyOp41
 70
     1
102
RTVSPropertyOp42
 70
     1
102
RTVSPropertyOp43
 70
     1
102
RTVSPropertyOp44
 70
     1
102
RTVSPropertyOp45
 70
     1
102
RTVSPropertyOp46
 70
     1
102
RTVSPropertyOp47
 70
     1
102
RTVSPropertyOp48
 70
     1
102
RTVSPropertyOp49
 70
     1
102
RTVSPropertyOp50
 70
     1
102
RTVSPropertyOp51
 70
     0
102
RTVSPropertyOp52
 70
     0
102
RTVSPropertyOp53
 70
     1
102
RTVSPropertyOp54
 70
     1
102
RTVSPropertyOp55
 70
     1
102
RTVSPropertyOp56
 70
     1
102
RTVSPropertyOp57
 70
     1
102
RTVSPost2010Prop28
280
     0
102
RTVSPost2010PropOp28
 70
     1
102
RTVSPost2010Prop29
280
     1
102
RTVSPost2010PropOp29
 70
     1
102
RTVSPost2010Prop30
280
     1
102
RTVSPost2010PropOp30
 70
     1
102
RTVSPost2010Prop31
280
     0
102
RTVSPost2010PropOp31
 70
     1
102
RTVSPost2010Prop32
280
     0
102
RTVSPost2010PropOp32
 70
     1
102
RTVSPost2010Prop33
280
     0
102
RTVSPost2010PropOp33
 70
     1
102
RTVSPost2010Prop34
280
     0
102
RTVSPost2010PropOp34
 70
     1
102
RTVSPost2010Prop35
280
     0
102
RTVSPost2010PropOp35
 70
     1
102
RTVSPost2010Prop36
280
     0
102
RTVSPost2010PropOp36
 70
     1
102
RTVSPost2010Prop37
 90
       50
102
RTVSPost2010PropOp37
 70
     1
102
RTVSPost2010Prop38
140
0.0
102
RTVSPost2010PropOp38
 70
     1
102
RTVSPost2010Prop39
140
1.0
102
RTVSPost2010PropOp39
 70
     1
102
RTVSPost2010Prop40
 90
        0
102
RTVSPost2010PropOp40
 70
     1
102
RTVSPost2010Prop41ColorIndex
 90
       18
102
RTVSPost2010Prop41ColorRGB
 90
        0
102
RTVSPost2010PropOp41
 70
     1
102
RTVSPost2010Prop42
 90
       50
102
RTVSPost2010PropOp42
 70
     1
102
RTVSPost2010Prop43
 90
        3
102
RTVSPost2010PropOp43
 70
     1
102
RTVSPost2010Prop44ColorIndex
 90
        5
102
RTVSPost2010Prop44ColorRGB
 90
      255
102
RTVSPost2010PropOp44
 70
     1
102
RTVSPost2010Prop45
280
     0
102
RTVSPost2010PropOp45
 70
     1
102
RTVSPost2010Prop46
 90
       50
102
RTVSPost2010PropOp46
 70
     1
102
RTVSPost2010Prop47
 90
       50
102
RTVSPost2010PropOp47
 70
     1
102
RTVSPost2010Prop48
 90
       50
102
RTVSPost2010PropOp48
 70
     1
102
RTVSPost2010Prop49
280
     0
102
RTVSPost2010PropOp49
 70
     1
102
RTVSPost2010Prop50
 90
       50
102
RTVSPost2010PropOp50
 70
     1
102
RTVSPost2010Prop51ColorIndex
 90
      256
102
RTVSPost2010Prop51ColorRGB
 90
-16777216
102
RTVSPost2010PropOp51
 70
     0
102
RTVSPost2010Prop52
140
1.0
102
RTVSPost2010PropOp52
 70
     0
102
RTVSPost2010Prop53
 90
        2
102
RTVSPost2010PropOp53
 70
     1
102
RTVSPost2010Prop54
  1
strokes_ogs.tif
102
RTVSPost2010PropOp54
 70
     1
102
RTVSPost2010Prop55
280
     0
102
RTVSPost2010PropOp55
 70
     1
102
RTVSPost2010Prop56
140
1.0
102
RTVSPost2010PropOp56
 70
     1
102
RTVSPost2010Prop57
140
1.0
102
RTVSPost2010PropOp57
 70
     1
  0
XRECORD
  5
561
102
{ACAD_REACTORS
330
560
102
}
330
560
100
AcDbXrecord
280
     1
102
RTVSPropertyOp0
 70
     1
102
RTVSPropertyOp1
 70
     1
102
RTVSPropertyOp2
 70
     1
102
RTVSPropertyOp3
 70
     1
102
RTVSPropertyOp4
 70
     1
102
RTVSPropertyOp5
 70
     1
102
RTVSPropertyOp6
 70
     1
102
RTVSPropertyOp7
 70
     1
102
RTVSPropertyOp8
 70
     1
102
RTVSPropertyOp9
 70
     1
102
RTVSPropertyOp10
 70
     1
102
RTVSPropertyOp11
 70
     1
102
RTVSPropertyOp12
 70
     1
102
RTVSPropertyOp13
 70
     1
102
RTVSPropertyOp14
 70
     1
102
RTVSPropertyOp15
 70
     1
102
RTVSPropertyOp16
 70
     1
102
RTVSPropertyOp17
 70
     1
102
RTVSPropertyOp18
 70
     1
102
RTVSPropertyOp19
 70
     1
102
RTVSPropertyOp20
 70
     1
102
RTVSPropertyOp21
 70
     1
102
RTVSPropertyOp22
 70
     1
102
RTVSPropertyOp23
 70
     1
102
RTVSPropertyOp24
 70
     1
102
RTVSPropertyOp25
 70
     1
102
RTVSPropertyOp26
 70
     1
102
RTVSPropertyOp27
 70
     1
102
RTVSPropertyOp28
 70
     1
102
RTVSPropertyOp29
 70
     1
102
RTVSPropertyOp30
 70
     1
102
RTVSPropertyOp31
 70
     1
102
RTVSPropertyOp32
 70
     1
102
RTVSPropertyOp33
 70
     1
102
RTVSPropertyOp34
 70
     1
102
RTVSPropertyOp35
 70
     1
102
RTVSPropertyOp36
 70
     1
102
RTVSPropertyOp37
 70
     1
102
RTVSPropertyOp38
 70
     1
102
RTVSPropertyOp39
 70
     1
102
RTVSPropertyOp40
 70
     1
102
RTVSPropertyOp41
 70
     1
102
RTVSPropertyOp42
 70
     1
102
RTVSPropertyOp43
 70
     1
102
RTVSPropertyOp44
 70
     1
102
RTVSPropertyOp45
 70
     1
102
RTVSPropertyOp46
 70
     1
102
RTVSPropertyOp47
 70
     1
102
RTVSPropertyOp48
 70
     1
102
RTVSPropertyOp49
 70
     1
102
RTVSPropertyOp50
 70
     1
102
RTVSPropertyOp51
 70
     0
102
RTVSPropertyOp52
 70
     0
102
RTVSPropertyOp53
 70
     1
102
RTVSPropertyOp54
 70
     1
102
RTVSPropertyOp55
 70
     1
102
RTVSPropertyOp56
 70
     1
102
RTVSPropertyOp57
 70
     1
102
RTVSPost2010Prop28
280
     0
102
RTVSPost2010PropOp28
 70
     1
102
RTVSPost2010Prop29
280
     1
102
RTVSPost2010PropOp29
 70
     1
102
RTVSPost2010Prop30
280
     1
102
RTVSPost2010PropOp30
 70
     1
102
RTVSPost2010Prop31
280
     0
102
RTVSPost2010PropOp31
 70
     1
102
RTVSPost2010Prop32
280
     0
102
RTVSPost2010PropOp32
 70
     1
102
RTVSPost2010Prop33
280
     0
102
RTVSPost2010PropOp33
 70
     1
102
RTVSPost2010Prop34
280
     0
102
RTVSPost2010PropOp34
 70
     1
102
RTVSPost2010Prop35
280
     0
102
RTVSPost2010PropOp35
 70
     1
102
RTVSPost2010Prop36
280
     0
102
RTVSPost2010PropOp36
 70
     1
102
RTVSPost2010Prop37
 90
       50
102
RTVSPost2010PropOp37
 70
     1
102
RTVSPost2010Prop38
140
0.0
102
RTVSPost2010PropOp38
 70
     1
102
RTVSPost2010Prop39
140
1.0
102
RTVSPost2010PropOp39
 70
     1
102
RTVSPost2010Prop40
 90
        0
102
RTVSPost2010PropOp40
 70
     1
102
RTVSPost2010Prop41ColorIndex
 90
       18
102
RTVSPost2010Prop41ColorRGB
 90
        0
102
RTVSPost2010PropOp41
 70
     1
102
RTVSPost2010Prop42
 90
       50
102
RTVSPost2010PropOp42
 70
     1
102
RTVSPost2010Prop43
 90
        3
102
RTVSPost2010PropOp43
 70
     1
102
RTVSPost2010Prop44ColorIndex
 90
        5
102
RTVSPost2010Prop44ColorRGB
 90
      255
102
RTVSPost2010PropOp44
 70
     1
102
RTVSPost2010Prop45
280
     0
102
RTVSPost2010PropOp45
 70
     1
102
RTVSPost2010Prop46
 90
       50
102
RTVSPost2010PropOp46
 70
     1
102
RTVSPost2010Prop47
 90
       50
102
RTVSPost2010PropOp47
 70
     1
102
RTVSPost2010Prop48
 90
       50
102
RTVSPost2010PropOp48
 70
     1
102
RTVSPost2010Prop49
280
     0
102
RTVSPost2010PropOp49
 70
     1
102
RTVSPost2010Prop50
 90
       50
102
RTVSPost2010PropOp50
 70
     1
102
RTVSPost2010Prop51ColorIndex
 90
      256
102
RTVSPost2010Prop51ColorRGB
 90
-16777216
102
RTVSPost2010PropOp51
 70
     0
102
RTVSPost2010Prop52
140
1.0
102
RTVSPost2010PropOp52
 70
     0
102
RTVSPost2010Prop53
 90
        2
102
RTVSPost2010PropOp53
 70
     1
102
RTVSPost2010Prop54
  1
strokes_ogs.tif
102
RTVSPost2010PropOp54
 70
     1
102
RTVSPost2010Prop55
280
     0
102
RTVSPost2010PropOp55
 70
     1
102
RTVSPost2010Prop56
140
1.0
102
RTVSPost2010PropOp56
 70
     1
102
RTVSPost2010Prop57
140
1.0
102
RTVSPost2010PropOp57
 70
     1
  0
ENDSEC
  0
SECTION
  2
THUMBNAILIMAGE
 90
    16364
310
28000000B4000000550000000100080000000000C43B000000000000000000000001000000010000FFFFFF000000FF0000FFFF0000FF0000FFFF0000FF000000FF00FF000000000080808000C0C0C0000000FF007F7FFF000000A5005252A50000007F003F3F7F0000004C0026264C000000260013132600003FFF007F9FFF
310
000029A5005267A500001F7F003F4F7F0000134C00262F4C000009260013172600007FFF007FBFFF000052A500527CA500003F7F003F5F7F0000264C0026394C0000132600131C260000BFFF007FDFFF00007CA5005291A500005F7F003F6F7F0000394C0026424C00001C26001321260000FFFF007FFFFF0000A5A50052A5
310
A500007F7F003F7F7F00004C4C00264C4C00002626001326260000FFBF007FFFDF0000A57C0052A59100007F5F003F7F6F00004C3900264C420000261C001326210000FF7F007FFFBF0000A5520052A57C00007F3F003F7F5F00004C2600264C39000026130013261C0000FF3F007FFF9F0000A5290052A56700007F1F003F
310
7F4F00004C1300264C2F00002609001326170000FF00007FFF7F0000A5000052A55200007F00003F7F3F00004C0000264C260000260000132613003FFF00009FFF7F0029A5000067A552001F7F00004F7F3F00134C00002F4C260009260000172613007FFF0000BFFF7F0052A500007CA552003F7F00005F7F3F00264C0000
310
394C2600132600001C261300BFFF0000DFFF7F007CA5000091A552005F7F00006F7F3F00394C0000424C26001C26000021261300FFFF0000FFFF7F00A5A50000A5A552007F7F00007F7F3F004C4C00004C4C26002626000026261300FFBF0000FFDF7F00A57C0000A59152007F5F00007F6F3F004C3900004C422600261C00
310
0026211300FF7F0000FFBF7F00A5520000A57C52007F3F00007F5F3F004C2600004C39260026130000261C1300FF3F0000FF9F7F00A5290000A56752007F1F00007F4F3F004C1300004C2F26002609000026171300FF000000FF7F7F00A5000000A55252007F0000007F3F3F004C0000004C2626002600000026131300FF00
310
3F00FF7F9F00A5002900A55267007F001F007F3F4F004C0013004C262F002600090026131700FF007F00FF7FBF00A5005200A5527C007F003F007F3F5F004C0026004C2639002600130026131C00FF00BF00FF7FDF00A5007C00A55291007F005F007F3F6F004C0039004C26420026001C0026132100FF00FF00FF7FFF00A5
310
00A500A552A5007F007F007F3F7F004C004C004C264C002600260026132600BF00FF00DF7FFF007C00A5009152A5005F007F006F3F7F0039004C0042264C001C002600211326007F00FF00BF7FFF005200A5007C52A5003F007F005F3F7F0026004C0039264C00130026001C1326003F00FF009F7FFF002900A5006752A500
310
1F007F004F3F7F0013004C002F264C000900260017132600000000002D2D2D005B5B5B0089898900B7B7B700B3B3B30000000000000000000000000000000000000000000000000000000000000000000000000000000000000000000000000000000000000000000000000000000000000000000000000000000000000000
310
00000000000000000000000000000000000000000000000000000000000000000000000000000000000000000000000000000000000000000000000000000000000000000000000000000000000000000000000000000000000000000000000000000000000000000000000000000000000000000000000000000000000000
310
00000000000000000000000000000000000000000000000000000000000000000000000000000000000000000000000000000000000000000000000000000000000000000000000000000000000000000000000000000000000000000000000000000000000000000000000000000000000000000000000000000000000000
310
00000000000000000000000000000000000000000000000000000000000000000000000000000000000000000000000000000000000000000000000000000000000000000000000000000000000000000000000000000000000000000000000000000000000000000000000000000000000000000000000000000000000000
310
00000000000000000000000000000000000000000000000000000000000000000000000000000000000000000000000000000000000000000000000000000000000000000000000000000000000000000000000000000000000000000000000000000000000000000000000000000000000000000000000000000000000000
310
00000000000000000000000000000000000000000000000000000000000000000000000000000000000000000000000000000000000000000000000000000000000000000000000000000000000000000000000000000000000000000000000000000000000000000000000000000000000000000000000000000000000000
310
00000000000000000000000000000000000000000000000000000000000000000000000000000000000000000000000000000000000000000000000000000000000000000000000000000000000000000000000000000000000000000000000000000000000000000000000000000000000000000000000000000000000000
310
00000000000000000000000000000000000000000000000000000000000000000000000000000000000000000000000000000000000000000000000000000000000000000000000000000000000000000000000000000000000000000000000000000000000000000000000000000000000000000000000000000000000000
310
00000000000000000000000000000000000000000000000000000000000000000000000000000000000000000000000000000000000000000000000000000000000000000000000000000000000000000000000000000000000000000000000000000000000000000000000000000000000000000000000000000000000000
310
00000000000000000000000000000000000000000000000000000000000000000000000000000000000000000000000000000000000000000000000000000000000000000000000000000000000000000000000000000000000000000000000000000000000000000000000000000000000000000000000000000000000000
310
00000000000000000000000000000000000000000000000000000000000000000000000000000000000000000000000000000000000000000000000000000000000000000000000000000000000000000000000000000000000000000000000000000000000000000000000000000000000000000000000000000000000000
310
00000000000000000000000000000000000000000000000000000000000000000000000000000000000000000000000000000000000000000000000000000000000000000000000000000000000000000000000000000000000000000000000000000000000000000000000000000000000000000000000000000000000000
310
00000000000000000000000000000000000000000000000000000000000000000000000000000000000000000000000000000000000000000000000000000000000000000000000000000000000000000000000000000000000000000000000000000000000000000000000000000000000000000000000000000000000000
310
00000000000000000000000000000000000000000000000000000000000000000000000000000000000000000000000000000000000000000000000000000000000000000000000000000000000000000000000000000000000000000000000000000000000000000000000000000000000000000000000000000000000000
310
00000000000000000000000000000000000000000000000000000000000000000000000000000000000000000000000000000000000000000000000000000000000000000000000000000000000000000000000000000000000000000000000000000000000000000000000000000000000000000000000000000000000000
310
00000000000000000000000000000000000000000000000000000000000000000000000000000000000000000000000000000000000000000000000000000000000000000000000000000000000000000000000000000000000000000000000000000000000000000000000000000000000000000000000000000000000000
310
00000000000000000000000000000000000000000000000000000000000000000000000000000000000000000000000000000000000000000000000000000000000000000000000000000000000000000000000000000000000000000000000000000000000000000000000000000000000000000000000000000000000000
310
00000000000000000000000000000000000000000000000000000000000000000000000000000000000000000000000000000000000000000000000000000000000000000000000000000000000000000000000000000000000000000000000000000000000000000000000000000000000000000000000000000000000000
310
00000000000000000000000000000000000000000000000000000000000000000000000000000000000000000000000000000000000000000000000000000000000000000000000000000000000000000000000000000000000000000000000000000000000000000000000000000000000000000000000000000000000000
310
00000000000000000000000000000000000000000000000000000000000000000000000000000000000000020202020000000000000000000000000000000000000000000000000000000000000000000000000000000000000000000000000000000000000000000000000000000000000000000000000000000000000000
310
00000000000000000000000000000000000000000000000000000000000000000000000000000000000000000000000000000000000000000000000000000000000000000000000000000000000000000000000000000000000000000000000002020202000000000000000000000000000000000000000000000000000000
310
00000000000000000000000000000000000000000000000000000000000000000000000000000000000000000000000000000000000000000000000000000000000000000000000000000000000000000000000000000000000000000000000000000000000000000000000000000000000000000000000000000000000303
310
03010303030000000001000000030303030103030000000000000000000000000301030303030303030303030300000000000000000000000000000000000000000000000000000000000000000000000000000000000000000000000000000000000000000000000000000000000000000000000000000000000000000000
310
00000000000000000000000000000000000000000000000000000000000000000000000000000000000000000000000000000003030301030303030303040403030303030303010303000000000000000000000000030103030303030303030303030000000000000000000000000000000000000000000000000000000000
310
00000000000000000000000000000000000000000000000000000000000000000000000000000000000000000000000000000000000000000000000000000000000000000000000000000000000000000000000000000000000000000000000000000000000000000303030303030303000303030303030303030303030303
310
00000000000000000000000001030303030303000303030000000000000000000000000000000000000000000000000000000000000000000000000000000000000000000000000000000000000000000000000000000000000000000000000000000000000000000000000000000000000000000000000000000000000000
310
00000000000000000000000000000000000000000000000000000000000003000000030300030300000100000303000300000000030000000000000000000000000003030303030300010303000000000000000000000000000000000000000000000000000000000000000000000000000000000000000000000000000000
310
00000000000000000000000000000000000000000000000000000000000000000000000000000000000000000000000000000000000000000000000000000000000000000000000000000000010300030303030300000000030300000000010000000003000000000003000000000000000000000000000303000103030003
310
03000000000000000000000000000000000000000000000000000000000000000000000000000000000000000000000000000000000000000000000000000000000000000000000000000000000000000000000000000000000000000000000000000000000000000000000000000000000000000000000000000000000000
310
00010303010303030303010101030101010101030303010101010303010101030000000000000000000000000303030101030300030300000000000000000000000000000000000000000000000000000000000000000000000000000000000000000000000000000000000000000000000000000000000000000000000000
310
00000000000000000000000000000000000000000000000000000000000000000000000000000000000000000000000000000000000000030300030303030300030003000303010103030303030303000303000003000000000000000000000000030301030303030003030300000000000000000000000000000000000000
310
00000000000000000000000000000000000000000000000000000000000000000000000000000000000000000000000000000000000000000000000000000000000000000000000000000000000000000000000000000000000000000000000000000000000000000000000000000000000000030303030303030301030303
310
00000001000303030303030000000000000000000000000303030303030300030303000000000000000000000000000000000000000000000000000000000000000000000000000000000000000000000000000000000000000000000000000000000000000000000000000000000000000000000000000000000000000000
310
00000000000000000000000000000000000000000000000000000000000000000000000000000000000303000300030003010303030003030303000003030300000000000000000000000000030303000001000003030300000000000000000000000000000000000000000000000000000000000000000000000000000000
310
00000000000000000000000000000000000000000000000000000000000000000000000000000000000000000000000000000000000000000000000000000000000000000000000000000000000000000000000000000000000000000000030303000003030303030303030303030303000303030000000000000003030303
310
03030303030000010000030303030303030303000000000000000000000000000000000000000000000000000000000000000000000000000000000000000000000000000000000000000000000000000000000000000000000000000000000000000000000000000000000000000000000000000000000000000000000000
310
00000000000000000000000000000000000000000303030001010303010303010303000103030003030300000000000000030101010103030303010101010103030303010101010300000000000000000000000000000000000000000000000000000000000000000000000000000000000000000000000000000000000000
310
00000000000000000000000000000000000000000000000000000000000000000000000000000000000000000000000000000000000000000000000000000000000000000000000000030103010101030303030301010101010101010301030100000000000003000000000303030300000100000303030300000000030000
310
00000000000000000000000000000000000000000000000000000000000000000000000000000000000000000000000000000000000000000000000000000000000000000000000000000000000000000000000000000000000000000000000000000000000000000000000000000000000000000000000000000000000003
310
03030000030303030303030303030303030003030300000000000000030303030303030303000001000003030303030303030300000000000000000000000000000000000000000000000000000000000000000000000000000000000000000000000000000000000000000000000000000000000000000000000000000000
310
00000000000000000000000000000000000000000000000000000000000000000000000000000000000000000000000000000000030300030003030301000301030303030303000303030000000000000000000000000003030300000100000303030000000000000000000000000000000000000000000000000000000000
310
00000000000000000000000000000000000000000000000000000000000000000000000000000000000000000000000000000000000000000000000000000000000000000000000000000000000000000000000000000000000000000000000000000000000000000003030003030303030103000100030303030303030303
310
00000000000000000000000000030303000001000003030300000000000000000000000000000000000000000000000000000000000000000000000000000000000000000000000000000000000000000000000000000000000000000000000000000000000000000000000000000000000000000000000000000000000000
310
00000000000000000000000000000000000000000000000000000000000000000303030000000301030303030303030000030003030000000000000000000000000000030300000100000303030000000000000000000000000000000000000000000000000000000000000000000000000000000000000000000000000000
310
00000000000000000000000000000000000000000000000000000000000000000000000000000000000000000000000000000000000000000000000000000000000000000000000000000000000000000000000000030300030000000000000100000000000300030003000000000000000000000000000003030000010000
310
03030000000000000000000000000000000000000000000000000000000000000000000000000000000000000000000000000000000000000000000000000000000000000000000000000000000000000000000000000000000000000000000000000000000000000000000000000000000000000000000000000000000000
310
00000000000000000000000300030003030000000001000000000303030000030000000000000000000000000000030300000100000303000000000000000000000000000000000000000000000000000000000000000000000000000000000000000000000000000000000000000000000000000000000000000000000000
310
00000000000000000000000000000000000000000000000000000000000000000000000000000000000000000000000000000000000000000000000000000000030000030300030000000100000003000303000003000000000000000000000000000003030000010000030303000000000000000000000000000000000000
310
00000000000000000000000000000000000000000000000000000000000000000000000000000000000000000000000000000000000000000000000000000000000000000000000000000000000000000000000000000000000000000000000000000000000000000000000000000000000000000003030301000300030303
310
03030303030300000303000000000000000000000000000000030300000100000103030000000000000000000000000000000000000000000000000000000000000000000000000000000000000000000000000000000000000000000000000000000000000000000000000000000000000000000000000000000000000000
310
00000000000000000000000000000000000000000000000000000000000000000000000000000000000000000003030303030303030103030303030303000000000000000000000000000000000003030000010000030300000000000000000000000000000000000000000000000000000000000000000000000000000000
310
00000000000000000000000000000000000000000000000000000000000000000000000000000000000000000000000000000000000000000000000000000000000000000000000000000000000000000000000000000000000000000000000000000003030000030303030303000000000000000000000000000000000000
310
00000000000303030303030300000000000000000000000000000000000000000000000000000000000000000000000000000000000000000000000000000000000000000000000000000000000000000000000000000000000000000000000000000000000000000000000000000000000000000000000000000000000000
310
00000000000000000000000000000000000000000000000000000000000000030300000000000000000000000000000000000000000000000000000103030301000000000000000000000000000000000000000000000000000000000000000000000000000000000000000000000000000000000000000000000000000000
310
00000000000000000000000000000000000000000000000000000000000000000000000000000000000000000000000000000000000000000000000000000000000000000000000000000000000000000000000003030000000000000000000000000000000000000000000000000000000303030000000000000000000000
310
00000000000000000000000000000000000000000000000000000000000000000000000000000000000000000000000000000000000000000000000000000000000000000000000000000000000000000000000000000000000000000000000000000000000000000000000000000000000000000000000000000000000000
310
00000000000000000000000100000000000000000000000000000000000000000000000000000000010000000000000000000000000000000000000000000000000000000000000000000000000000000000000000000000000000000000000000000000000000000000000000000000000000000000000000000000000000
310
00000000000000000000000000000000000000000000000000000000000000000000000000000000000000000000000000000000000000000000000000000000000000000000000000000000000000000000000000000000000000000000000000000000000000000000000000000000000000000000000000000000000000
310
00000000000000000000000000000000000000000000000000000000000000000000000000000000000000000000000000000000000000000000000000000000000000000000000000000000000000000000000000000000000000000000000000000000000000000000000000000000000000000000000000000000000000
310
00000000000000000000000000000000000000000000000000000000000000000000000000000000000000000000000000000000000000000000000000000000000000000000000000000000000000000000000000000000000000000000000000000000000000000000000000000000000000000000000000000000000000
310
00000000000000000000000000000000000000000000000000000000000000000000000000000000000000000000000000000000000000000000000000000000000000000000000000000000000000000000000000000000000000000000000000000000000000000000000000000000000000000000000000000000000000
310
00000000000000000000000000000000000000000000000000000000000000000000000000000000000000000000000000000000000000000000000000000000000000000000000000000000000000000000000000000000000000000000000000000000000000000000000000000000000000000000000000000000000000
310
00000000000000000000000000000000000000000000000000000000000000000000000000000000000000000000000000000000000000000000000000000000000000000000000000000000000000000000000000000000000000000000000000000000000000000000000000000000000000000000000000000000000000
310
00000000000000000000000000000000000000000000000000000000000000000000000000000000000000000000000000000000000000000000000000000000000000000000000000000000000000000000000000000000000000000000000000000000000000000000000000000000000000000000000000000000000000
310
00000000000000000000000000000000000000000000000000000000000000000000000000000000000000000000000000000000000000000000000000000000000000000000000000000000000000000000000000000000000000000000000000000000000000000000000000000000000000000000000000000000000000
310
00000000000000000000000000000000000000000000000000000000000000000000000000000000000000000000000000000000000000000000000000000000000000000000000000000000000000000000000000000000000000000000000000000000000000000000000000000000000000000000000000000000000000
310
00000000000000000000000000000000000000000000000000000000000000000000000000000000000000000000000000000000000000000000000000000000000000000000000000000000000000000000000000000000000000000000000000000000000000000000000000000000000000000000000000000000000000
310
00000000000000000000000000000000000000000000000000000000000000000000000000000000000000000000000000000303030000000000000000000000000000000000000000000000000000000000000000000000000000000000000000000000000000000000000000000000000000000000000000000000000000
310
00000000000000000000000000000000000000000000000000000000000000000000000000000000000000000000000000000000000000000000000000000000000000000000000000000000000000000000000000000000000000000000000000000000000000030303000000000000000000000000000000000000000000
310
00000000000000000000000000000000000000000000000000000000000000000000000000000000000000000000000000000000000000000000000000000000000000000000000000000000000000000000000000000000000000000000000000000000000000000000000000000000000000000000000000000000000000
310
00000000000000000000000000000000000000000000000000000000000303030000000000000000000000000000000000000000000000000000000000000000000000000000000000000000000000000000000000000000000000000000000000000000000000000000000000000000000000000000000000000000000000
310
00000000000000000000000000000000000000000000000000000000000000000000000000000000000000000000000000000000000000000000000000000000000000000000000000000000000000000000030303000000000000000000000000000000000000000000000000000000000000000000000000000000000000
310
00000000000000000000000000000000000000000000000000000000000000000000000000000000000000000000000000000000000000000000000000000000000000000000000000000000000000000000000000000000000000000000000000000000000000000000000000000000000000000000000000000000000000
310
00000000000000000303030000000000000000000000000000000000000000000000000000000000000000000000000000000000000000000000000000000000000000000000000000000000000000000000000000000000000000000000000000000000000000000000000000000000000000000000000000000000000000
310
00000000000000000000000000000000000000000000000000000000000000000000000000000000000000000000000000000000000003030301030300030303000000000000030303010303000000000000000000000000000000000000000000000000000000000000000000000000000000000000000000000000000000
310
00000000000000000000000000000000000000000000000000000000000000000000000000000000000000000000000000000000000000000000000000000000000000000000000000000000000000000000000000000000000000000000000000000000000000000000000300010103030303030303010303030303030101
310
01030000000000000000000000000000000000000000000000000000000000000000000000000000000000000000000000000000000000000000000000000000000000000000000000000000000000000000000000000000000000000000000000000000000000000000000000000000000000000000000000000000000000
310
00000000000000000000000000000000000000000000000000000000000000000003030301030303030303030103030303030303010303030000000000000000000000000000000000000000000000000000000000000000000000000000000000000000000000000000000000000000000000000000000000000000000000
310
00000000000000000000000000000000000000000000000000000000000000000000000000000000000000000000000000000000000000000000000000000000000000000000000000000000000000000000000000000303030303030303030303010303030303030303030303000000000000000000000000000000000000
310
00000000000000000000000000000000000000000000000000000000000000000000000000000000000000000000000000000000000000000000000000000000000000000000000000000000000000000000000000000000000000000000000000000000000000000000000000000000000000000000000000000000000000
310
00000000000000000303030303010101010101010101010101010101010101010103030000000000000000000000000000000000000000000000000000000000000000000000000000000000000000000000000000000000000000000000000000000000000000000000000000000000000000000000000000000000000000
310
00000000000000000000000000000000000000000000000000000000000000000000000000000000000000000000000000000000000000000000000000030303030300000303030000010003010300000100000000000303000000000000000000000000000000000000000000000000000000000000000000000000000000
310
00000000000000000000000000000000000000000000000000000000000000000000000000000000000000000000000000000000000000000000000000000000000000000000000000000000000000000000000000000000000000000000000000000000000000000000000000000000000000000001030101010101010101
310
01010101010101010101010103030000000000000000000000000000000000000000000000000000000000000000000000000000000000000000000000000000000000000000000000000000000000000000000000000000000000000000000000000000000000000000000000000000000000000000000000000000000000
310
00000000000000000000000000000000000000000000000000000000000000000000000000000000000000000300000303030000010003010300000100000000000303000000000000000000000000000000000000000000000000000000000000000000000000000000000000000000000000000000000000000000000000
310
00000000000000000000000000000000000000000000000000000000000000000000000000000000000000000000000000000000000000000000000000000000000000000000000000000000000000000000000000000000000000000000000000030000000000000001000001000000010000000000030000000000000000
310
00000000000000000000000000000000000000000000000000000000000000000000000000000000000000000000000000000000000000000000000000000000000000000000000000000000000000000000000000000000000000000000000000000000000000000000000000000000000000000000000000000000000000
310
00000000000000000000000000000000000000000000000303030303030303030303010303030303030303030300000000000000000000000000000000000000000000000000000000000000000000000000000000000000000000000000000000000000000000000000000000000000000000000000000000000000000000
310
00000000000000000000000000000000000000000000000000000000000000000000000000000000000000000000000000000000000000000000000000000000000000000000000000000000030303010303030303030301030303030303030103030000000000000000000000000000000000000000000000000000000000
310
00000000000000000000000000000000000000000000000000000000000000000000000000000000000000000000000000000000000000000000000000000000000000000000000000000000000000000000000000000000000000000000000000000000000000000000000000000000000000000000000000000000000000
310
00000301010101030303030303010303030303030101010300000000000000000000000000000000000000000000000000000000000000000000000000000000000000000000000000000000000000000000000000000000000000000000000000000000000000000000000000000000000000000000000000000000000000
310
00000000000000000000000000000000000000000000000000000000000000000000000000000000000000000000000000000000000000030303010303000301030000000000000303030103030000000000000000000000000000000000000000000000000000000000000000000000000000000000000000000000000000
310
00000000000000000000000000000000000000000000000000000000000000000000000000000000000000000000000000000000000000000000000000000000000000000000000000000000000000000000000000000000000000000000000000000000000000000000000000000000000000030103000000000000000000
310
00000000000000000000000000000000000000000000000000000000000000000000000000000000000000000000000000000000000000000000000000000000000000000000000000000000000000000000000000000000000000000000000000000000000000000000000000000000000000000000000000000000000000
310
00000000000000000000000000000000000000000000000000000000000000000000000000000000000301030000000000000000000000000000000000000000000000000000000000000000000000000000000000000000000000000000000000000000000000000000000000000000000000000000000000000000000000
310
00000000000000000000000000000000000000000000000000000000000000000000000000000000000000000000000000000000000000000000000000000000000000000000000000000000000000000000000000000000000000000000030103000000000000000000000000000000000000000000000000000000000000
310
00000000000000000000000000000000000000000000000000000000000000000000000000000000000000000000000000000000000000000000000000000000000000000000000000000000000000000000000000000000000000000000000000000000000000000000000000000000000000000000000000000000000000
310
00000000000000000000000000000000000000000301030000000000000000000000000000000000000000000000000000000000000000000000000000000000000000000000000000000000000000000000000000000000000000000000000000000000000000000000000000000000000000000000000000000000000000
310
00000000000000000000000000000000000000000000000000000000000000000000000000000000000000000000000000000000000000000000000000000000000000000000000000030103000000000000000000000000000000000000000000000000000000000000000000000000000000000000000000000000000000
310
00000000000000000000000000000000000000000000000000000000000000000000000000000000000000000000000000000000000000000000000000000000000000000000000000000000000000000000000000000000000000000000000000000000000000000000000000000000000000000000000000000000000000
310
00000000000000000000000000000000000000000000000000000000000000000000000000000000000000000000000000000000000000000000000000000000000000000000000000000000000000000000000000000000000000000000000000000000000000000000000000000000000000000000000000000000000000
310
00000000000000000000000000000000000000000000000000000000000000000000000000000000000000000000000000000000000000000000000000000000000000000000000000000000000000000000000000000000000000000000000000000000000000000000000000000000000000000000000000000000000000
310
00000000000000000000000000000000000000000000000000000000000000000000000000000000000000000000000000000000000000000000000000000000000000000000000000000000000000000000000000000000000000000000000000000000000000000000000000000000000000000000000000000000000000
310
00000000000000000000000000000000000000000000000000000000000000000000000000000000000000000000000000000000000000000000000000000000000000000000000000000000000000000000000000000000000000000000000000000000000000000000000000000000000000000000000000000000000000
310
00000000000000000000000000000000000000000000000000000000000000000000000000000000000000000000000000000000000000000000000000000000000000000000000000000000000000000000000000000000000000000000000000000000000000000000000000000000000000000000000000000000000000
310
00000000000000000000000000000000000000000000000000000000000000000000000000000000000000000000000000000000000000000000000000000000000000000000000000000000000000000000000000000000000000000000000000000000000000000000000000000000000000000000000000000000000000
310
00000000000000000000000000000000000000000000000000000000000000000000000000000000000000000000000000000000000000000000000000000000000000000000000000000000000000000000000000000000000000000000000000000000000000000000000000000000000000000000000000000000000000
310
00000000000000000000000000000000000000000000000000000000000000000000000000000000000000000000000000000000000000000000000000000000000000000000000000000000000000000000000000000000000000000000000000000000000000000000000000000000000000000000000000000000000000
310
00000000000000000000000000000000000000000000000000000000000000000000000000000000000000000000000000000000000000000000000000000000000000000000000000000000000000000000000000000000000000000000000000000000000000000000000000000000000000000000000000000000000000
310
00000000000000000000000000000000000000000000000000000000000000000000000000000000000000000000000000000000000000000000000000000000000000000000000000000000000000000000000000000000000000000000000000000000000000000000000000000000000000000000000000000000000000
310
00000000000000000000000000000000000000000000000000000000000000000000000000000000000000000000000000000000000000000000000000000000000000000000000000000000000000000000000000000000000000000000000000000000000000000000000000000000000000000000000000000000000000
310
00000000000000000000000000000000000000000000000000000000000000000000000000000000000000000000000000000000000000000000000000000000000000000000000000000000000000000000000000000000000000000000000000000000000000000000000000000000000000000000000000000000000000
310
00000000000000000000000000000000000000000000000000000000000000000000000000000000000000000000000000000000000000000000000000000000000000000000000000000000000000000000000000000000000000000000000000000000000000000000000000000000000000000000000000000000000000
310
00000000000000000000000000000000000000000000000000000000000000000000000000000000000000000000000000000000000000000000000000000000000000000000000000000000000000000000000000000000000000000000000000000000000000000000000000000000000000000000000000000000000000
310
00000000000000000000000000000000000000000000000000000000000000000000000000000000000000000000000000000000000000000000000000000000000000000000000000000000000000000000000000000000000000000000000000000000000000000000000000000000000000000000000000000000000000
310
00000000000000000000000000000000000000000000000000000000000000000000000000000000000000000000000000000000000000000000000000000000000000000000000000000000000000000000000000000000000000000000000000000000000000000000000000000000000000000000000000000000000000
310
00000000000000000000000000000000000000000000000000000000000000000000000000000000000000000000000000000000000000000000000000000000000000000000000000000000000000000000000000000000000000000000000000000000000000000000000000000000000000000000000000000000000000
310
00000000000000000000000000000000000000000000000000000000000000000000000000000000000000000000000000000000000000000000000000000000000000000000000000000000000000000000000000000000000000000000000000000000000000000000000000000000000000000000000000000000000000
310
00000000000000000000000000000000000000000000000000000000000000000000000000000000000000000000000000000000000000000000000000000000000000000000000000000000000000000000000000000000000000000000000000000000000000000000000000000000000000000000000000000000000000
310
00000000000000000000000000000000000000000000000000000000000000000000000000000000000000000000000000000000000000000000000000000000000000000000000000000000000000000000000000000000000000000000000000000000000000000000000000000000000000000000000000000000000000
310
000000000000000000000000000000000000000000000000000000000000000000000000000000000000000000000000000000000000000000000000000000000000000000000000000000000000000000000000000000000000000000000000000000000000000000000000
  0
ENDSEC
  0
EOF
