  0
SECTION
  2
HEADER
  9
$ACADVER
  1
AC1015
  9
$ACADMAINTVER
 70
     6
  9
$DWGCODEPAGE
  3
ANSI_932
  9
$INSBASE
 10
1733.403450349377
 20
1601.127484097179
 30
0.0
  9
$EXTMIN
 10
79.99999987333331
 20
0.0
 30
0.0
  9
$EXTMAX
 10
1607.999996373333
 20
1659.04940253631
 30
0.0
  9
$LIMMIN
 10
0.0
 20
0.0
  9
$LIMMAX
 10
816.5000000000001
 20
565.0
  9
$ORTHOMODE
 70
     1
  9
$REGENMODE
 70
     1
  9
$FILLMODE
 70
     1
  9
$QTEXTMODE
 70
     0
  9
$MIRRTEXT
 70
     1
  9
$LTSCALE
 40
20.0
  9
$ATTMODE
 70
     1
  9
$TEXTSIZE
 40
12.0
  9
$TRACEWID
 40
0.05
  9
$TEXTSTYLE
  7
KANJI
  9
$CLAYER
  8
2
  9
$CELTYPE
  6
BYLAYER
  9
$CECOLOR
 62
   256
  9
$CELTSCALE
 40
1.0
  9
$DISPSILH
 70
     0
  9
$DIMSCALE
 40
4.0
  9
$DIMASZ
 40
2.0
  9
$DIMEXO
 40
0.5
  9
$DIMDLI
 40
0.0
  9
$DIMRND
 40
0.0
  9
$DIMDLE
 40
0.0
  9
$DIMEXE
 40
1.0
  9
$DIMTP
 40
0.0
  9
$DIMTM
 40
0.0
  9
$DIMTXT
 40
3.0
  9
$DIMCEN
 40
0.09
  9
$DIMTSZ
 40
0.0
  9
$DIMTOL
 70
     0
  9
$DIMLIM
 70
     0
  9
$DIMTIH
 70
     0
  9
$DIMTOH
 70
     0
  9
$DIMSE1
 70
     0
  9
$DIMSE2
 70
     0
  9
$DIMTAD
 70
     0
  9
$DIMZIN
 70
     8
  9
$DIMBLK
  1

  9
$DIMASO
 70
     0
  9
$DIMSHO
 70
     0
  9
$DIMPOST
  1

  9
$DIMAPOST
  1

  9
$DIMALT
 70
     0
  9
$DIMALTD
 70
     2
  9
$DIMALTF
 40
25.4
  9
$DIMLFAC
 40
1.0
  9
$DIMTOFL
 70
     1
  9
$DIMTVP
 40
1.0
  9
$DIMTIX
 70
     1
  9
$DIMSOXD
 70
     1
  9
$DIMSAH
 70
     0
  9
$DIMBLK1
  1

  9
$DIMBLK2
  1

  9
$DIMSTYLE
  2
STANDARD
  9
$DIMCLRD
 70
   256
  9
$DIMCLRE
 70
   256
  9
$DIMCLRT
 70
   256
  9
$DIMTFAC
 40
1.0
  9
$DIMGAP
 40
0.09
  9
$DIMJUST
 70
     0
  9
$DIMSD1
 70
     0
  9
$DIMSD2
 70
     0
  9
$DIMTOLJ
 70
     1
  9
$DIMTZIN
 70
     0
  9
$DIMALTZ
 70
     0
  9
$DIMALTTZ
 70
     0
  9
$DIMUPT
 70
     0
  9
$DIMDEC
 70
     1
  9
$DIMTDEC
 70
     4
  9
$DIMALTU
 70
     2
  9
$DIMALTTD
 70
     2
  9
$DIMTXSTY
  7
STANDARD
  9
$DIMAUNIT
 70
     0
  9
$DIMADEC
 70
     0
  9
$DIMALTRND
 40
0.0
  9
$DIMAZIN
 70
     0
  9
$DIMDSEP
 70
    46
  9
$DIMATFIT
 70
     3
  9
$DIMFRAC
 70
     0
  9
$DIMLDRBLK
  1

  9
$DIMLUNIT
 70
     2
  9
$DIMLWD
 70
    -2
  9
$DIMLWE
 70
    -2
  9
$DIMTMOVE
 70
     0
  9
$LUNITS
 70
     2
  9
$LUPREC
 70
     3
  9
$SKETCHINC
 40
0.1
  9
$FILLETRAD
 40
5.0
  9
$AUNITS
 70
     0
  9
$AUPREC
 70
     3
  9
$MENU
  1
C:\R13\WIN\SUPPORT\ACADFULL
  9
$ELEVATION
 40
0.0
  9
$PELEVATION
 40
0.0
  9
$THICKNESS
 40
0.0
  9
$LIMCHECK
 70
     0
  9
$CHAMFERA
 40
0.0
  9
$CHAMFERB
 40
0.0
  9
$CHAMFERC
 40
0.0
  9
$CHAMFERD
 40
0.0
  9
$SKPOLY
 70
     0
  9
$TDCREATE
 40
2457504.816095949
  9
$TDUCREATE
 40
2457504.441095949
  9
$TDUPDATE
 40
2458115.608661829
  9
$TDUUPDATE
 40
2458115.233661829
  9
$TDINDWG
 40
0.0233242593
  9
$TDUSRTIMER
 40
0.0233239005
  9
$USRTIMER
 70
     1
  9
$ANGBASE
 50
0.0
  9
$ANGDIR
 70
     0
  9
$PDMODE
 70
     0
  9
$PDSIZE
 40
0.0
  9
$PLINEWID
 40
0.0
  9
$SPLFRAME
 70
     0
  9
$SPLINETYPE
 70
     6
  9
$SPLINESEGS
 70
     8
  9
$HANDSEED
  5
608
  9
$SURFTAB1
 70
     6
  9
$SURFTAB2
 70
     6
  9
$SURFTYPE
 70
     6
  9
$SURFU
 70
     6
  9
$SURFV
 70
     6
  9
$UCSBASE
  2

  9
$UCSNAME
  2

  9
$UCSORG
 10
0.0
 20
0.0
 30
0.0
  9
$UCSXDIR
 10
1.0
 20
0.0
 30
0.0
  9
$UCSYDIR
 10
0.0
 20
1.0
 30
0.0
  9
$UCSORTHOREF
  2

  9
$UCSORTHOVIEW
 70
     0
  9
$UCSORGTOP
 10
0.0
 20
0.0
 30
0.0
  9
$UCSORGBOTTOM
 10
0.0
 20
0.0
 30
0.0
  9
$UCSORGLEFT
 10
0.0
 20
0.0
 30
0.0
  9
$UCSORGRIGHT
 10
0.0
 20
0.0
 30
0.0
  9
$UCSORGFRONT
 10
0.0
 20
0.0
 30
0.0
  9
$UCSORGBACK
 10
0.0
 20
0.0
 30
0.0
  9
$PUCSBASE
  2

  9
$PUCSNAME
  2

  9
$PUCSORG
 10
0.0
 20
0.0
 30
0.0
  9
$PUCSXDIR
 10
1.0
 20
0.0
 30
0.0
  9
$PUCSYDIR
 10
0.0
 20
1.0
 30
0.0
  9
$PUCSORTHOREF
  2

  9
$PUCSORTHOVIEW
 70
     0
  9
$PUCSORGTOP
 10
0.0
 20
0.0
 30
0.0
  9
$PUCSORGBOTTOM
 10
0.0
 20
0.0
 30
0.0
  9
$PUCSORGLEFT
 10
0.0
 20
0.0
 30
0.0
  9
$PUCSORGRIGHT
 10
0.0
 20
0.0
 30
0.0
  9
$PUCSORGFRONT
 10
0.0
 20
0.0
 30
0.0
  9
$PUCSORGBACK
 10
0.0
 20
0.0
 30
0.0
  9
$USERI1
 70
     0
  9
$USERI2
 70
     0
  9
$USERI3
 70
     0
  9
$USERI4
 70
     0
  9
$USERI5
 70
     0
  9
$USERR1
 40
0.0
  9
$USERR2
 40
0.0
  9
$USERR3
 40
0.0
  9
$USERR4
 40
2448925.372986111
  9
$USERR5
 40
0.04166667
  9
$WORLDVIEW
 70
     1
  9
$SHADEDGE
 70
     3
  9
$SHADEDIF
 70
    70
  9
$TILEMODE
 70
     1
  9
$MAXACTVP
 70
    16
  9
$PINSBASE
 10
0.0
 20
0.0
 30
0.0
  9
$PLIMCHECK
 70
     0
  9
$PEXTMIN
 10
1000000000000000E+20
 20
1000000000000000E+20
 30
1000000000000000E+20
  9
$PEXTMAX
 10
-1000000000000000E+20
 20
-1000000000000000E+20
 30
-1000000000000000E+20
  9
$PLIMMIN
 10
0.0
 20
0.0
  9
$PLIMMAX
 10
12.0
 20
9.0
  9
$UNITMODE
 70
     0
  9
$VISRETAIN
 70
     0
  9
$PLINEGEN
 70
     0
  9
$PSLTSCALE
 70
     0
  9
$TREEDEPTH
 70
  3020
  9
$CMLSTYLE
  2
STANDARD
  9
$CMLJUST
 70
     0
  9
$CMLSCALE
 40
1.0
  9
$PROXYGRAPHICS
 70
     1
  9
$MEASUREMENT
 70
     0
  9
$CELWEIGHT
370
    -1
  9
$ENDCAPS
280
     0
  9
$JOINSTYLE
280
     0
  9
$LWDISPLAY
290
     0
  9
$INSUNITS
 70
     0
  9
$HYPERLINKBASE
  1

  9
$STYLESHEET
  1

  9
$XEDIT
290
     1
  9
$CEPSNTYPE
380
     0
  9
$PSTYLEMODE
290
     1
  9
$FINGERPRINTGUID
  2
{33F2790E-975C-4775-A6EC-C6770F8D2CB3}
  9
$VERSIONGUID
  2
{8FEC4CAD-07A6-48CC-95CF-932ECA6DB5CA}
  9
$EXTNAMES
290
     1
  9
$PSVPSCALE
 40
0.0
  9
$OLESTARTUP
290
     0
  0
ENDSEC
  0
SECTION
  2
CLASSES
  0
CLASS
  1
ACDBDICTIONARYWDFLT
  2
AcDbDictionaryWithDefault
  3
ObjectDBX Classes
 90
        0
280
     0
281
     0
  0
CLASS
  1
MATERIAL
  2
AcDbMaterial
  3
ObjectDBX Classes
 90
     1153
280
     0
281
     0
  0
CLASS
  1
SORTENTSTABLE
  2
AcDbSortentsTable
  3
ObjectDBX Classes
 90
        0
280
     0
281
     0
  0
CLASS
  1
VISUALSTYLE
  2
AcDbVisualStyle
  3
ObjectDBX Classes
 90
     4095
280
     0
281
     0
  0
CLASS
  1
SCALE
  2
AcDbScale
  3
ObjectDBX Classes
 90
     1153
280
     0
281
     0
  0
CLASS
  1
DICTIONARYVAR
  2
AcDbDictionaryVar
  3
ObjectDBX Classes
 90
        0
280
     0
281
     0
  0
CLASS
  1
MLEADERSTYLE
  2
AcDbMLeaderStyle
  3
ACDB_MLEADERSTYLE_CLASS
 90
     4095
280
     0
281
     0
  0
CLASS
  1
TABLESTYLE
  2
AcDbTableStyle
  3
ObjectDBX Classes
 90
     4095
280
     0
281
     0
  0
CLASS
  1
ACDBPLACEHOLDER
  2
AcDbPlaceHolder
  3
ObjectDBX Classes
 90
        0
280
     0
281
     0
  0
CLASS
  1
LAYOUT
  2
AcDbLayout
  3
ObjectDBX Classes
 90
        0
280
     0
281
     0
  0
ENDSEC
  0
SECTION
  2
TABLES
  0
TABLE
  2
VPORT
  5
2D
102
{ACAD_XDICTIONARY
360
5CE
102
}
330
0
100
AcDbSymbolTable
 70
     1
  0
VPORT
  5
34
330
2D
100
AcDbSymbolTableRecord
100
AcDbViewportTableRecord
  2
*Active
 70
     0
 10
0.0
 20
0.0
 11
1.0
 21
1.0
 12
1348.599414597578
 22
588.3051450833702
 13
0.0
 23
0.0
 14
1.0
 24
1.0
 15
50.0
 25
50.0
 16
0.0
 26
0.0
 36
1.0
 17
0.0
 27
0.0
 37
0.0
 40
2160.057021462575
 41
1.82716049382716
 42
50.0
 43
0.0
 44
0.0
 50
0.0
 51
0.0
 71
     0
 72
  5000
 73
     1
 74
     0
 75
     0
 76
     0
 77
     0
 78
     0
281
     0
 65
     1
110
0.0
120
0.0
130
0.0
111
1.0
121
0.0
131
0.0
112
0.0
122
1.0
132
0.0
 79
     0
146
0.0
1001
ACAD_NAV_VCDISPLAY
1070
     3
  0
ENDTAB
  0
TABLE
  2
LTYPE
  5
F
330
0
100
AcDbSymbolTable
 70
     2
  0
LTYPE
  5
10
330
F
100
AcDbSymbolTableRecord
100
AcDbLinetypeTableRecord
  2
BYBLOCK
 70
     0
  3

 72
    65
 73
     0
 40
0.0
  0
LTYPE
  5
11
330
F
100
AcDbSymbolTableRecord
100
AcDbLinetypeTableRecord
  2
BYLAYER
 70
     0
  3

 72
    65
 73
     0
 40
0.0
  0
LTYPE
  5
E
330
F
100
AcDbSymbolTableRecord
100
AcDbLinetypeTableRecord
  2
CONTINUOUS
 70
     0
  3
Solid line
 72
    65
 73
     0
 40
0.0
  0
LTYPE
  5
9D
330
F
100
AcDbSymbolTableRecord
100
AcDbLinetypeTableRecord
  2
CENTER
 70
     0
  3
____ _ ____ _ ____ _ ____ _ ____ _ ____ _ ____
 72
    65
 73
     4
 40
2.0
 49
1.25
 74
     0
 49
-0.25
 74
     0
 49
0.25
 74
     0
 49
-0.25
 74
     0
  0
ENDTAB
  0
TABLE
  2
LAYER
  5
2
102
{ACAD_XDICTIONARY
360
3
102
}
330
0
100
AcDbSymbolTable
 70
     8
  0
LAYER
  5
1F
102
{ACAD_XDICTIONARY
360
20
102
}
330
2
100
AcDbSymbolTableRecord
100
AcDbLayerTableRecord
  2
0
 70
     0
 62
     7
  6
CONTINUOUS
370
    -3
390
7
  0
LAYER
  5
BA
102
{ACAD_XDICTIONARY
360
BB
102
}
330
2
100
AcDbSymbolTableRecord
100
AcDbLayerTableRecord
  2
1
 70
     0
 62
     9
  6
CONTINUOUS
370
    -3
390
7
  0
LAYER
  5
1
102
{ACAD_XDICTIONARY
360
5
102
}
330
2
100
AcDbSymbolTableRecord
100
AcDbLayerTableRecord
  2
2
 70
     0
 62
     4
  6
CONTINUOUS
370
    -3
390
7
  0
LAYER
  5
7F
102
{ACAD_XDICTIONARY
360
80
102
}
330
2
100
AcDbSymbolTableRecord
100
AcDbLayerTableRecord
  2
4
 70
     0
 62
     3
  6
CONTINUOUS
370
    -3
390
7
  0
LAYER
  5
9A
102
{ACAD_XDICTIONARY
360
9B
102
}
330
2
100
AcDbSymbolTableRecord
100
AcDbLayerTableRecord
  2
L-CENTER
 70
     0
 62
     1
  6
CENTER
370
    -3
390
7
  0
LAYER
  5
5C
102
{ACAD_XDICTIONARY
360
5D
102
}
330
2
100
AcDbSymbolTableRecord
100
AcDbLayerTableRecord
  2
3
 70
     0
 62
     2
  6
CONTINUOUS
370
    -3
390
7
  0
LAYER
  5
B4
330
2
100
AcDbSymbolTableRecord
100
AcDbLayerTableRecord
  2
5
 70
     0
 62
     6
  6
CONTINUOUS
370
    -3
390
7
  0
LAYER
  5
4D0
330
2
100
AcDbSymbolTableRecord
100
AcDbLayerTableRecord
  2
Defpoints
 70
     0
 62
     7
  6
CONTINUOUS
290
     0
370
    -3
390
7
  0
ENDTAB
  0
TABLE
  2
STYLE
  5
13
330
0
100
AcDbSymbolTable
 70
     2
  0
STYLE
  5
17
330
13
100
AcDbSymbolTableRecord
100
AcDbTextStyleTableRecord
  2
STANDARD
 70
     0
 40
0.0
 41
1.0
 50
0.0
 71
     0
 42
7.2
  3
TXT
  4

  0
STYLE
  5
12
330
13
100
AcDbSymbolTableRecord
100
AcDbTextStyleTableRecord
  2
KANJI
 70
     0
 40
0.0
 41
1.0
 50
0.0
 71
     0
 42
12.0
  3
TXT
  4
BIGFONT
  0
ENDTAB
  0
TABLE
  2
VIEW
  5
2B
330
0
100
AcDbSymbolTable
 70
     0
  0
ENDTAB
  0
TABLE
  2
UCS
  5
2C
330
0
100
AcDbSymbolTable
 70
     0
  0
ENDTAB
  0
TABLE
  2
APPID
  5
D
330
0
100
AcDbSymbolTable
 70
     4
  0
APPID
  5
C
330
D
100
AcDbSymbolTableRecord
100
AcDbRegAppTableRecord
  2
ACAD
 70
     0
  0
APPID
  5
26
330
D
100
AcDbSymbolTableRecord
100
AcDbRegAppTableRecord
  2
ACAD_PSEXT
 70
     0
  0
APPID
  5
35
330
D
100
AcDbSymbolTableRecord
100
AcDbRegAppTableRecord
  2
ACAD_NAV_VCDISPLAY
 70
     0
  0
APPID
  5
52D
330
D
100
AcDbSymbolTableRecord
100
AcDbRegAppTableRecord
  2
ACAD_MLEADERVER
 70
     0
  0
ENDTAB
  0
TABLE
  2
DIMSTYLE
  5
16
330
0
100
AcDbSymbolTable
 70
     1
100
AcDbDimStyleTable
  0
DIMSTYLE
105
15
330
16
100
AcDbSymbolTableRecord
100
AcDbDimStyleTableRecord
  2
STANDARD
 70
     0
178
     0
340
17
  0
ENDTAB
  0
TABLE
  2
BLOCK_RECORD
  5
1A
330
0
100
AcDbSymbolTable
 70
     0
  0
BLOCK_RECORD
  5
1B
102
{ACAD_XDICTIONARY
360
1C
102
}
330
1A
100
AcDbSymbolTableRecord
100
AcDbBlockTableRecord
  2
*MODEL_SPACE
340
23
  0
BLOCK_RECORD
  5
27
330
1A
100
AcDbSymbolTableRecord
100
AcDbBlockTableRecord
  2
*PAPER_SPACE
340
2A
  0
ENDTAB
  0
ENDSEC
  0
SECTION
  2
BLOCKS
  0
BLOCK
  5
1E
330
1B
100
AcDbEntity
  8
0
100
AcDbBlockBegin
  2
*MODEL_SPACE
 70
     0
 10
0.0
 20
0.0
 30
0.0
  3
*MODEL_SPACE
  1

  0
ENDBLK
  5
22
330
1B
100
AcDbEntity
  8
0
100
AcDbBlockEnd
  0
BLOCK
  5
28
330
27
100
AcDbEntity
 67
     1
  8
0
100
AcDbBlockBegin
  2
*PAPER_SPACE
 70
     0
 10
0.0
 20
0.0
 30
0.0
  3
*PAPER_SPACE
  1

  0
ENDBLK
  5
29
330
27
100
AcDbEntity
 67
     1
  8
0
100
AcDbBlockEnd
  0
ENDSEC
  0
SECTION
  2
ENTITIES
  0
LINE
  5
7E
330
1B
100
AcDbEntity
  8
4
100
AcDbLine
 10
1172.542925343232
 20
150.9631124365302
 30
0.0
 11
1172.542925343232
 21
151.9631124365301
 31
0.0
  0
LINE
  5
82
330
1B
100
AcDbEntity
  8
4
100
AcDbLine
 10
1101.542925343232
 20
151.9631124365302
 30
0.0
 11
1101.542925343232
 21
150.9631124365303
 31
0.0
  0
LINE
  5
83
330
1B
100
AcDbEntity
  8
4
100
AcDbLine
 10
392.795983652727
 20
150.9631124365302
 30
0.0
 11
461.1731836527279
 21
150.9631124365302
 31
0.0
  0
ARC
  5
84
330
1B
100
AcDbEntity
  8
4
100
AcDbCircle
 10
673.7959836527289
 20
161.4631124365302
 30
0.0
 40
5.0
100
AcDbArc
 50
270.0
 51
0.0
  0
ARC
  5
85
330
1B
100
AcDbEntity
  8
4
100
AcDbCircle
 10
271.7959836527289
 20
161.4631124365302
 30
0.0
 40
5.0
100
AcDbArc
 50
180.0
 51
270.0
  0
ARC
  5
86
330
1B
100
AcDbEntity
  8
4
100
AcDbCircle
 10
1347.542925343232
 20
306.4631124365302
 30
0.0
 40
2.0
100
AcDbArc
 50
0.0
 51
90.0
  0
ARC
  5
87
330
1B
100
AcDbEntity
  8
4
100
AcDbCircle
 10
945.5429253432303
 20
306.4631124365302
 30
0.0
 40
2.0
100
AcDbArc
 50
90.0
 51
180.0
  0
ARC
  5
88
330
1B
100
AcDbEntity
  8
4
100
AcDbCircle
 10
676.7959836527289
 20
306.4631124365302
 30
0.0
 40
2.0
100
AcDbArc
 50
0.0
 51
90.0
  0
ARC
  5
89
330
1B
100
AcDbEntity
  8
4
100
AcDbCircle
 10
268.7959836527289
 20
306.4631124365302
 30
0.0
 40
2.0
100
AcDbArc
 50
90.0
 51
180.0
  0
LINE
  5
8A
330
1B
100
AcDbEntity
  8
4
100
AcDbLine
 10
485.295983652727
 20
333.4626624365303
 30
0.0
 11
485.295983652727
 21
333.715035627258
 31
0.0
  0
LINE
  5
8B
330
1B
100
AcDbEntity
  8
4
100
AcDbLine
 10
484.295983652727
 20
332.9865242305334
 30
0.0
 11
484.295983652727
 21
331.9626624365303
 31
0.0
  0
LINE
  5
8C
330
1B
100
AcDbEntity
  8
4
100
AcDbLine
 10
460.295983652727
 20
333.4626624365303
 30
0.0
 11
460.295983652727
 21
333.715035627258
 31
0.0
  0
LINE
  5
8D
330
1B
100
AcDbEntity
  8
4
100
AcDbLine
 10
461.295983652727
 20
332.9865242305348
 30
0.0
 11
461.295983652727
 21
331.9626624365303
 31
0.0
  0
LINE
  5
8E
330
1B
100
AcDbEntity
  8
4
100
AcDbLine
 10
479.5776169218968
 20
339.4626624365303
 30
0.0
 11
466.0143503835573
 21
339.4626624365303
 31
0.0
  0
LINE
  5
8F
330
1B
100
AcDbEntity
  8
4
100
AcDbLine
 10
484.96089835845
 20
333.4626624365303
 30
0.0
 11
485.295983652727
 21
333.4626624365303
 31
0.0
  0
LINE
  5
90
330
1B
100
AcDbEntity
  8
4
100
AcDbLine
 10
460.295983652727
 20
333.4626624365303
 30
0.0
 11
460.6310689470041
 21
333.4626624365303
 31
0.0
  0
LINE
  5
91
330
1B
100
AcDbEntity
  8
4
100
AcDbLine
 10
452.795983652727
 20
331.9626624365303
 30
0.0
 11
452.795983652727
 21
326.8631124365302
 31
0.0
  0
LINE
  5
92
330
1B
100
AcDbEntity
  8
4
100
AcDbLine
 10
483.3503713524566
 20
331.9626624365303
 30
0.0
 11
492.795983652727
 21
331.9626624365303
 31
0.0
  0
LINE
  5
93
330
1B
100
AcDbEntity
  8
4
100
AcDbLine
 10
452.795983652727
 20
331.9626624365303
 30
0.0
 11
462.2415959529993
 21
331.9626624365303
 31
0.0
  0
LINE
  5
94
330
1B
100
AcDbEntity
  8
4
100
AcDbLine
 10
492.795983652727
 20
331.9626624365303
 30
0.0
 11
492.795983652727
 21
326.8631124365301
 31
0.0
  0
ARC
  5
95
330
1B
100
AcDbEntity
  8
4
100
AcDbCircle
 10
1335.542680343233
 20
324.8631124365302
 30
0.0
 40
2.0
100
AcDbArc
 50
0.0
 51
90.0
  0
ARC
  5
96
330
1B
100
AcDbEntity
  8
4
100
AcDbCircle
 10
951.542680343231
 20
324.8631124365302
 30
0.0
 40
2.0
100
AcDbArc
 50
90.0
 51
180.0
  0
LWPOLYLINE
  5
97
330
1B
100
AcDbEntity
  8
4
100
AcDbPolyline
 90
        6
 70
     1
 43
0.0
 10
472.7959836527261
 20
747.2949865909329
 10
461.9706661054215
 20
741.0449865909329
 10
461.9706661054215
 20
728.5449865909329
 10
472.7959836527261
 20
722.2949865909329
 10
483.6213012000317
 20
728.5449865909329
 10
483.6213012000317
 20
741.0449865909329
  0
CIRCLE
  5
98
330
1B
100
AcDbEntity
  8
4
100
AcDbCircle
 10
472.7959836527261
 20
734.7949865909329
 30
0.0
 40
12.5
  0
LINE
  5
99
330
1B
100
AcDbEntity
  8
L-CENTER
100
AcDbLine
 10
442.795983652727
 20
734.7949865909329
 30
0.0
 11
502.795983652727
 21
734.7949865909329
 31
0.0
  0
CIRCLE
  5
9E
330
1B
100
AcDbEntity
  8
4
100
AcDbCircle
 10
472.795983652727
 20
734.7949865909329
 30
0.0
 40
20.0
  0
LINE
  5
9F
330
1B
100
AcDbEntity
  8
4
100
AcDbLine
 10
1351.542925343232
 20
217.9631124365302
 30
0.0
 11
1353.54292534323
 21
217.9631124365302
 31
0.0
  0
LINE
  5
A0
330
1B
100
AcDbEntity
  8
4
100
AcDbLine
 10
1068.042680343231
 20
333.4626624365303
 30
0.0
 11
1068.042680343231
 21
339.4626624365303
 31
0.0
  0
LINE
  5
A1
330
1B
100
AcDbEntity
  8
4
100
AcDbLine
 10
1067.042680343231
 20
333.4626624365303
 30
0.0
 11
1067.042680343231
 21
331.9626624365303
 31
0.0
  0
LINE
  5
A2
330
1B
100
AcDbEntity
  8
4
100
AcDbLine
 10
1063.042680343231
 20
335.4626624365303
 30
0.0
 11
1063.042680343231
 21
339.4626624365303
 31
0.0
  0
LINE
  5
A3
330
1B
100
AcDbEntity
  8
4
100
AcDbLine
 10
1048.042680343231
 20
335.4626624365303
 30
0.0
 11
1048.042680343231
 21
339.4626624365303
 31
0.0
  0
LINE
  5
A4
330
1B
100
AcDbEntity
  8
L-CENTER
100
AcDbLine
 10
1055.542680343231
 20
343.879080351642
 30
0.0
 11
1055.542680343231
 21
299.8751046900994
 31
0.0
  0
LINE
  5
A5
330
1B
100
AcDbEntity
  8
4
100
AcDbLine
 10
1043.042680343231
 20
333.4626624365303
 30
0.0
 11
1043.042680343231
 21
339.4626624365303
 31
0.0
  0
LINE
  5
A6
330
1B
100
AcDbEntity
  8
4
100
AcDbLine
 10
1044.042680343231
 20
333.4626624365303
 30
0.0
 11
1044.042680343231
 21
331.9626624365303
 31
0.0
  0
LINE
  5
A7
330
1B
100
AcDbEntity
  8
4
100
AcDbLine
 10
1068.042680343231
 20
339.4626624365303
 30
0.0
 11
1043.042680343231
 21
339.4626624365303
 31
0.0
  0
LINE
  5
A8
330
1B
100
AcDbEntity
  8
4
100
AcDbLine
 10
1043.042680343231
 20
335.4626624365303
 30
0.0
 11
1068.042680343231
 21
335.4626624365303
 31
0.0
  0
LINE
  5
A9
330
1B
100
AcDbEntity
  8
4
100
AcDbLine
 10
1043.042680343231
 20
333.4626624365303
 30
0.0
 11
1068.042680343231
 21
333.4626624365303
 31
0.0
  0
LINE
  5
AA
330
1B
100
AcDbEntity
  8
4
100
AcDbLine
 10
1035.542680343231
 20
331.9626624365303
 30
0.0
 11
1035.542680343231
 21
326.8631124365302
 31
0.0
  0
LINE
  5
AB
330
1B
100
AcDbEntity
  8
4
100
AcDbLine
 10
1035.542680343231
 20
331.9626624365303
 30
0.0
 11
1075.542680343231
 21
331.9626624365303
 31
0.0
  0
LINE
  5
AC
330
1B
100
AcDbEntity
  8
4
100
AcDbLine
 10
1075.542680343231
 20
331.9626624365303
 30
0.0
 11
1075.542680343231
 21
328.5641815397007
 31
0.0
  0
LINE
  5
1AA
330
1B
100
AcDbEntity
  8
0
100
AcDbLine
 10
1607.999996373333
 20
0.0
 30
0.0
 11
1607.999996373333
 21
1089.999997456667
 31
0.0
  0
LINE
  5
1AB
330
1B
100
AcDbEntity
  8
0
100
AcDbLine
 10
79.99999987333331
 20
1089.999997456667
 30
0.0
 11
79.99999987333331
 21
0.0
 31
0.0
  0
LINE
  5
1AC
330
1B
100
AcDbEntity
  8
0
100
AcDbLine
 10
1607.999996373333
 20
1089.999997456667
 30
0.0
 11
79.99999987333331
 21
1089.999997456667
 31
0.0
  0
LINE
  5
1AD
330
1B
100
AcDbEntity
  8
0
100
AcDbLine
 10
79.99999987333331
 20
0.0
 30
0.0
 11
1607.999996373333
 21
0.0
 31
0.0
  0
ARC
  5
240
330
1B
100
AcDbEntity
  8
4
100
AcDbCircle
 10
1146.042802843232
 20
-672.2472419196281
 30
0.0
 40
1003.291469414149
100
AcDbArc
 50
90.70330475452403
 51
95.23264254959398
  0
ARC
  5
241
330
1B
100
AcDbEntity
  8
4
100
AcDbCircle
 10
1150.903896275398
 20
332.5794985074708
 30
0.0
 40
3.783613929059507
100
AcDbArc
 50
49.57010315516856
 51
130.429896844818
  0
LINE
  5
242
330
1B
100
AcDbEntity
  8
4
100
AcDbLine
 10
1153.357634919455
 20
326.8631124365302
 30
0.0
 11
1153.357634919455
 21
335.4595854906779
 31
0.0
  0
LINE
  5
243
330
1B
100
AcDbEntity
  8
4
100
AcDbLine
 10
1148.450157631343
 20
335.4595854906779
 30
0.0
 11
1148.450157631343
 21
329.3631124365302
 31
0.0
  0
ARC
  5
244
330
1B
100
AcDbEntity
  8
4
100
AcDbCircle
 10
1136.181464411064
 20
332.5794985074708
 30
0.0
 40
3.783613929059507
100
AcDbArc
 50
49.57010315516856
 51
130.4298968448315
  0
LINE
  5
245
330
1B
100
AcDbEntity
  8
4
100
AcDbLine
 10
1138.635203055119
 20
335.4595854906779
 30
0.0
 11
1138.635203055119
 21
329.3631124365302
 31
0.0
  0
LINE
  5
246
330
1B
100
AcDbEntity
  8
4
100
AcDbLine
 10
1133.727725767008
 20
335.4595854906779
 30
0.0
 11
1133.727725767008
 21
326.8631124365302
 31
0.0
  0
ARC
  5
247
330
1B
100
AcDbEntity
  8
4
100
AcDbCircle
 10
1143.542680343231
 20
322.5839471390705
 30
0.0
 40
13.77916529745958
100
AcDbArc
 50
69.13593563607864
 51
110.8640643639214
  0
LINE
  5
248
330
1B
100
AcDbEntity
  8
4
100
AcDbLine
 10
1150.903896275398
 20
336.3631124365302
 30
0.0
 11
1136.181464411064
 21
336.3631124365302
 31
0.0
  0
LINE
  5
249
330
1B
100
AcDbEntity
  8
4
100
AcDbLine
 10
1133.727725767008
 20
326.8631124365302
 30
0.0
 11
1153.357634919455
 21
326.8631124365302
 31
0.0
  0
LINE
  5
24A
330
1B
100
AcDbEntity
  8
4
100
AcDbLine
 10
1133.727725767008
 20
329.3631124365302
 30
0.0
 11
1153.357634919455
 21
329.3631124365302
 31
0.0
  0
LINE
  5
24B
330
1B
100
AcDbEntity
  8
L-CENTER
100
AcDbLine
 10
1302.891354639568
 20
297.372534683881
 30
0.0
 11
1302.891354639568
 21
339.2310906911102
 31
0.0
  0
LINE
  5
24C
330
1B
100
AcDbEntity
  8
4
100
AcDbLine
 10
1297.983877351456
 20
335.4595854906779
 30
0.0
 11
1297.983877351456
 21
329.3631124365302
 31
0.0
  0
ARC
  5
24D
330
1B
100
AcDbEntity
  8
4
100
AcDbCircle
 10
1295.5301387074
 20
332.5794985074708
 30
0.0
 40
3.783613929059507
100
AcDbArc
 50
49.57010315516856
 51
130.429896844818
  0
LINE
  5
24E
330
1B
100
AcDbEntity
  8
4
100
AcDbLine
 10
1307.798831927679
 20
335.4595854906779
 30
0.0
 11
1307.798831927679
 21
329.3631124365302
 31
0.0
  0
ARC
  5
24F
330
1B
100
AcDbEntity
  8
4
100
AcDbCircle
 10
1310.252570571735
 20
332.5794985074708
 30
0.0
 40
3.783613929059507
100
AcDbArc
 50
49.57010315516856
 51
130.4298968448315
  0
LINE
  5
250
330
1B
100
AcDbEntity
  8
4
100
AcDbLine
 10
1312.706309215791
 20
329.3631124365302
 30
0.0
 11
1293.076400063344
 21
329.3631124365302
 31
0.0
  0
LINE
  5
251
330
1B
100
AcDbEntity
  8
4
100
AcDbLine
 10
1295.5301387074
 20
336.3631124365302
 30
0.0
 11
1310.252570571735
 21
336.3631124365302
 31
0.0
  0
ARC
  5
252
330
1B
100
AcDbEntity
  8
4
100
AcDbCircle
 10
1302.891354639568
 20
322.5839471390705
 30
0.0
 40
13.77916529745958
100
AcDbArc
 50
69.13593563608251
 51
110.8640643639175
  0
LINE
  5
253
330
1B
100
AcDbEntity
  8
4
100
AcDbLine
 10
1312.706309215791
 20
326.8631124365302
 30
0.0
 11
1293.076400063344
 21
326.8631124365302
 31
0.0
  0
LINE
  5
254
330
1B
100
AcDbEntity
  8
4
100
AcDbLine
 10
1312.706309215791
 20
335.4595854906779
 30
0.0
 11
1312.706309215791
 21
326.8631124365302
 31
0.0
  0
LINE
  5
255
330
1B
100
AcDbEntity
  8
4
100
AcDbLine
 10
1293.076400063344
 20
326.8631124365302
 30
0.0
 11
1293.076400063344
 21
335.4595854906779
 31
0.0
  0
ARC
  5
256
330
1B
100
AcDbEntity
  8
4
100
AcDbCircle
 10
991.5552219790625
 20
332.5794985074708
 30
0.0
 40
3.783613929059507
100
AcDbArc
 50
49.57010315518443
 51
130.4298968448315
  0
LINE
  5
257
330
1B
100
AcDbEntity
  8
4
100
AcDbLine
 10
994.0089606231177
 20
326.8631124365302
 30
0.0
 11
994.0089606231177
 21
335.4595854906779
 31
0.0
  0
LINE
  5
258
330
1B
100
AcDbEntity
  8
4
100
AcDbLine
 10
989.1014833350064
 20
335.4595854906779
 30
0.0
 11
989.1014833350064
 21
329.3631124365302
 31
0.0
  0
ARC
  5
259
330
1B
100
AcDbEntity
  8
4
100
AcDbCircle
 10
976.8327901147268
 20
332.5794985074708
 30
0.0
 40
3.783613929059507
100
AcDbArc
 50
49.57010315516856
 51
130.4298968448315
  0
LINE
  5
25A
330
1B
100
AcDbEntity
  8
4
100
AcDbLine
 10
979.2865287587829
 20
335.4595854906779
 30
0.0
 11
979.2865287587829
 21
329.3631124365302
 31
0.0
  0
LINE
  5
25B
330
1B
100
AcDbEntity
  8
4
100
AcDbLine
 10
974.3790514706707
 20
335.4595854906779
 30
0.0
 11
974.3790514706707
 21
326.8631124365302
 31
0.0
  0
ARC
  5
25C
330
1B
100
AcDbEntity
  8
4
100
AcDbCircle
 10
984.1940060468942
 20
322.5839471390705
 30
0.0
 40
13.77916529745958
100
AcDbArc
 50
69.13593563607864
 51
110.8640643639214
  0
LINE
  5
25D
330
1B
100
AcDbEntity
  8
4
100
AcDbLine
 10
991.5552219790625
 20
336.3631124365302
 30
0.0
 11
976.8327901147268
 21
336.3631124365302
 31
0.0
  0
LINE
  5
25E
330
1B
100
AcDbEntity
  8
4
100
AcDbLine
 10
974.3790514706707
 20
326.8631124365302
 30
0.0
 11
994.0089606231177
 21
326.8631124365302
 31
0.0
  0
LINE
  5
25F
330
1B
100
AcDbEntity
  8
4
100
AcDbLine
 10
974.3790514706707
 20
329.3631124365302
 30
0.0
 11
994.0089606231177
 21
329.3631124365302
 31
0.0
  0
LINE
  5
260
330
1B
100
AcDbEntity
  8
L-CENTER
100
AcDbLine
 10
984.1940060468942
 20
297.372534683881
 30
0.0
 11
984.1940060468942
 21
339.2310906911102
 31
0.0
  0
ARC
  5
261
330
1B
100
AcDbEntity
  8
4
100
AcDbCircle
 10
472.7967109772562
 20
-1868.95887158752
 30
0.0
 40
2200.0
100
AcDbArc
 50
87.85913161081696
 51
89.4791410452443
  0
ARC
  5
262
330
1B
100
AcDbEntity
  8
4
100
AcDbCircle
 10
472.7967109772562
 20
-1868.95887158752
 30
0.0
 40
2200.0
100
AcDbArc
 50
92.65258786320159
 51
93.5316698076717
  0
LINE
  5
263
330
1B
100
AcDbEntity
  8
L-CENTER
100
AcDbLine
 10
564.795983652727
 20
297.3725346838808
 30
0.0
 11
564.795983652727
 21
339.23109069111
 31
0.0
  0
ARC
  5
264
330
1B
100
AcDbEntity
  8
4
100
AcDbCircle
 10
564.795983652727
 20
322.5839471390702
 30
0.0
 40
13.77916529745958
100
AcDbArc
 50
69.13593563607864
 51
110.8640643639214
  0
LINE
  5
265
330
1B
100
AcDbEntity
  8
4
100
AcDbLine
 10
569.7034609408392
 20
335.4595854906777
 30
0.0
 11
569.7034609408392
 21
329.3631124365299
 31
0.0
  0
LINE
  5
266
330
1B
100
AcDbEntity
  8
4
100
AcDbLine
 10
559.8885063646148
 20
335.4595854906777
 30
0.0
 11
559.8885063646148
 21
329.3631124365299
 31
0.0
  0
ARC
  5
267
330
1B
100
AcDbEntity
  8
4
100
AcDbCircle
 10
557.4347677205596
 20
332.5794985074706
 30
0.0
 40
3.783613929059507
100
AcDbArc
 50
49.57010315518443
 51
130.4298968448315
  0
LINE
  5
268
330
1B
100
AcDbEntity
  8
4
100
AcDbLine
 10
557.4347677205596
 20
336.3631124365299
 30
0.0
 11
572.1571995848944
 21
336.3631124365299
 31
0.0
  0
LINE
  5
269
330
1B
100
AcDbEntity
  8
4
100
AcDbLine
 10
574.6109382289505
 20
329.3631124365299
 30
0.0
 11
554.9810290765026
 21
329.3631124365299
 31
0.0
  0
ARC
  5
26A
330
1B
100
AcDbEntity
  8
4
100
AcDbCircle
 10
572.1571995848944
 20
332.5794985074706
 30
0.0
 40
3.783613929059507
100
AcDbArc
 50
49.57010315516856
 51
130.4298968448315
  0
LINE
  5
26B
330
1B
100
AcDbEntity
  8
4
100
AcDbLine
 10
574.6109382289505
 20
326.8631124365299
 30
0.0
 11
554.9810290765026
 21
326.8631124365299
 31
0.0
  0
LINE
  5
26C
330
1B
100
AcDbEntity
  8
4
100
AcDbLine
 10
574.6109382289505
 20
335.4595854906777
 30
0.0
 11
574.6109382289505
 21
326.8631124365299
 31
0.0
  0
LINE
  5
26D
330
1B
100
AcDbEntity
  8
4
100
AcDbLine
 10
554.9810290765026
 20
326.8631124365299
 30
0.0
 11
554.9810290765026
 21
335.4595854906777
 31
0.0
  0
LINE
  5
26E
330
1B
100
AcDbEntity
  8
L-CENTER
100
AcDbLine
 10
656.795983652727
 20
297.3725346838808
 30
0.0
 11
656.795983652727
 21
339.23109069111
 31
0.0
  0
ARC
  5
26F
330
1B
100
AcDbEntity
  8
4
100
AcDbCircle
 10
656.795983652727
 20
322.5839471390702
 30
0.0
 40
13.77916529745958
100
AcDbArc
 50
69.13593563607864
 51
110.8640643639214
  0
LINE
  5
270
330
1B
100
AcDbEntity
  8
4
100
AcDbLine
 10
661.7034609408392
 20
335.4595854906777
 30
0.0
 11
661.7034609408392
 21
329.3631124365299
 31
0.0
  0
LINE
  5
271
330
1B
100
AcDbEntity
  8
4
100
AcDbLine
 10
651.8885063646148
 20
335.4595854906777
 30
0.0
 11
651.8885063646148
 21
329.3631124365299
 31
0.0
  0
ARC
  5
272
330
1B
100
AcDbEntity
  8
4
100
AcDbCircle
 10
649.4347677205596
 20
332.5794985074706
 30
0.0
 40
3.783613929059507
100
AcDbArc
 50
49.57010315518443
 51
130.4298968448315
  0
LINE
  5
273
330
1B
100
AcDbEntity
  8
4
100
AcDbLine
 10
649.4347677205596
 20
336.3631124365299
 30
0.0
 11
664.1571995848944
 21
336.3631124365299
 31
0.0
  0
LINE
  5
274
330
1B
100
AcDbEntity
  8
4
100
AcDbLine
 10
666.6109382289505
 20
329.3631124365299
 30
0.0
 11
646.9810290765026
 21
329.3631124365299
 31
0.0
  0
ARC
  5
275
330
1B
100
AcDbEntity
  8
4
100
AcDbCircle
 10
664.1571995848944
 20
332.5794985074706
 30
0.0
 40
3.783613929059507
100
AcDbArc
 50
49.57010315516856
 51
130.4298968448315
  0
LINE
  5
276
330
1B
100
AcDbEntity
  8
4
100
AcDbLine
 10
666.6109382289505
 20
326.8631124365299
 30
0.0
 11
646.9810290765026
 21
326.8631124365299
 31
0.0
  0
LINE
  5
277
330
1B
100
AcDbEntity
  8
4
100
AcDbLine
 10
666.6109382289505
 20
335.4595854906777
 30
0.0
 11
666.6109382289505
 21
326.8631124365299
 31
0.0
  0
LINE
  5
278
330
1B
100
AcDbEntity
  8
4
100
AcDbLine
 10
646.9810290765026
 20
326.8631124365299
 30
0.0
 11
646.9810290765026
 21
335.4595854906777
 31
0.0
  0
ARC
  5
279
330
1B
100
AcDbEntity
  8
4
100
AcDbCircle
 10
388.1571995848954
 20
332.5794985074706
 30
0.0
 40
3.783613929059507
100
AcDbArc
 50
49.57010315516856
 51
130.4298968448156
  0
LINE
  5
27A
330
1B
100
AcDbEntity
  8
4
100
AcDbLine
 10
385.7034609408402
 20
335.4595854906777
 30
0.0
 11
385.7034609408402
 21
329.3631124365299
 31
0.0
  0
LINE
  5
27B
330
1B
100
AcDbEntity
  8
4
100
AcDbLine
 10
390.6109382289515
 20
326.8631124365299
 30
0.0
 11
390.6109382289515
 21
335.4595854906777
 31
0.0
  0
ARC
  5
27C
330
1B
100
AcDbEntity
  8
4
100
AcDbCircle
 10
373.4347677205606
 20
332.5794985074706
 30
0.0
 40
3.783613929059507
100
AcDbArc
 50
49.57010315516856
 51
130.4298968448315
  0
LINE
  5
27D
330
1B
100
AcDbEntity
  8
4
100
AcDbLine
 10
370.9810290765045
 20
335.4595854906777
 30
0.0
 11
370.9810290765045
 21
326.8631124365299
 31
0.0
  0
LINE
  5
27E
330
1B
100
AcDbEntity
  8
4
100
AcDbLine
 10
375.8885063646158
 20
335.4595854906777
 30
0.0
 11
375.8885063646158
 21
329.3631124365299
 31
0.0
  0
LINE
  5
27F
330
1B
100
AcDbEntity
  8
4
100
AcDbLine
 10
370.9810290765045
 20
329.3631124365299
 30
0.0
 11
390.6109382289515
 21
329.3631124365299
 31
0.0
  0
LINE
  5
280
330
1B
100
AcDbEntity
  8
4
100
AcDbLine
 10
370.9810290765045
 20
326.8631124365299
 30
0.0
 11
390.6109382289515
 21
326.8631124365299
 31
0.0
  0
LINE
  5
281
330
1B
100
AcDbEntity
  8
4
100
AcDbLine
 10
388.1571995848954
 20
336.3631124365299
 30
0.0
 11
373.4347677205606
 21
336.3631124365299
 31
0.0
  0
ARC
  5
282
330
1B
100
AcDbEntity
  8
4
100
AcDbCircle
 10
380.795983652728
 20
322.5839471390702
 30
0.0
 40
13.77916529745958
100
AcDbArc
 50
69.13593563608251
 51
110.8640643639214
  0
LINE
  5
283
330
1B
100
AcDbEntity
  8
L-CENTER
100
AcDbLine
 10
380.795983652728
 20
297.3725346838808
 30
0.0
 11
380.795983652728
 21
339.23109069111
 31
0.0
  0
ARC
  5
284
330
1B
100
AcDbEntity
  8
4
100
AcDbCircle
 10
296.1571995848963
 20
332.5794985074706
 30
0.0
 40
3.783613929059507
100
AcDbArc
 50
49.57010315518443
 51
130.4298968448315
  0
LINE
  5
285
330
1B
100
AcDbEntity
  8
4
100
AcDbLine
 10
293.7034609408402
 20
335.4595854906777
 30
0.0
 11
293.7034609408402
 21
329.3631124365299
 31
0.0
  0
LINE
  5
286
330
1B
100
AcDbEntity
  8
4
100
AcDbLine
 10
298.6109382289515
 20
326.8631124365299
 30
0.0
 11
298.6109382289515
 21
335.4595854906777
 31
0.0
  0
ARC
  5
287
330
1B
100
AcDbEntity
  8
4
100
AcDbCircle
 10
281.4347677205606
 20
332.5794985074706
 30
0.0
 40
3.783613929059507
100
AcDbArc
 50
49.57010315516856
 51
130.4298968448315
  0
LINE
  5
288
330
1B
100
AcDbEntity
  8
4
100
AcDbLine
 10
278.9810290765045
 20
335.4595854906777
 30
0.0
 11
278.9810290765045
 21
326.8631124365299
 31
0.0
  0
LINE
  5
289
330
1B
100
AcDbEntity
  8
4
100
AcDbLine
 10
283.8885063646167
 20
335.4595854906777
 30
0.0
 11
283.8885063646167
 21
329.3631124365299
 31
0.0
  0
LINE
  5
28A
330
1B
100
AcDbEntity
  8
4
100
AcDbLine
 10
278.9810290765045
 20
329.3631124365299
 30
0.0
 11
298.6109382289515
 21
329.3631124365299
 31
0.0
  0
LINE
  5
28B
330
1B
100
AcDbEntity
  8
4
100
AcDbLine
 10
278.9810290765045
 20
326.8631124365299
 30
0.0
 11
298.6109382289515
 21
326.8631124365299
 31
0.0
  0
LINE
  5
28C
330
1B
100
AcDbEntity
  8
4
100
AcDbLine
 10
296.1571995848963
 20
336.3631124365299
 30
0.0
 11
281.4347677205606
 21
336.3631124365299
 31
0.0
  0
ARC
  5
28D
330
1B
100
AcDbEntity
  8
4
100
AcDbCircle
 10
288.795983652728
 20
322.5839471390702
 30
0.0
 40
13.77916529745958
100
AcDbArc
 50
69.13593563607864
 51
110.8640643639214
  0
LINE
  5
28E
330
1B
100
AcDbEntity
  8
L-CENTER
100
AcDbLine
 10
288.795983652728
 20
297.3725346838808
 30
0.0
 11
288.795983652728
 21
339.23109069111
 31
0.0
  0
LINE
  5
28F
330
1B
100
AcDbEntity
  8
4
100
AcDbLine
 10
422.1724563281987
 20
798.2949865909327
 30
0.0
 11
422.1724563281987
 21
806.2949865909327
 31
0.0
  0
LINE
  5
290
330
1B
100
AcDbEntity
  8
4
100
AcDbLine
 10
422.1724563281987
 20
798.2949865909327
 30
0.0
 11
410.1724563281987
 21
798.2949865909327
 31
0.0
  0
LINE
  5
291
330
1B
100
AcDbEntity
  8
4
100
AcDbLine
 10
410.1724563281987
 20
798.2949865909327
 30
0.0
 11
410.1724563281987
 21
806.2949865909327
 31
0.0
  0
LINE
  5
292
330
1B
100
AcDbEntity
  8
4
100
AcDbLine
 10
410.1724563281987
 20
806.2949865909327
 30
0.0
 11
422.1724563281987
 21
806.2949865909327
 31
0.0
  0
ARC
  5
293
330
1B
100
AcDbEntity
  8
4
100
AcDbCircle
 10
416.1724563281987
 20
825.7949865909327
 30
0.0
 40
23.999948
100
AcDbArc
 50
284.4775440000007
 51
255.5224240000003
  0
LINE
  5
294
330
1B
100
AcDbEntity
  8
4
100
AcDbLine
 10
564.795983652728
 20
991.9586154634935
 30
0.0
 11
556.295983652728
 21
987.0511381753818
 31
0.0
  0
LINE
  5
295
330
1B
100
AcDbEntity
  8
4
100
AcDbLine
 10
573.295983652728
 20
987.0511381753818
 30
0.0
 11
564.795983652728
 21
991.9586154634935
 31
0.0
  0
LINE
  5
296
330
1B
100
AcDbEntity
  8
4
100
AcDbLine
 10
556.295983652728
 20
977.2361835991578
 30
0.0
 11
564.795983652728
 21
972.3287063110461
 31
0.0
  0
LINE
  5
297
330
1B
100
AcDbEntity
  8
4
100
AcDbLine
 10
564.795983652728
 20
972.3287063110461
 30
0.0
 11
573.295983652728
 21
977.2361835991578
 31
0.0
  0
CIRCLE
  5
298
330
1B
100
AcDbEntity
  8
4
100
AcDbCircle
 10
564.795983652728
 20
982.1436608872696
 30
0.0
 40
8.5
  0
LINE
  5
299
330
1B
100
AcDbEntity
  8
4
100
AcDbLine
 10
556.295983652728
 20
987.0511381753818
 30
0.0
 11
556.295983652728
 21
977.2361835991578
 31
0.0
  0
LINE
  5
29A
330
1B
100
AcDbEntity
  8
4
100
AcDbLine
 10
573.295983652728
 20
977.2361835991578
 30
0.0
 11
573.295983652728
 21
987.0511381753818
 31
0.0
  0
LINE
  5
29B
330
1B
100
AcDbEntity
  8
4
100
AcDbLine
 10
380.795983652728
 20
991.9586154634935
 30
0.0
 11
372.295983652728
 21
987.0511381753818
 31
0.0
  0
LINE
  5
29C
330
1B
100
AcDbEntity
  8
4
100
AcDbLine
 10
389.295983652728
 20
987.0511381753818
 30
0.0
 11
380.795983652728
 21
991.9586154634935
 31
0.0
  0
LINE
  5
29D
330
1B
100
AcDbEntity
  8
4
100
AcDbLine
 10
372.295983652728
 20
977.2361835991578
 30
0.0
 11
380.795983652728
 21
972.3287063110461
 31
0.0
  0
LINE
  5
29E
330
1B
100
AcDbEntity
  8
4
100
AcDbLine
 10
380.795983652728
 20
972.3287063110461
 30
0.0
 11
389.295983652728
 21
977.2361835991578
 31
0.0
  0
CIRCLE
  5
29F
330
1B
100
AcDbEntity
  8
4
100
AcDbCircle
 10
380.795983652728
 20
982.1436608872696
 30
0.0
 40
8.5
  0
LINE
  5
2A0
330
1B
100
AcDbEntity
  8
4
100
AcDbLine
 10
372.295983652728
 20
987.0511381753818
 30
0.0
 11
372.295983652728
 21
977.2361835991578
 31
0.0
  0
LINE
  5
2A1
330
1B
100
AcDbEntity
  8
4
100
AcDbLine
 10
389.295983652728
 20
977.2361835991578
 30
0.0
 11
389.295983652728
 21
987.0511381753818
 31
0.0
  0
LINE
  5
2A2
330
1B
100
AcDbEntity
  8
4
100
AcDbLine
 10
656.795983652728
 20
832.6099411671569
 30
0.0
 11
648.295983652728
 21
827.7024638790451
 31
0.0
  0
LINE
  5
2A3
330
1B
100
AcDbEntity
  8
4
100
AcDbLine
 10
665.295983652728
 20
827.7024638790451
 30
0.0
 11
656.795983652728
 21
832.6099411671569
 31
0.0
  0
LINE
  5
2A4
330
1B
100
AcDbEntity
  8
4
100
AcDbLine
 10
648.295983652728
 20
817.8875093028212
 30
0.0
 11
656.795983652728
 21
812.9800320147094
 31
0.0
  0
LINE
  5
2A5
330
1B
100
AcDbEntity
  8
4
100
AcDbLine
 10
656.795983652728
 20
812.9800320147094
 30
0.0
 11
665.295983652728
 21
817.8875093028212
 31
0.0
  0
CIRCLE
  5
2A6
330
1B
100
AcDbEntity
  8
4
100
AcDbCircle
 10
656.795983652728
 20
822.7949865909329
 30
0.0
 40
8.5
  0
LINE
  5
2A7
330
1B
100
AcDbEntity
  8
4
100
AcDbLine
 10
648.295983652728
 20
827.7024638790451
 30
0.0
 11
648.295983652728
 21
817.8875093028212
 31
0.0
  0
LINE
  5
2A8
330
1B
100
AcDbEntity
  8
4
100
AcDbLine
 10
665.295983652728
 20
817.8875093028212
 30
0.0
 11
665.295983652728
 21
827.7024638790451
 31
0.0
  0
LINE
  5
2A9
330
1B
100
AcDbEntity
  8
4
100
AcDbLine
 10
564.795983652728
 20
673.26126687082
 30
0.0
 11
556.295983652728
 21
668.3537895827083
 31
0.0
  0
LINE
  5
2AA
330
1B
100
AcDbEntity
  8
4
100
AcDbLine
 10
573.295983652728
 20
668.3537895827083
 30
0.0
 11
564.795983652728
 21
673.26126687082
 31
0.0
  0
LINE
  5
2AB
330
1B
100
AcDbEntity
  8
4
100
AcDbLine
 10
556.295983652728
 20
658.5388350064843
 30
0.0
 11
564.795983652728
 21
653.6313577183726
 31
0.0
  0
LINE
  5
2AC
330
1B
100
AcDbEntity
  8
4
100
AcDbLine
 10
564.795983652728
 20
653.6313577183726
 30
0.0
 11
573.295983652728
 21
658.5388350064843
 31
0.0
  0
CIRCLE
  5
2AD
330
1B
100
AcDbEntity
  8
4
100
AcDbCircle
 10
564.795983652728
 20
663.446312294596
 30
0.0
 40
8.5
  0
LINE
  5
2AE
330
1B
100
AcDbEntity
  8
4
100
AcDbLine
 10
556.295983652728
 20
668.3537895827083
 30
0.0
 11
556.295983652728
 21
658.5388350064843
 31
0.0
  0
LINE
  5
2AF
330
1B
100
AcDbEntity
  8
4
100
AcDbLine
 10
573.295983652728
 20
658.5388350064843
 30
0.0
 11
573.295983652728
 21
668.3537895827083
 31
0.0
  0
LINE
  5
2B0
330
1B
100
AcDbEntity
  8
4
100
AcDbLine
 10
380.795983652728
 20
673.2612668708202
 30
0.0
 11
372.295983652728
 21
668.3537895827085
 31
0.0
  0
LINE
  5
2B1
330
1B
100
AcDbEntity
  8
4
100
AcDbLine
 10
389.295983652728
 20
668.3537895827085
 30
0.0
 11
380.795983652728
 21
673.2612668708202
 31
0.0
  0
LINE
  5
2B2
330
1B
100
AcDbEntity
  8
4
100
AcDbLine
 10
372.295983652728
 20
658.5388350064845
 30
0.0
 11
380.795983652728
 21
653.6313577183728
 31
0.0
  0
LINE
  5
2B3
330
1B
100
AcDbEntity
  8
4
100
AcDbLine
 10
380.795983652728
 20
653.6313577183728
 30
0.0
 11
389.295983652728
 21
658.5388350064845
 31
0.0
  0
CIRCLE
  5
2B4
330
1B
100
AcDbEntity
  8
4
100
AcDbCircle
 10
380.795983652728
 20
663.4463122945963
 30
0.0
 40
8.5
  0
LINE
  5
2B5
330
1B
100
AcDbEntity
  8
4
100
AcDbLine
 10
372.295983652728
 20
668.3537895827085
 30
0.0
 11
372.295983652728
 21
658.5388350064845
 31
0.0
  0
LINE
  5
2B6
330
1B
100
AcDbEntity
  8
4
100
AcDbLine
 10
389.295983652728
 20
658.5388350064845
 30
0.0
 11
389.295983652728
 21
668.3537895827085
 31
0.0
  0
LINE
  5
2B7
330
1B
100
AcDbEntity
  8
4
100
AcDbLine
 10
288.795983652728
 20
832.6099411671569
 30
0.0
 11
280.295983652728
 21
827.7024638790451
 31
0.0
  0
LINE
  5
2B8
330
1B
100
AcDbEntity
  8
4
100
AcDbLine
 10
297.295983652728
 20
827.7024638790451
 30
0.0
 11
288.795983652728
 21
832.6099411671569
 31
0.0
  0
LINE
  5
2B9
330
1B
100
AcDbEntity
  8
4
100
AcDbLine
 10
280.295983652728
 20
817.8875093028212
 30
0.0
 11
288.795983652728
 21
812.9800320147094
 31
0.0
  0
LINE
  5
2BA
330
1B
100
AcDbEntity
  8
4
100
AcDbLine
 10
288.795983652728
 20
812.9800320147094
 30
0.0
 11
297.295983652728
 21
817.8875093028212
 31
0.0
  0
CIRCLE
  5
2BB
330
1B
100
AcDbEntity
  8
4
100
AcDbCircle
 10
288.795983652728
 20
822.7949865909329
 30
0.0
 40
8.5
  0
LINE
  5
2BC
330
1B
100
AcDbEntity
  8
4
100
AcDbLine
 10
280.295983652728
 20
827.7024638790451
 30
0.0
 11
280.295983652728
 21
817.8875093028212
 31
0.0
  0
LINE
  5
2BD
330
1B
100
AcDbEntity
  8
4
100
AcDbLine
 10
297.295983652728
 20
817.8875093028212
 30
0.0
 11
297.295983652728
 21
827.7024638790451
 31
0.0
  0
LINE
  5
2BE
330
1B
100
AcDbEntity
  8
4
100
AcDbLine
 10
459.8056025959604
 20
1041.294986590933
 30
0.0
 11
459.8056025959604
 21
1036.294986590933
 31
0.0
  0
LINE
  5
2BF
330
1B
100
AcDbEntity
  8
4
100
AcDbLine
 10
458.795983652727
 20
1034.294986590933
 30
0.0
 11
458.795983652727
 21
1032.794986590933
 31
0.0
  0
LINE
  5
2C0
330
1B
100
AcDbEntity
  8
4
100
AcDbLine
 10
457.795983652727
 20
1036.294986590933
 30
0.0
 11
457.795983652727
 21
1034.294986590933
 31
0.0
  0
LINE
  5
2C1
330
1B
100
AcDbEntity
  8
4
100
AcDbLine
 10
485.7863647094937
 20
1041.294986590933
 30
0.0
 11
485.7863647094937
 21
1036.294986590933
 31
0.0
  0
LINE
  5
2C2
330
1B
100
AcDbEntity
  8
4
100
AcDbLine
 10
486.795983652727
 20
1034.294986590933
 30
0.0
 11
486.795983652727
 21
1032.794986590933
 31
0.0
  0
LINE
  5
2C3
330
1B
100
AcDbEntity
  8
4
100
AcDbLine
 10
487.795983652727
 20
1034.294986590933
 30
0.0
 11
487.795983652727
 21
1036.294986590933
 31
0.0
  0
LINE
  5
2C4
330
1B
100
AcDbEntity
  8
4
100
AcDbLine
 10
487.795983652727
 20
1034.294986590933
 30
0.0
 11
457.795983652727
 21
1034.294986590933
 31
0.0
  0
LINE
  5
2C5
330
1B
100
AcDbEntity
  8
4
100
AcDbLine
 10
487.795983652727
 20
1036.294986590933
 30
0.0
 11
457.795983652727
 21
1036.294986590933
 31
0.0
  0
LINE
  5
2C6
330
1B
100
AcDbEntity
  8
4
100
AcDbLine
 10
486.795983652727
 20
1032.794986590933
 30
0.0
 11
458.795983652727
 21
1032.794986590933
 31
0.0
  0
LINE
  5
2C7
330
1B
100
AcDbEntity
  8
4
100
AcDbLine
 10
485.7863647094937
 20
1041.294986590933
 30
0.0
 11
459.8056025959604
 21
1041.294986590933
 31
0.0
  0
ARC
  5
2C8
330
1B
100
AcDbEntity
  8
4
100
AcDbCircle
 10
472.795983652728
 20
972.7949865909329
 30
0.0
 40
15.0
100
AcDbArc
 50
195.4660099534206
 51
344.5339900465794
  0
ARC
  5
2C9
330
1B
100
AcDbEntity
  8
4
100
AcDbCircle
 10
472.795983652728
 20
672.7949865909329
 30
0.0
 40
15.0
100
AcDbArc
 50
15.46600995342057
 51
164.5339900465794
  0
ARC
  5
2CA
330
1B
100
AcDbEntity
  8
4
100
AcDbCircle
 10
472.795983652727
 20
972.7949865909329
 30
0.0
 40
10.0
100
AcDbArc
 50
23.57817847820185
 51
156.4218215217982
  0
ARC
  5
2CB
330
1B
100
AcDbEntity
  8
4
100
AcDbCircle
 10
472.795983652727
 20
972.7949865909329
 30
0.0
 40
9.0
100
AcDbArc
 50
26.38779996123984
 51
153.6122000387553
  0
LINE
  5
2CC
330
1B
100
AcDbEntity
  8
4
100
AcDbLine
 10
456.295983652727
 20
976.7949865909329
 30
0.0
 11
489.295983652727
 21
976.7949865909329
 31
0.0
  0
ARC
  5
2CD
330
1B
100
AcDbEntity
  8
4
100
AcDbCircle
 10
472.795983652727
 20
972.7949865909329
 30
0.0
 40
9.0
100
AcDbArc
 50
206.3877999612447
 51
333.6122000387602
  0
ARC
  5
2CE
330
1B
100
AcDbEntity
  8
4
100
AcDbCircle
 10
472.795983652727
 20
972.7949865909329
 30
0.0
 40
10.0
100
AcDbArc
 50
203.5781784782018
 51
336.4218215217981
  0
LINE
  5
2CF
330
1B
100
AcDbEntity
  8
4
100
AcDbLine
 10
456.295983652727
 20
968.7949865909329
 30
0.0
 11
489.295983652727
 21
968.7949865909329
 31
0.0
  0
ARC
  5
2D0
330
1B
100
AcDbEntity
  8
4
100
AcDbCircle
 10
456.295983652727
 20
972.7949865909329
 30
0.0
 40
4.0
100
AcDbArc
 50
90.0
 51
270.0
  0
ARC
  5
2D1
330
1B
100
AcDbEntity
  8
4
100
AcDbCircle
 10
489.295983652727
 20
972.7949865909329
 30
0.0
 40
4.0
100
AcDbArc
 50
270.0
 51
90.0
  0
ARC
  5
2D2
330
1B
100
AcDbEntity
  8
4
100
AcDbCircle
 10
489.295983652727
 20
672.7949865909329
 30
0.0
 40
4.0
100
AcDbArc
 50
270.0
 51
90.0
  0
ARC
  5
2D3
330
1B
100
AcDbEntity
  8
4
100
AcDbCircle
 10
456.295983652727
 20
672.7949865909329
 30
0.0
 40
4.0
100
AcDbArc
 50
90.0
 51
270.0
  0
LINE
  5
2D4
330
1B
100
AcDbEntity
  8
4
100
AcDbLine
 10
456.295983652727
 20
668.7949865909329
 30
0.0
 11
489.295983652727
 21
668.7949865909329
 31
0.0
  0
LINE
  5
2D5
330
1B
100
AcDbEntity
  8
4
100
AcDbLine
 10
456.295983652727
 20
676.7949865909329
 30
0.0
 11
489.295983652727
 21
676.7949865909329
 31
0.0
  0
ARC
  5
2D6
330
1B
100
AcDbEntity
  8
4
100
AcDbCircle
 10
472.795983652727
 20
672.7949865909329
 30
0.0
 40
10.0
100
AcDbArc
 50
203.5781784782018
 51
336.4218215217981
  0
ARC
  5
2D7
330
1B
100
AcDbEntity
  8
4
100
AcDbCircle
 10
472.795983652727
 20
672.7949865909329
 30
0.0
 40
9.0
100
AcDbArc
 50
206.3877999612447
 51
333.6122000387602
  0
ARC
  5
2D8
330
1B
100
AcDbEntity
  8
4
100
AcDbCircle
 10
472.795983652727
 20
672.7949865909329
 30
0.0
 40
9.0
100
AcDbArc
 50
26.38779996123984
 51
153.6122000387553
  0
ARC
  5
2D9
330
1B
100
AcDbEntity
  8
4
100
AcDbCircle
 10
472.795983652727
 20
672.7949865909329
 30
0.0
 40
10.0
100
AcDbArc
 50
23.57817847820185
 51
156.4218215217982
  0
CIRCLE
  5
2DA
330
1B
100
AcDbEntity
  8
4
100
AcDbCircle
 10
1259.542925343232
 20
217.9631124365302
 30
0.0
 40
36.0
  0
LINE
  5
2DB
330
1B
100
AcDbEntity
  8
4
100
AcDbLine
 10
255.7959836527289
 20
974.7949865909329
 30
0.0
 11
256.7959836527289
 21
974.7949865909329
 31
0.0
  0
LINE
  5
2DC
330
1B
100
AcDbEntity
  8
4
100
AcDbLine
 10
255.7959836527289
 20
902.7949865909329
 30
0.0
 11
256.7959836527289
 21
902.7949865909329
 31
0.0
  0
LINE
  5
2DD
330
1B
100
AcDbEntity
  8
4
100
AcDbLine
 10
255.7959836527289
 20
974.7949865909329
 30
0.0
 11
255.7959836527289
 21
902.7949865909329
 31
0.0
  0
LINE
  5
2DE
330
1B
100
AcDbEntity
  8
4
100
AcDbLine
 10
688.7959836527289
 20
974.7949865909329
 30
0.0
 11
689.7959836527289
 21
974.7949865909329
 31
0.0
  0
LINE
  5
2DF
330
1B
100
AcDbEntity
  8
4
100
AcDbLine
 10
688.7959836527289
 20
902.7949865909331
 30
0.0
 11
689.7959836527289
 21
902.7949865909331
 31
0.0
  0
LINE
  5
2E0
330
1B
100
AcDbEntity
  8
4
100
AcDbLine
 10
689.7959836527289
 20
974.7949865909329
 30
0.0
 11
689.7959836527289
 21
902.7949865909331
 31
0.0
  0
LINE
  5
2E1
330
1B
100
AcDbEntity
  8
4
100
AcDbLine
 10
688.7959836527289
 20
253.9631124365302
 30
0.0
 11
689.7959836527289
 21
253.9631124365302
 31
0.0
  0
LINE
  5
2E2
330
1B
100
AcDbEntity
  8
4
100
AcDbLine
 10
688.7959836527289
 20
181.9631124365303
 30
0.0
 11
689.7959836527289
 21
181.9631124365303
 31
0.0
  0
LINE
  5
2E3
330
1B
100
AcDbEntity
  8
4
100
AcDbLine
 10
255.7959836527289
 20
253.9631124365302
 30
0.0
 11
255.7959836527289
 21
181.9631124365302
 31
0.0
  0
LINE
  5
2E4
330
1B
100
AcDbEntity
  8
4
100
AcDbLine
 10
689.7959836527289
 20
253.9631124365302
 30
0.0
 11
689.7959836527289
 21
181.9631124365303
 31
0.0
  0
LINE
  5
2E5
330
1B
100
AcDbEntity
  8
4
100
AcDbLine
 10
255.7959836527289
 20
181.9631124365302
 30
0.0
 11
256.7959836527289
 21
181.9631124365302
 31
0.0
  0
LINE
  5
2E6
330
1B
100
AcDbEntity
  8
4
100
AcDbLine
 10
255.7959836527289
 20
253.9631124365302
 30
0.0
 11
256.7959836527289
 21
253.9631124365302
 31
0.0
  0
LINE
  5
2F8
330
1B
100
AcDbEntity
  8
L-CENTER
100
AcDbLine
 10
557.295983652727
 20
969.1532798305032
 30
0.0
 11
572.295983652728
 21
995.1340419440355
 31
0.0
  0
ARC
  5
2F9
330
1B
100
AcDbEntity
  8
4
100
AcDbCircle
 10
472.795983652728
 20
972.7949865909329
 30
0.0
 40
15.0
100
AcDbArc
 50
15.46600995342057
 51
164.5339900465794
  0
LINE
  5
2FA
330
1B
100
AcDbEntity
  8
L-CENTER
100
AcDbLine
 10
447.795983652728
 20
972.7949865909329
 30
0.0
 11
497.795983652728
 21
972.7949865909329
 31
0.0
  0
LINE
  5
2FB
330
1B
100
AcDbEntity
  8
L-CENTER
100
AcDbLine
 10
388.295983652728
 20
969.1532798305032
 30
0.0
 11
373.295983652728
 21
995.134041944036
 31
0.0
  0
LINE
  5
2FC
330
1B
100
AcDbEntity
  8
L-CENTER
100
AcDbLine
 10
557.295983652727
 20
676.4366933513627
 30
0.0
 11
572.295983652728
 21
650.4559312378294
 31
0.0
  0
LINE
  5
2FD
330
1B
100
AcDbEntity
  8
L-CENTER
100
AcDbLine
 10
548.795983652728
 20
743.6520396938065
 30
0.0
 11
548.795983652728
 21
887.9379334880593
 31
0.0
  0
ARC
  5
2FE
330
1B
100
AcDbEntity
  8
4
100
AcDbCircle
 10
491.7829345274495
 20
851.9303187388261
 30
0.0
 40
10.0
100
AcDbArc
 50
199.0680947467458
 51
327.6331461238568
  0
ARC
  5
2FF
330
1B
100
AcDbEntity
  8
4
100
AcDbCircle
 10
487.0090471180492
 20
788.617340010341
 30
0.0
 40
10.0
100
AcDbArc
 50
23.74280850944686
 51
152.3078598865559
  0
ARC
  5
300
330
1B
100
AcDbEntity
  8
4
100
AcDbCircle
 10
416.1724563281996
 20
825.7949865909329
 30
0.0
 40
70.0
100
AcDbArc
 50
19.06809474674507
 51
332.3078598865563
  0
CIRCLE
  5
301
330
1B
100
AcDbEntity
  8
4
100
AcDbCircle
 10
416.1724563281996
 20
825.7949865909329
 30
0.0
 40
45.0
  0
ARC
  5
302
330
1B
100
AcDbEntity
  8
4
100
AcDbCircle
 10
472.795983652728
 20
467.7949865909329
 30
0.0
 40
450.0
100
AcDbArc
 50
92.5463341452406
 51
110.315767002475
  0
LINE
  5
303
330
1B
100
AcDbEntity
  8
L-CENTER
100
AcDbLine
 10
333.4283302154781
 20
825.7949865909329
 30
0.0
 11
498.9165824409192
 21
825.7949865909329
 31
0.0
  0
LINE
  5
304
330
1B
100
AcDbEntity
  8
L-CENTER
100
AcDbLine
 10
447.795983652727
 20
672.7949865909329
 30
0.0
 11
497.795983652727
 21
672.7949865909329
 31
0.0
  0
ARC
  5
305
330
1B
100
AcDbEntity
  8
4
100
AcDbCircle
 10
472.795983652728
 20
672.7949865909329
 30
0.0
 40
15.0
100
AcDbArc
 50
195.4660099534206
 51
344.5339900465794
  0
LINE
  5
306
330
1B
100
AcDbEntity
  8
L-CENTER
100
AcDbLine
 10
388.295983652728
 20
676.4366933513627
 30
0.0
 11
373.295983652728
 21
650.4559312378294
 31
0.0
  0
LINE
  5
307
330
1B
100
AcDbEntity
  8
L-CENTER
100
AcDbLine
 10
416.1724563281987
 20
743.0508604782124
 30
0.0
 11
416.1724563281987
 21
908.5391127036535
 31
0.0
  0
ARC
  5
308
330
1B
100
AcDbEntity
  8
4
100
AcDbCircle
 10
472.795983652728
 20
1183.794986590933
 30
0.0
 40
450.0
100
AcDbArc
 50
272.5463341452405
 51
290.702377440559
  0
ARC
  5
309
330
1B
100
AcDbEntity
  8
4
100
AcDbCircle
 10
472.795983652728
 20
1183.794986590933
 30
0.0
 40
450.0
100
AcDbArc
 50
249.2976225594409
 51
267.4536658547594
  0
ARC
  5
30A
330
1B
100
AcDbEntity
  8
4
100
AcDbCircle
 10
472.795983652728
 20
467.7949865909329
 30
0.0
 40
450.0
100
AcDbArc
 50
69.684232997525
 51
87.4536658547595
  0
ARC
  5
30B
330
1B
100
AcDbEntity
  8
4
100
AcDbCircle
 10
548.795983652728
 20
815.7949865909329
 30
0.0
 40
57.5
100
AcDbArc
 50
203.7428085094463
 51
147.6331461238545
  0
CIRCLE
  5
30C
330
1B
100
AcDbEntity
  8
4
100
AcDbCircle
 10
548.795983652728
 20
815.7949865909329
 30
0.0
 40
36.0
  0
LINE
  5
30D
330
1B
100
AcDbEntity
  8
L-CENTER
100
AcDbLine
 10
476.6530367556015
 20
815.7949865909329
 30
0.0
 11
620.9389305498544
 21
815.7949865909329
 31
0.0
  0
CIRCLE
  5
30E
330
1B
100
AcDbEntity
  8
L-CENTER
100
AcDbCircle
 10
472.795983652728
 20
822.7949865909329
 30
0.0
 40
184.0
  0
CIRCLE
  5
30F
330
1B
100
AcDbEntity
  8
4
100
AcDbCircle
 10
472.795983652728
 20
822.7949865909329
 30
0.0
 40
170.0
  0
CIRCLE
  5
310
330
1B
100
AcDbEntity
  8
4
100
AcDbCircle
 10
472.795983652728
 20
822.7949865909329
 30
0.0
 40
194.0
  0
CIRCLE
  5
311
330
1B
100
AcDbEntity
  8
4
100
AcDbCircle
 10
472.795983652728
 20
916.7949865909329
 30
0.0
 40
20.0
  0
LINE
  5
312
330
1B
100
AcDbEntity
  8
L-CENTER
100
AcDbLine
 10
601.6358659392654
 20
1010.794986590933
 30
0.0
 11
643.9561013661887
 21
1010.794986590933
 31
0.0
  0
ARC
  5
313
330
1B
100
AcDbEntity
  8
4
 48
3.0
100
AcDbCircle
 10
652.795983652727
 20
1030.794986590933
 30
0.0
 40
5.0
100
AcDbArc
 50
0.0
 51
90.0
  0
LINE
  5
314
330
1B
100
AcDbEntity
  8
4
 48
3.0
100
AcDbLine
 10
688.795983652727
 20
986.7949865909327
 30
0.0
 11
627.5215471514584
 21
986.7949865909329
 31
0.0
  0
CIRCLE
  5
315
330
1B
100
AcDbEntity
  8
4
100
AcDbCircle
 10
622.795983652727
 20
1010.794986590933
 30
0.0
 40
9.0
  0
LINE
  5
316
330
1B
100
AcDbEntity
  8
L-CENTER
100
AcDbLine
 10
622.795983652727
 20
989.6348688774713
 30
0.0
 11
622.795983652727
 21
1031.955104304395
 31
0.0
  0
LINE
  5
317
330
1B
100
AcDbEntity
  8
4
 48
3.0
100
AcDbLine
 10
657.795983652727
 20
986.7949865909327
 30
0.0
 11
657.795983652727
 21
1030.794986590933
 31
0.0
  0
ARC
  5
318
330
1B
100
AcDbEntity
  8
4
100
AcDbCircle
 10
571.4194459269647
 20
1030.794986590933
 30
0.0
 40
5.0
100
AcDbArc
 50
90.0
 51
145.3713148162289
  0
LINE
  5
319
330
1B
100
AcDbEntity
  8
4
100
AcDbLine
 10
567.3051860574533
 20
1033.636265480118
 30
0.0
 11
552.795983652727
 21
1012.62649082561
 31
0.0
  0
LINE
  5
31A
330
1B
100
AcDbEntity
  8
4
 48
3.0
100
AcDbLine
 10
490.795983652727
 20
1028.007072005023
 30
0.0
 11
490.795983652727
 21
1032.794986590933
 31
0.0
  0
LINE
  5
31B
330
1B
100
AcDbEntity
  8
4
 48
3.0
100
AcDbLine
 10
652.795983652727
 20
1035.794986590933
 30
0.0
 11
571.4194459269647
 21
1035.794986590933
 31
0.0
  0
ARC
  5
31C
330
1B
100
AcDbEntity
  8
4
100
AcDbCircle
 10
627.5215471514593
 20
1086.794986590933
 30
0.0
 40
100.0
100
AcDbArc
 50
239.6262138001621
 51
269.9999999999995
  0
LINE
  5
31D
330
1B
100
AcDbEntity
  8
4
 48
3.0
100
AcDbLine
 10
454.795983652727
 20
1028.007072005023
 30
0.0
 11
454.795983652727
 21
1032.794986590933
 31
0.0
  0
ARC
  5
31E
330
1B
100
AcDbEntity
  8
4
100
AcDbCircle
 10
374.1725213784894
 20
1030.794986590933
 30
0.0
 40
5.0
100
AcDbArc
 50
34.62868518377109
 51
90.0
  0
LINE
  5
31F
330
1B
100
AcDbEntity
  8
4
100
AcDbLine
 10
378.2867812480008
 20
1033.636265480118
 30
0.0
 11
392.795983652727
 21
1012.626490825609
 31
0.0
  0
LINE
  5
320
330
1B
100
AcDbEntity
  8
L-CENTER
100
AcDbLine
 10
343.9561013661887
 20
1010.794986590933
 30
0.0
 11
301.6358659392654
 21
1010.794986590933
 31
0.0
  0
ARC
  5
321
330
1B
100
AcDbEntity
  8
4
 48
3.0
100
AcDbCircle
 10
292.795983652727
 20
1030.794986590933
 30
0.0
 40
5.0
100
AcDbArc
 50
90.0
 51
180.0
  0
LINE
  5
322
330
1B
100
AcDbEntity
  8
4
 48
3.0
100
AcDbLine
 10
256.795983652728
 20
986.7949865909327
 30
0.0
 11
318.0704201539966
 21
986.7949865909329
 31
0.0
  0
LINE
  5
323
330
1B
100
AcDbEntity
  8
L-CENTER
100
AcDbLine
 10
322.795983652727
 20
989.6348688774713
 30
0.0
 11
322.795983652727
 21
1031.955104304395
 31
0.0
  0
CIRCLE
  5
324
330
1B
100
AcDbEntity
  8
4
100
AcDbCircle
 10
322.795983652727
 20
1010.794986590933
 30
0.0
 40
9.0
  0
LINE
  5
325
330
1B
100
AcDbEntity
  8
4
 48
3.0
100
AcDbLine
 10
287.795983652727
 20
986.7949865909327
 30
0.0
 11
287.795983652727
 21
1030.794986590933
 31
0.0
  0
LINE
  5
326
330
1B
100
AcDbEntity
  8
4
 48
3.0
100
AcDbLine
 10
374.1725213784894
 20
1035.794986590933
 30
0.0
 11
292.795983652727
 21
1035.794986590933
 31
0.0
  0
ARC
  5
327
330
1B
100
AcDbEntity
  8
4
100
AcDbCircle
 10
318.0704201539966
 20
1086.794986590933
 30
0.0
 40
100.0
100
AcDbArc
 50
270.0
 51
300.3737861998379
  0
LINE
  5
328
330
1B
100
AcDbEntity
  8
L-CENTER
100
AcDbLine
 10
695.1613083762057
 20
938.7949865909329
 30
0.0
 11
176.3528575359933
 21
938.7949865909329
 31
0.0
  0
LINE
  5
329
330
1B
100
AcDbEntity
  8
4
100
AcDbLine
 10
454.795983652727
 20
1031.794986590933
 30
0.0
 11
490.795983652728
 21
1031.794986590933
 31
0.0
  0
LINE
  5
32A
330
1B
100
AcDbEntity
  8
4
100
AcDbLine
 10
454.795983652727
 20
1032.794986590933
 30
0.0
 11
490.795983652728
 21
1032.794986590933
 31
0.0
  0
LINE
  5
32B
330
1B
100
AcDbEntity
  8
4
 48
3.0
100
AcDbLine
 10
688.795983652728
 20
890.7949865909329
 30
0.0
 11
667.2490628260848
 21
890.7949865909329
 31
0.0
  0
LINE
  5
32C
330
1B
100
AcDbEntity
  8
4
100
AcDbLine
 10
678.795983652727
 20
822.7949865909329
 30
0.0
 11
678.795983652727
 21
890.7949865909329
 31
0.0
  0
ARC
  5
32D
330
1B
100
AcDbEntity
  8
4
 48
3.0
100
AcDbCircle
 10
657.2841888034918
 20
720.3981987494692
 30
0.0
 40
5.0
100
AcDbArc
 50
150.9683401659446
 51
251.878948583459
  0
LINE
  5
32E
330
1B
100
AcDbEntity
  8
L-CENTER
100
AcDbLine
 10
601.6358659392654
 20
640.7949865909329
 30
0.0
 11
643.9561013661887
 21
640.7949865909329
 31
0.0
  0
ARC
  5
32F
330
1B
100
AcDbEntity
  8
4
 48
3.0
100
AcDbCircle
 10
654.795983652727
 20
712.7949865909329
 30
0.0
 40
3.0
100
AcDbArc
 50
0.0
 51
71.87894858346628
  0
ARC
  5
330
330
1B
100
AcDbEntity
  8
4
 48
3.0
100
AcDbCircle
 10
652.795983652727
 20
620.7949865909329
 30
0.0
 40
5.0
100
AcDbArc
 50
270.0
 51
0.0
  0
LINE
  5
331
330
1B
100
AcDbEntity
  8
4
 48
3.0
100
AcDbLine
 10
657.795983652727
 20
620.7949865909329
 30
0.0
 11
657.795983652727
 21
712.7949865909329
 31
0.0
  0
LINE
  5
332
330
1B
100
AcDbEntity
  8
L-CENTER
 48
2.5
100
AcDbLine
 10
622.795983652727
 20
619.6348688774713
 30
0.0
 11
622.795983652727
 21
661.9551043043946
 31
0.0
  0
CIRCLE
  5
333
330
1B
100
AcDbEntity
  8
4
100
AcDbCircle
 10
622.795983652727
 20
640.7949865909329
 30
0.0
 40
9.0
  0
ARC
  5
334
330
1B
100
AcDbEntity
  8
4
 48
3.0
100
AcDbCircle
 10
570.9709609789215
 20
620.7949865909327
 30
0.0
 40
5.0
100
AcDbArc
 50
222.9823565136665
 51
270.0
  0
LINE
  5
335
330
1B
100
AcDbEntity
  8
4
100
AcDbLine
 10
567.3131425818201
 20
617.3861210063401
 30
0.0
 11
552.795983652728
 21
632.9634823562565
 31
0.0
  0
LINE
  5
336
330
1B
100
AcDbEntity
  8
4
 48
3.0
100
AcDbLine
 10
652.795983652727
 20
615.7949865909329
 30
0.0
 11
570.9709609789215
 21
615.7949865909327
 31
0.0
  0
LINE
  5
337
330
1B
100
AcDbEntity
  8
4
 48
3.0
100
AcDbLine
 10
256.795983652727
 20
890.7949865909327
 30
0.0
 11
278.3429044793702
 21
890.7949865909329
 31
0.0
  0
LINE
  5
338
330
1B
100
AcDbEntity
  8
4
100
AcDbLine
 10
266.795983652727
 20
822.7949865909329
 30
0.0
 11
266.795983652728
 21
890.7949865909329
 31
0.0
  0
ARC
  5
339
330
1B
100
AcDbEntity
  8
4
100
AcDbCircle
 10
374.6210063265326
 20
620.7949865909325
 30
0.0
 40
5.0
100
AcDbArc
 50
270.0
 51
317.0176434863335
  0
LINE
  5
33A
330
1B
100
AcDbEntity
  8
4
100
AcDbLine
 10
378.278824723634
 20
617.3861210063399
 30
0.0
 11
392.795983652727
 21
632.9634823562565
 31
0.0
  0
ARC
  5
33B
330
1B
100
AcDbEntity
  8
4
 48
3.0
100
AcDbCircle
 10
290.795983652727
 20
712.7949865909325
 30
0.0
 40
3.0
100
AcDbArc
 50
108.1210514165159
 51
180.0
  0
ARC
  5
33C
330
1B
100
AcDbEntity
  8
4
100
AcDbCircle
 10
288.3077785019641
 20
720.3981987494687
 30
0.0
 40
5.0
100
AcDbArc
 50
288.1210514165303
 51
29.03165983405803
  0
LINE
  5
33D
330
1B
100
AcDbEntity
  8
L-CENTER
100
AcDbLine
 10
343.9561013661887
 20
640.7949865909329
 30
0.0
 11
301.6358659392654
 21
640.7949865909329
 31
0.0
  0
ARC
  5
33E
330
1B
100
AcDbEntity
  8
4
 48
3.0
100
AcDbCircle
 10
292.795983652727
 20
620.7949865909325
 30
0.0
 40
5.0
100
AcDbArc
 50
180.0
 51
270.0
  0
LINE
  5
33F
330
1B
100
AcDbEntity
  8
4
 48
3.0
100
AcDbLine
 10
287.795983652727
 20
620.7949865909325
 30
0.0
 11
287.795983652727
 21
712.7949865909325
 31
0.0
  0
LINE
  5
340
330
1B
100
AcDbEntity
  8
L-CENTER
100
AcDbLine
 10
322.795983652727
 20
619.6348688774713
 30
0.0
 11
322.795983652727
 21
661.9551043043946
 31
0.0
  0
CIRCLE
  5
341
330
1B
100
AcDbEntity
  8
4
100
AcDbCircle
 10
322.795983652727
 20
640.7949865909329
 30
0.0
 40
9.0
  0
LINE
  5
342
330
1B
100
AcDbEntity
  8
4
 48
3.0
100
AcDbLine
 10
374.6210063265326
 20
615.7949865909325
 30
0.0
 11
292.795983652727
 21
615.7949865909325
 31
0.0
  0
LINE
  5
343
330
1B
100
AcDbEntity
  8
L-CENTER
100
AcDbLine
 10
687.1676119218937
 20
822.7949865909329
 30
0.0
 11
258.4243553835605
 21
822.7949865909329
 31
0.0
  0
LINE
  5
344
330
1B
100
AcDbEntity
  8
L-CENTER
100
AcDbLine
 10
472.795983652727
 20
608.4233583217663
 30
0.0
 11
472.795983652727
 21
1048.366614987014
 31
0.0
  0
CIRCLE
  5
345
330
1B
100
AcDbEntity
  8
4
100
AcDbCircle
 10
472.795983652727
 20
822.7949865909329
 30
0.0
 40
206.0
  0
LINE
  5
346
330
1B
100
AcDbEntity
  8
4
 48
3.0
100
AcDbLine
 10
688.795983652728
 20
890.7949865909329
 30
0.0
 11
688.795983652727
 21
986.7949865909327
 31
0.0
  0
LINE
  5
347
330
1B
100
AcDbEntity
  8
4
 48
3.0
100
AcDbLine
 10
256.795983652727
 20
890.7949865909327
 30
0.0
 11
256.795983652728
 21
986.7949865909327
 31
0.0
  0
ARC
  5
348
330
1B
100
AcDbEntity
  8
4
100
AcDbCircle
 10
1146.042802843232
 20
-672.2472419196281
 30
0.0
 40
1003.291469414149
100
AcDbArc
 50
84.76737150037141
 51
89.58226225207198
  0
ARC
  5
349
330
1B
100
AcDbEntity
  8
4
100
AcDbCircle
 10
1293.542680343231
 20
366.4631124365302
 30
0.0
 40
4.0
100
AcDbArc
 50
0.0
 51
180.0
  0
LINE
  5
34A
330
1B
100
AcDbEntity
  8
4
100
AcDbLine
 10
1284.542680343231
 20
335.9631124365302
 30
0.0
 11
1289.542680343231
 21
336.7964457698637
 31
0.0
  0
ARC
  5
34B
330
1B
100
AcDbEntity
  8
4
100
AcDbCircle
 10
1285.542680343231
 20
333.2365011904632
 30
0.0
 40
4.0
100
AcDbArc
 50
270.0
 51
0.0
  0
LINE
  5
34C
330
1B
100
AcDbEntity
  8
4
100
AcDbLine
 10
1283.542680343231
 20
328.9631124365302
 30
0.0
 11
1284.542680343233
 21
335.9631124365302
 31
0.0
  0
LINE
  5
34D
330
1B
100
AcDbEntity
  8
4
100
AcDbLine
 10
1289.542680343231
 20
366.4631124365302
 30
0.0
 11
1289.542680343231
 21
333.2365011904632
 31
0.0
  0
LINE
  5
34E
330
1B
100
AcDbEntity
  8
4
100
AcDbLine
 10
1297.542680343231
 20
366.4631124365302
 30
0.0
 11
1297.542680343231
 21
336.3631124365302
 31
0.0
  0
LINE
  5
34F
330
1B
100
AcDbEntity
  8
4
100
AcDbLine
 10
1297.542680343231
 20
336.7964457698637
 30
0.0
 11
1300.142680343231
 21
336.3631124365303
 31
0.0
  0
LINE
  5
350
330
1B
100
AcDbEntity
  8
L-CENTER
100
AcDbLine
 10
1286.047867871674
 20
349.9631124365302
 30
0.0
 11
1301.76835487186
 21
349.9631124365302
 31
0.0
  0
ARC
  5
351
330
1B
100
AcDbEntity
  8
4
100
AcDbCircle
 10
993.542680343231
 20
366.4631124365303
 30
0.0
 40
4.0
100
AcDbArc
 50
0.0
 51
180.0
  0
LINE
  5
352
330
1B
100
AcDbEntity
  8
L-CENTER
100
AcDbLine
 10
986.0478678716736
 20
349.9631124365303
 30
0.0
 11
1001.76835487186
 21
349.9631124365303
 31
0.0
  0
LINE
  5
353
330
1B
100
AcDbEntity
  8
4
100
AcDbLine
 10
1002.542680343228
 20
335.9631124365303
 30
0.0
 11
1003.542680343231
 21
328.9631124365303
 31
0.0
  0
ARC
  5
354
330
1B
100
AcDbEntity
  8
4
100
AcDbCircle
 10
1001.542680343231
 20
333.2365011904633
 30
0.0
 40
4.0
100
AcDbArc
 50
180.0
 51
270.0
  0
LINE
  5
355
330
1B
100
AcDbEntity
  8
4
100
AcDbLine
 10
997.542680343231
 20
336.7964457698638
 30
0.0
 11
1002.542680343231
 21
335.9631124365303
 31
0.0
  0
LINE
  5
356
330
1B
100
AcDbEntity
  8
4
100
AcDbLine
 10
986.9426803432307
 20
336.3631124365303
 30
0.0
 11
989.542680343231
 21
336.7964457698638
 31
0.0
  0
LINE
  5
357
330
1B
100
AcDbEntity
  8
4
100
AcDbLine
 10
997.542680343231
 20
366.4631124365303
 30
0.0
 11
997.542680343231
 21
333.2365011904633
 31
0.0
  0
LINE
  5
358
330
1B
100
AcDbEntity
  8
4
100
AcDbLine
 10
989.542680343231
 20
366.4631124365303
 30
0.0
 11
989.542680343231
 21
336.3631124365302
 31
0.0
  0
LINE
  5
359
330
1B
100
AcDbEntity
  8
4
100
AcDbLine
 10
1278.542680343231
 20
328.9631124365303
 30
0.0
 11
1293.076400063343
 21
328.9631124365302
 31
0.0
  0
LINE
  5
35A
330
1B
100
AcDbEntity
  8
4
100
AcDbLine
 10
1008.542680343231
 20
326.8631124365302
 30
0.0
 11
1008.542680343231
 21
328.9631124365303
 31
0.0
  0
LINE
  5
35B
330
1B
100
AcDbEntity
  8
4
100
AcDbLine
 10
1278.542680343231
 20
326.8631124365302
 30
0.0
 11
1278.542680343231
 21
328.9631124365302
 31
0.0
  0
LINE
  5
35C
330
1B
100
AcDbEntity
  8
4
100
AcDbLine
 10
994.0089606231177
 20
328.9631124365303
 30
0.0
 11
1008.542680343231
 21
328.9631124365303
 31
0.0
  0
LINE
  5
35D
330
1B
100
AcDbEntity
  8
L-CENTER
100
AcDbLine
 10
1293.542680343231
 20
318.7716567259301
 30
0.0
 11
1293.542680343231
 21
375.8235628986547
 31
0.0
  0
LINE
  5
35E
330
1B
100
AcDbEntity
  8
L-CENTER
100
AcDbLine
 10
993.542680343231
 20
319.2608224570793
 30
0.0
 11
993.542680343231
 21
376.0411110253478
 31
0.0
  0
LINE
  5
35F
330
1B
100
AcDbEntity
  8
L-CENTER
100
AcDbLine
 10
1143.542680343231
 20
142.0167936954513
 30
0.0
 11
1143.542680343231
 21
350.2271878395937
 31
0.0
  0
LINE
  5
360
330
1B
100
AcDbEntity
  8
4
100
AcDbLine
 10
1172.542925343233
 20
341.9631124365302
 30
0.0
 11
1172.542925343232
 21
342.9631124365302
 31
0.0
  0
LINE
  5
361
330
1B
100
AcDbEntity
  8
4
100
AcDbLine
 10
1100.542925343232
 20
341.9631124365302
 30
0.0
 11
1100.542925343232
 21
342.9631124365303
 31
0.0
  0
LINE
  5
362
330
1B
100
AcDbEntity
  8
4
100
AcDbLine
 10
1194.042925343232
 20
329.8953431645443
 30
0.0
 11
1194.042925343232
 21
341.9631124365302
 31
0.0
  0
LINE
  5
363
330
1B
100
AcDbEntity
  8
4
100
AcDbLine
 10
1079.042925343232
 20
328.8045994023828
 30
0.0
 11
1079.042925343232
 21
341.9631124365302
 31
0.0
  0
LINE
  5
364
330
1B
100
AcDbEntity
  8
4
100
AcDbLine
 10
1216.542925343232
 20
341.9631124365301
 30
0.0
 11
1216.542925343232
 21
328.5641815397007
 31
0.0
  0
LINE
  5
365
330
1B
100
AcDbEntity
  8
4
100
AcDbLine
 10
1076.542925343232
 20
341.9631124365302
 30
0.0
 11
1076.542925343232
 21
328.6341394771327
 31
0.0
  0
LINE
  5
366
330
1B
100
AcDbEntity
  8
4
100
AcDbLine
 10
1076.542925343232
 20
341.9631124365302
 30
0.0
 11
1216.542925343232
 21
341.9631124365302
 31
0.0
  0
LINE
  5
367
330
1B
100
AcDbEntity
  8
4
100
AcDbLine
 10
949.542680343231
 20
310.4631124365302
 30
0.0
 11
949.542680343231
 21
324.8631124365302
 31
0.0
  0
LINE
  5
368
330
1B
100
AcDbEntity
  8
4
100
AcDbLine
 10
1337.542680343233
 20
324.8631124365302
 30
0.0
 11
1337.542680343233
 21
310.4631124365302
 31
0.0
  0
LINE
  5
369
330
1B
100
AcDbEntity
  8
4
100
AcDbLine
 10
949.542680343231
 20
310.8631124365302
 30
0.0
 11
1337.542680343233
 21
310.8631124365302
 31
0.0
  0
LINE
  5
36A
330
1B
100
AcDbEntity
  8
4
100
AcDbLine
 10
951.542680343231
 20
326.8631124365302
 30
0.0
 11
1335.542680343233
 21
326.8631124365302
 31
0.0
  0
LINE
  5
36B
330
1B
100
AcDbEntity
  8
L-CENTER
100
AcDbLine
 10
448.0612686527265
 20
349.9631124365299
 30
0.0
 11
497.5306986527276
 21
349.9631124365299
 31
0.0
  0
LINE
  5
36C
330
1B
100
AcDbEntity
  8
4
100
AcDbLine
 10
481.7959836527252
 20
335.9631124365299
 30
0.0
 11
482.795983652727
 21
328.9631124365299
 31
0.0
  0
ARC
  5
36D
330
1B
100
AcDbEntity
  8
4
100
AcDbCircle
 10
486.7167260910965
 20
329.802186615412
 30
0.0
 40
4.0
100
AcDbArc
 50
124.6243536443679
 51
188.130102354158
  0
LINE
  5
36E
330
1B
100
AcDbEntity
  8
4
100
AcDbLine
 10
472.795983652727
 20
337.4631124365299
 30
0.0
 11
481.795983652727
 21
335.9631124365299
 31
0.0
  0
LINE
  5
36F
330
1B
100
AcDbEntity
  8
4
100
AcDbLine
 10
462.795983652727
 20
328.9631124365299
 30
0.0
 11
463.7959836527298
 21
335.9631124365299
 31
0.0
  0
ARC
  5
370
330
1B
100
AcDbEntity
  8
4
100
AcDbCircle
 10
458.8752412143594
 20
329.802186615412
 30
0.0
 40
4.0
100
AcDbArc
 50
351.8698976458404
 51
55.37564635564834
  0
LINE
  5
371
330
1B
100
AcDbEntity
  8
4
100
AcDbLine
 10
463.795983652727
 20
335.9631124365299
 30
0.0
 11
481.795983652727
 21
335.9631124365299
 31
0.0
  0
LINE
  5
372
330
1B
100
AcDbEntity
  8
4
100
AcDbLine
 10
463.795983652727
 20
335.9631124365299
 30
0.0
 11
472.795983652727
 21
337.4631124365299
 31
0.0
  0
ARC
  5
373
330
1B
100
AcDbEntity
  8
4
100
AcDbCircle
 10
472.795983652727
 20
349.9631124365299
 30
0.0
 40
20.5
100
AcDbArc
 50
304.6243536443621
 51
235.3756463556407
  0
CIRCLE
  5
374
330
1B
100
AcDbEntity
  8
4
100
AcDbCircle
 10
472.795983652727
 20
349.9631124365299
 30
0.0
 40
12.5
  0
LINE
  5
375
330
1B
100
AcDbEntity
  8
4
100
AcDbLine
 10
457.795983652727
 20
326.8631124365302
 30
0.0
 11
457.795983652727
 21
328.9631124365301
 31
0.0
  0
LINE
  5
376
330
1B
100
AcDbEntity
  8
4
100
AcDbLine
 10
487.795983652728
 20
326.8631124365302
 30
0.0
 11
487.795983652728
 21
328.9631124365301
 31
0.0
  0
LINE
  5
377
330
1B
100
AcDbEntity
  8
4
100
AcDbLine
 10
457.795983652727
 20
328.9631124365301
 30
0.0
 11
487.795983652727
 21
328.9631124365301
 31
0.0
  0
ARC
  5
378
330
1B
100
AcDbEntity
  8
4
100
AcDbCircle
 10
472.7967109772562
 20
-1868.95887158752
 30
0.0
 40
2200.0
100
AcDbArc
 50
90.52089684052372
 51
92.14090629985034
  0
LINE
  5
379
330
1B
100
AcDbEntity
  8
4
100
AcDbLine
 10
491.6705697409043
 20
341.9631124365301
 30
0.0
 11
606.2967109772562
 21
341.9631124365301
 31
0.0
  0
ARC
  5
37A
330
1B
100
AcDbEntity
  8
4
100
AcDbCircle
 10
664.7967109772562
 20
324.8631124365302
 30
0.0
 40
2.0
100
AcDbArc
 50
0.0
 51
90.0
  0
LINE
  5
37B
330
1B
100
AcDbEntity
  8
4
100
AcDbLine
 10
666.7967109772562
 20
324.8631124365302
 30
0.0
 11
666.7959836527289
 21
310.4631124365302
 31
0.0
  0
ARC
  5
37C
330
1B
100
AcDbEntity
  8
4
100
AcDbCircle
 10
611.2967109772562
 20
333.6910665551713
 30
0.0
 40
5.0
100
AcDbArc
 50
180.0
 51
266.4020465540941
  0
LINE
  5
37D
330
1B
100
AcDbEntity
  8
4
100
AcDbLine
 10
606.2967109772562
 20
341.9631124365301
 30
0.0
 11
606.2967109772562
 21
333.6910665551713
 31
0.0
  0
LINE
  5
37E
330
1B
100
AcDbEntity
  8
4
100
AcDbLine
 10
584.7967109772562
 20
341.9631124365301
 30
0.0
 11
584.7967109772562
 21
342.9631124365299
 31
0.0
  0
LINE
  5
37F
330
1B
100
AcDbEntity
  8
4
100
AcDbLine
 10
512.7967109772562
 20
341.9631124365301
 30
0.0
 11
512.7967109772562
 21
342.9631124365299
 31
0.0
  0
LINE
  5
380
330
1B
100
AcDbEntity
  8
4
100
AcDbLine
 10
512.7967109772562
 20
342.9631124365301
 30
0.0
 11
584.7967109772562
 21
342.9631124365301
 31
0.0
  0
LINE
  5
381
330
1B
100
AcDbEntity
  8
L-CENTER
100
AcDbLine
 10
548.7967109772562
 20
345.6591469906389
 30
0.0
 11
548.7967109772562
 21
294.4091469906389
 31
0.0
  0
ARC
  5
382
330
1B
100
AcDbEntity
  8
4
100
AcDbCircle
 10
472.7967109772562
 20
-1868.95887158752
 30
0.0
 40
2202.0
100
AcDbArc
 50
85.70705743473268
 51
86.40204655409835
  0
ARC
  5
383
330
1B
100
AcDbEntity
  8
4
100
AcDbCircle
 10
341.1731836527269
 20
334.112676741006
 30
0.0
 40
5.0
100
AcDbArc
 50
273.4190984985377
 51
0.0
  0
LINE
  5
384
330
1B
100
AcDbEntity
  8
4
100
AcDbLine
 10
346.1731836527279
 20
341.9631124365299
 30
0.0
 11
346.1731836527279
 21
334.1126767410058
 31
0.0
  0
LINE
  5
385
330
1B
100
AcDbEntity
  8
4
100
AcDbLine
 10
371.1731836527279
 20
341.9631124365299
 30
0.0
 11
371.1731836527279
 21
342.9631124365299
 31
0.0
  0
ARC
  5
386
330
1B
100
AcDbEntity
  8
4
100
AcDbCircle
 10
280.7967109772562
 20
324.8631124365297
 30
0.0
 40
2.0
100
AcDbArc
 50
90.0
 51
180.0
  0
LINE
  5
387
330
1B
100
AcDbEntity
  8
4
100
AcDbLine
 10
278.7967109772562
 20
324.8631124365295
 30
0.0
 11
278.7959836527289
 21
310.4631124365302
 31
0.0
  0
ARC
  5
388
330
1B
100
AcDbEntity
  8
4
100
AcDbCircle
 10
472.7967109772562
 20
-1868.95887158752
 30
0.0
 40
2202.0
100
AcDbArc
 50
93.41909849852705
 51
94.29294256526738
  0
LINE
  5
389
330
1B
100
AcDbEntity
  8
4
100
AcDbLine
 10
371.1731836527279
 20
342.9631124365299
 30
0.0
 11
453.5281347847294
 21
342.9631124365299
 31
0.0
  0
ARC
  5
38A
330
1B
100
AcDbEntity
  8
4
100
AcDbCircle
 10
472.7967109772562
 20
-1868.95887158752
 30
0.0
 40
2200.0
100
AcDbArc
 50
86.46833019232841
 51
87.34745006163908
  0
LINE
  5
38B
330
1B
100
AcDbEntity
  8
4
100
AcDbLine
 10
278.7967109772562
 20
310.8631124365302
 30
0.0
 11
666.7967109772562
 21
310.8631124365302
 31
0.0
  0
LINE
  5
38C
330
1B
100
AcDbEntity
  8
4
100
AcDbLine
 10
280.7967109772562
 20
326.8631124365299
 30
0.0
 11
664.7967109772562
 21
326.8631124365302
 31
0.0
  0
LINE
  5
38D
330
1B
100
AcDbEntity
  8
4
100
AcDbLine
 10
346.1731836527279
 20
341.9631124365299
 30
0.0
 11
453.9213975645507
 21
341.96311243653
 31
0.0
  0
LINE
  5
38E
330
1B
100
AcDbEntity
  8
4
100
AcDbLine
 10
666.7959836527289
 20
310.4631124365302
 30
0.0
 11
666.7959836527289
 21
308.4631124365302
 31
0.0
  0
LINE
  5
38F
330
1B
100
AcDbEntity
  8
4
100
AcDbLine
 10
278.7959836527289
 20
310.4631124365302
 30
0.0
 11
278.7959836527289
 21
308.4631124365301
 31
0.0
  0
LINE
  5
3A0
330
1B
100
AcDbEntity
  8
4
100
AcDbLine
 10
1355.04292534323
 20
262.4631124365302
 30
0.0
 11
1353.54292534323
 21
262.4631124365302
 31
0.0
  0
LINE
  5
3A1
330
1B
100
AcDbEntity
  8
4
100
AcDbLine
 10
1362.04292534323
 20
261.4631124365302
 30
0.0
 11
1355.04292534323
 21
261.4631124365302
 31
0.0
  0
LINE
  5
3A2
330
1B
100
AcDbEntity
  8
4
100
AcDbLine
 10
1357.04292534323
 20
268.9631124365302
 30
0.0
 11
1362.04292534323
 21
268.9631124365302
 31
0.0
  0
LINE
  5
3A3
330
1B
100
AcDbEntity
  8
4
100
AcDbLine
 10
1355.04292534323
 20
290.4631124365302
 30
0.0
 11
1353.54292534323
 21
290.4631124365302
 31
0.0
  0
LINE
  5
3A4
330
1B
100
AcDbEntity
  8
4
100
AcDbLine
 10
1357.04292534323
 20
283.9631124365302
 30
0.0
 11
1362.04292534323
 21
283.9631124365302
 31
0.0
  0
LINE
  5
3A5
330
1B
100
AcDbEntity
  8
4
100
AcDbLine
 10
1355.04292534323
 20
291.4631124365302
 30
0.0
 11
1362.04292534323
 21
291.4631124365302
 31
0.0
  0
LINE
  5
3A6
330
1B
100
AcDbEntity
  8
4
100
AcDbLine
 10
1357.04292534323
 20
291.4631124365302
 30
0.0
 11
1357.04292534323
 21
261.4631124365302
 31
0.0
  0
LINE
  5
3A7
330
1B
100
AcDbEntity
  8
4
100
AcDbLine
 10
1355.04292534323
 20
291.4631124365302
 30
0.0
 11
1355.04292534323
 21
261.4631124365302
 31
0.0
  0
LINE
  5
3A8
330
1B
100
AcDbEntity
  8
4
100
AcDbLine
 10
1362.04292534323
 20
291.4631124365302
 30
0.0
 11
1362.04292534323
 21
261.4631124365302
 31
0.0
  0
LINE
  5
3C7
330
1B
100
AcDbEntity
  8
L-CENTER
100
AcDbLine
 10
1203.06630063421
 20
217.9631124365302
 30
0.0
 11
1316.019550052254
 21
217.9631124365302
 31
0.0
  0
LINE
  5
3C8
330
1B
100
AcDbEntity
  8
L-CENTER
100
AcDbLine
 10
176.3528575359933
 20
217.9631124365302
 30
0.0
 11
695.1613083762057
 21
217.9631124365302
 31
0.0
  0
LINE
  5
3C9
330
1B
100
AcDbEntity
  8
L-CENTER
100
AcDbLine
 10
322.795983652727
 20
115.9631124365302
 30
0.0
 11
322.795983652727
 21
164.9631124365302
 31
0.0
  0
LINE
  5
3CA
330
1B
100
AcDbEntity
  8
L-CENTER
100
AcDbLine
 10
622.795983652727
 20
115.9631124365302
 30
0.0
 11
622.795983652727
 21
164.9631124365302
 31
0.0
  0
LINE
  5
3CB
330
1B
100
AcDbEntity
  8
L-CENTER
100
AcDbLine
 10
1331.542925343232
 20
115.9631124365302
 30
0.0
 11
1331.542925343232
 21
164.9631124365302
 31
0.0
  0
LINE
  5
3CC
330
1B
100
AcDbEntity
  8
L-CENTER
100
AcDbLine
 10
961.5429253432321
 20
115.9631124365302
 30
0.0
 11
961.5429253432321
 21
164.9631124365302
 31
0.0
  0
LINE
  5
3CD
330
1B
100
AcDbEntity
  8
L-CENTER
100
AcDbLine
 10
1341.727980343232
 20
176.4631124365302
 30
0.0
 11
1355.127551643896
 21
176.4631124365302
 31
0.0
  0
LINE
  5
3CE
330
1B
100
AcDbEntity
  8
L-CENTER
100
AcDbLine
 10
1336.401810343232
 20
276.4631124365302
 30
0.0
 11
1366.654218813288
 21
276.4631124365302
 31
0.0
  0
LINE
  5
3CF
330
1B
100
AcDbEntity
  8
L-CENTER
100
AcDbLine
 10
1259.542925343232
 20
274.439737145552
 30
0.0
 11
1259.542925343232
 21
161.4864877275083
 31
0.0
  0
LINE
  5
3D0
330
1B
100
AcDbEntity
  8
L-CENTER
100
AcDbLine
 10
472.795983652727
 20
142.0167936954513
 30
0.0
 11
472.795983652727
 21
374.6978274365304
 31
0.0
  0
LINE
  5
3D1
330
1B
100
AcDbEntity
  8
L-CENTER
100
AcDbLine
 10
1136.542925343232
 20
142.0167936954513
 30
0.0
 11
1136.542925343232
 21
350.2271878395937
 31
0.0
  0
LINE
  5
3D2
330
1B
100
AcDbEntity
  8
4
100
AcDbLine
 10
461.1731836527279
 20
151.9631124365301
 30
0.0
 11
461.1731836527279
 21
150.9631124365303
 31
0.0
  0
LINE
  5
3D3
330
1B
100
AcDbEntity
  8
L-CENTER
100
AcDbLine
 10
416.1731836527279
 20
467.8205085920604
 30
0.0
 11
416.1731836527279
 21
27.07178623464824
 31
0.0
  0
LINE
  5
3D4
330
1B
100
AcDbEntity
  8
L-CENTER
100
AcDbLine
 10
548.7959836527289
 20
350.2271878395937
 30
0.0
 11
548.7959836527289
 21
142.0167936954514
 31
0.0
  0
LINE
  5
3D5
330
1B
100
AcDbEntity
  8
L-CENTER
100
AcDbLine
 10
1146.542925343232
 20
467.8205085920604
 30
0.0
 11
1146.542925343232
 21
27.07178623464824
 31
0.0
  0
LINE
  5
3D6
330
1B
100
AcDbEntity
  8
4
100
AcDbLine
 10
392.795983652727
 20
127.9631124365302
 30
0.0
 11
287.795983652727
 21
127.9631124365302
 31
0.0
  0
LINE
  5
3D7
330
1B
100
AcDbEntity
  8
4
100
AcDbLine
 10
287.795983652727
 20
152.9631124365302
 30
0.0
 11
392.795983652727
 21
152.9631124365302
 31
0.0
  0
LINE
  5
3D8
330
1B
100
AcDbEntity
  8
4
100
AcDbLine
 10
289.795983652728
 20
156.4631124365302
 30
0.0
 11
289.795983652728
 21
152.9631124365302
 31
0.0
  0
LINE
  5
3D9
330
1B
100
AcDbEntity
  8
4
100
AcDbLine
 10
287.795983652727
 20
152.9631124365302
 30
0.0
 11
287.795983652727
 21
127.9631124365302
 31
0.0
  0
LINE
  5
3DA
330
1B
100
AcDbEntity
  8
4
100
AcDbLine
 10
392.795983652727
 20
156.4631124365302
 30
0.0
 11
392.795983652727
 21
127.9631124365302
 31
0.0
  0
LINE
  5
3DB
330
1B
100
AcDbEntity
  8
4
100
AcDbLine
 10
271.7959836527289
 20
156.4631124365302
 30
0.0
 11
289.795983652728
 21
156.4631124365302
 31
0.0
  0
LINE
  5
3DC
330
1B
100
AcDbEntity
  8
4
100
AcDbLine
 10
266.7959836527289
 20
306.4631124365302
 30
0.0
 11
266.7959836527289
 21
161.4631124365302
 31
0.0
  0
LINE
  5
3DD
330
1B
100
AcDbEntity
  8
4
100
AcDbLine
 10
678.7959836527289
 20
306.4631124365302
 30
0.0
 11
678.7959836527289
 21
161.4631124365302
 31
0.0
  0
LINE
  5
3DE
330
1B
100
AcDbEntity
  8
4
100
AcDbLine
 10
657.795983652727
 20
152.9631124365302
 30
0.0
 11
657.795983652727
 21
127.9631124365302
 31
0.0
  0
LINE
  5
3DF
330
1B
100
AcDbEntity
  8
4
100
AcDbLine
 10
552.795983652727
 20
156.4631124365302
 30
0.0
 11
552.795983652727
 21
127.9631124365302
 31
0.0
  0
LINE
  5
3E0
330
1B
100
AcDbEntity
  8
4
100
AcDbLine
 10
655.795983652727
 20
156.4631124365302
 30
0.0
 11
655.795983652727
 21
152.9631124365302
 31
0.0
  0
LINE
  5
3E1
330
1B
100
AcDbEntity
  8
4
100
AcDbLine
 10
392.795983652727
 20
156.4631124365302
 30
0.0
 11
552.795983652727
 21
156.4631124365302
 31
0.0
  0
LINE
  5
3E2
330
1B
100
AcDbEntity
  8
4
100
AcDbLine
 10
552.795983652727
 20
151.9631124365301
 30
0.0
 11
392.795983652727
 21
151.9631124365301
 31
0.0
  0
LINE
  5
3E3
330
1B
100
AcDbEntity
  8
4
100
AcDbLine
 10
384.795983652728
 20
152.9631124365302
 30
0.0
 11
384.795983652728
 21
127.9631124365302
 31
0.0
  0
LINE
  5
3E4
330
1B
100
AcDbEntity
  8
4
100
AcDbLine
 10
560.795983652727
 20
152.9631124365302
 30
0.0
 11
560.795983652727
 21
127.9631124365302
 31
0.0
  0
LINE
  5
3E5
330
1B
100
AcDbEntity
  8
4
100
AcDbLine
 10
512.7959836527289
 20
150.9631124365302
 30
0.0
 11
552.795983652727
 21
150.9631124365302
 31
0.0
  0
LINE
  5
3E6
330
1B
100
AcDbEntity
  8
4
100
AcDbLine
 10
512.7959836527289
 20
150.9631124365302
 30
0.0
 11
512.7959836527289
 21
151.9631124365301
 31
0.0
  0
LINE
  5
3E7
330
1B
100
AcDbEntity
  8
4
100
AcDbLine
 10
688.7959836527289
 20
169.9631124365303
 30
0.0
 11
678.7959836527289
 21
169.9631124365303
 31
0.0
  0
LINE
  5
3E8
330
1B
100
AcDbEntity
  8
4
100
AcDbLine
 10
688.7959836527289
 20
265.9631124365302
 30
0.0
 11
688.7959836527289
 21
169.9631124365303
 31
0.0
  0
LINE
  5
3E9
330
1B
100
AcDbEntity
  8
4
100
AcDbLine
 10
688.7959836527289
 20
265.9631124365302
 30
0.0
 11
678.7959836527289
 21
265.9631124365302
 31
0.0
  0
LINE
  5
3EA
330
1B
100
AcDbEntity
  8
4
100
AcDbLine
 10
256.7959836527289
 20
265.9631124365302
 30
0.0
 11
266.7959836527289
 21
265.9631124365302
 31
0.0
  0
LINE
  5
3EB
330
1B
100
AcDbEntity
  8
4
100
AcDbLine
 10
256.7959836527289
 20
265.9631124365302
 30
0.0
 11
256.7959836527289
 21
169.9631124365303
 31
0.0
  0
LINE
  5
3EC
330
1B
100
AcDbEntity
  8
4
100
AcDbLine
 10
256.7959836527289
 20
169.9631124365303
 30
0.0
 11
266.7959836527289
 21
169.9631124365303
 31
0.0
  0
LINE
  5
3ED
330
1B
100
AcDbEntity
  8
4
100
AcDbLine
 10
552.795983652727
 20
152.9631124365302
 30
0.0
 11
657.795983652727
 21
152.9631124365302
 31
0.0
  0
LINE
  5
3EE
330
1B
100
AcDbEntity
  8
4
100
AcDbLine
 10
552.795983652727
 20
127.9631124365302
 30
0.0
 11
657.795983652727
 21
127.9631124365302
 31
0.0
  0
LINE
  5
3EF
330
1B
100
AcDbEntity
  8
4
100
AcDbLine
 10
1356.542925343232
 20
152.9631124365302
 30
0.0
 11
1241.542925343232
 21
152.9631124365302
 31
0.0
  0
LINE
  5
3F0
330
1B
100
AcDbEntity
  8
4
100
AcDbLine
 10
1356.542925343232
 20
127.9631124365302
 30
0.0
 11
1241.542925343232
 21
127.9631124365302
 31
0.0
  0
LINE
  5
3F1
330
1B
100
AcDbEntity
  8
4
100
AcDbLine
 10
1356.542925343232
 20
127.9631124365302
 30
0.0
 11
1356.542925343232
 21
152.9631124365302
 31
0.0
  0
LINE
  5
3F2
330
1B
100
AcDbEntity
  8
4
100
AcDbLine
 10
1241.542925343232
 20
156.4631124365302
 30
0.0
 11
1241.542925343232
 21
127.9631124365302
 31
0.0
  0
LINE
  5
3F3
330
1B
100
AcDbEntity
  8
4
100
AcDbLine
 10
1346.542925343232
 20
156.4631124365302
 30
0.0
 11
1346.542925343232
 21
152.9631124365302
 31
0.0
  0
LINE
  5
3F4
330
1B
100
AcDbEntity
  8
4
100
AcDbLine
 10
936.5429253432321
 20
127.9631124365302
 30
0.0
 11
936.5429253432321
 21
152.9631124365302
 31
0.0
  0
LINE
  5
3F5
330
1B
100
AcDbEntity
  8
4
100
AcDbLine
 10
946.5429253432321
 20
156.4631124365302
 30
0.0
 11
946.5429253432321
 21
152.9631124365302
 31
0.0
  0
LINE
  5
3F6
330
1B
100
AcDbEntity
  8
4
100
AcDbLine
 10
655.795983652727
 20
156.4631124365302
 30
0.0
 11
673.7959836527289
 21
156.4631124365302
 31
0.0
  0
LINE
  5
3F7
330
1B
100
AcDbEntity
  8
4
100
AcDbLine
 10
1036.542925343232
 20
152.9631124365302
 30
0.0
 11
936.5429253432321
 21
152.9631124365302
 31
0.0
  0
LINE
  5
3F8
330
1B
100
AcDbEntity
  8
4
100
AcDbLine
 10
1036.542925343232
 20
127.9631124365302
 30
0.0
 11
936.5429253432321
 21
127.9631124365302
 31
0.0
  0
LINE
  5
3F9
330
1B
100
AcDbEntity
  8
4
100
AcDbLine
 10
943.5429253432303
 20
156.4631124365302
 30
0.0
 11
946.5429253432321
 21
156.4631124365302
 31
0.0
  0
LINE
  5
3FA
330
1B
100
AcDbEntity
  8
4
100
AcDbLine
 10
1036.542925343232
 20
156.4631124365302
 30
0.0
 11
1241.542925343232
 21
156.4631124365302
 31
0.0
  0
LINE
  5
3FB
330
1B
100
AcDbEntity
  8
4
100
AcDbLine
 10
1036.542925343232
 20
156.4631124365302
 30
0.0
 11
1036.542925343232
 21
127.9631124365302
 31
0.0
  0
LINE
  5
3FC
330
1B
100
AcDbEntity
  8
4
100
AcDbLine
 10
268.7959836527289
 20
308.4631124365302
 30
0.0
 11
676.7959836527289
 21
308.4631124365302
 31
0.0
  0
LINE
  5
3FD
330
1B
100
AcDbEntity
  8
4
100
AcDbLine
 10
1347.542925343232
 20
308.4631124365302
 30
0.0
 11
945.5429253432303
 21
308.4631124365302
 31
0.0
  0
LINE
  5
3FE
330
1B
100
AcDbEntity
  8
4
100
AcDbLine
 10
943.5429253432303
 20
306.4631124365302
 30
0.0
 11
943.5429253432303
 21
156.4631124365302
 31
0.0
  0
LINE
  5
3FF
330
1B
100
AcDbEntity
  8
4
100
AcDbLine
 10
278.7959836527289
 20
310.4631124365302
 30
0.0
 11
666.7959836527289
 21
310.4631124365302
 31
0.0
  0
LINE
  5
400
330
1B
100
AcDbEntity
  8
4
100
AcDbLine
 10
949.5429253432321
 20
308.4631124365302
 30
0.0
 11
949.5429253432321
 21
310.4631124365302
 31
0.0
  0
LINE
  5
401
330
1B
100
AcDbEntity
  8
4
100
AcDbLine
 10
1337.542925343232
 20
308.4631124365302
 30
0.0
 11
1337.542925343232
 21
310.4631124365302
 31
0.0
  0
LINE
  5
402
330
1B
100
AcDbEntity
  8
4
100
AcDbLine
 10
1349.542925343232
 20
306.4631124365302
 30
0.0
 11
1349.542925343232
 21
156.4631124365302
 31
0.0
  0
LINE
  5
403
330
1B
100
AcDbEntity
  8
4
100
AcDbLine
 10
1337.542925343232
 20
310.4631124365302
 30
0.0
 11
949.5429253432321
 21
310.4631124365302
 31
0.0
  0
LINE
  5
404
330
1B
100
AcDbEntity
  8
4
100
AcDbLine
 10
613.7959836527289
 20
127.9631124365302
 30
0.0
 11
613.7959836527289
 21
152.9631124365302
 31
0.0
  0
LINE
  5
405
330
1B
100
AcDbEntity
  8
4
100
AcDbLine
 10
631.7959836527289
 20
127.9631124365302
 30
0.0
 11
631.7959836527289
 21
152.9631124365302
 31
0.0
  0
ARC
  5
406
330
1B
100
AcDbEntity
  8
4
100
AcDbCircle
 10
593.2708386527274
 20
151.5556424365302
 30
0.0
 40
3.72398
100
AcDbArc
 50
285.2689580000023
 51
22.20667600000434
  0
ARC
  5
407
330
1B
100
AcDbEntity
  8
4
100
AcDbCircle
 10
595.2322636527269
 20
144.3705824365302
 30
0.0
 40
3.72398
100
AcDbArc
 50
105.2689539999964
 51
202.2066620000001
  0
ARC
  5
408
330
1B
100
AcDbEntity
  8
4
100
AcDbCircle
 10
588.3365136527282
 20
141.5556424365302
 30
0.0
 40
3.72398
100
AcDbArc
 50
285.2689580000023
 51
22.20667599999652
  0
ARC
  5
409
330
1B
100
AcDbEntity
  8
4
100
AcDbCircle
 10
590.2979386527277
 20
134.3705824365302
 30
0.0
 40
3.72398
100
AcDbArc
 50
105.2689390000034
 51
202.2066679999983
  0
ARC
  5
40A
330
1B
100
AcDbEntity
  8
4
100
AcDbCircle
 10
583.4021886527289
 20
131.5556424365302
 30
0.0
 40
3.72398
100
AcDbArc
 50
285.2689429999948
 51
22.20668200000321
  0
ARC
  5
40B
330
1B
100
AcDbEntity
  8
4
100
AcDbCircle
 10
583.4021886527289
 20
131.5556424365302
 30
0.0
 40
3.72398
100
AcDbArc
 50
285.2689429999948
 51
22.20668200000321
  0
ARC
  5
40C
330
1B
100
AcDbEntity
  8
4
100
AcDbCircle
 10
590.2979386527277
 20
134.3705824365302
 30
0.0
 40
3.72398
100
AcDbArc
 50
105.2689390000034
 51
202.2066679999983
  0
ARC
  5
40D
330
1B
100
AcDbEntity
  8
4
100
AcDbCircle
 10
588.3365136527282
 20
141.5556424365302
 30
0.0
 40
3.72398
100
AcDbArc
 50
285.2689580000023
 51
22.20667599999652
  0
ARC
  5
40E
330
1B
100
AcDbEntity
  8
4
100
AcDbCircle
 10
595.2322636527269
 20
144.3705824365302
 30
0.0
 40
3.72398
100
AcDbArc
 50
105.2689539999964
 51
202.2066620000001
  0
ARC
  5
40F
330
1B
100
AcDbEntity
  8
4
100
AcDbCircle
 10
593.2708386527274
 20
151.5556424365302
 30
0.0
 40
3.72398
100
AcDbArc
 50
285.2689580000023
 51
22.20667600000434
  0
LINE
  5
410
330
1B
100
AcDbEntity
  8
4
100
AcDbLine
 10
1066.542925343232
 20
151.9631124365301
 30
0.0
 11
1066.542925343232
 21
156.4631124365302
 31
0.0
  0
LINE
  5
411
330
1B
100
AcDbEntity
  8
4
100
AcDbLine
 10
1204.042925343232
 20
151.9631124365301
 30
0.0
 11
1204.042925343232
 21
156.4631124365302
 31
0.0
  0
LINE
  5
412
330
1B
100
AcDbEntity
  8
4
100
AcDbLine
 10
1206.542925343232
 20
151.9631124365301
 30
0.0
 11
1206.542925343232
 21
156.4631124365302
 31
0.0
  0
LINE
  5
413
330
1B
100
AcDbEntity
  8
4
100
AcDbLine
 10
1191.542925343232
 20
150.9631124365302
 30
0.0
 11
1100.542925343232
 21
150.9631124365302
 31
0.0
  0
LINE
  5
414
330
1B
100
AcDbEntity
  8
4
100
AcDbLine
 10
1191.542925343232
 20
150.9631124365303
 30
0.0
 11
1191.542925343232
 21
151.9631124365302
 31
0.0
  0
LINE
  5
415
330
1B
100
AcDbEntity
  8
4
100
AcDbLine
 10
1100.542925343232
 20
151.9631124365301
 30
0.0
 11
1100.542925343232
 21
150.9631124365302
 31
0.0
  0
LINE
  5
416
330
1B
100
AcDbEntity
  8
4
100
AcDbLine
 10
1206.542925343232
 20
151.9631124365301
 30
0.0
 11
1066.542925343232
 21
151.9631124365301
 31
0.0
  0
LINE
  5
417
330
1B
100
AcDbEntity
  8
4
100
AcDbLine
 10
1259.542925343232
 20
265.9631124365302
 30
0.0
 11
1143.54292534323
 21
265.9631124365302
 31
0.0
  0
LINE
  5
418
330
1B
100
AcDbEntity
  8
4
100
AcDbLine
 10
1259.542925343232
 20
169.9631124365303
 30
0.0
 11
1143.54292534323
 21
169.9631124365303
 31
0.0
  0
ARC
  5
419
330
1B
100
AcDbEntity
  8
4
100
AcDbCircle
 10
1218.052690343231
 20
259.4533474365302
 30
0.0
 40
2.99994
100
AcDbArc
 50
99.67465499999983
 51
170.3253449999999
  0
ARC
  5
41A
330
1B
100
AcDbEntity
  8
4
100
AcDbCircle
 10
1218.052690343231
 20
176.4728774365302
 30
0.0
 40
2.99994
100
AcDbArc
 50
189.6746550000001
 51
260.3253450000002
  0
ARC
  5
41B
330
1B
100
AcDbEntity
  8
4
100
AcDbCircle
 10
1461.542925343232
 20
217.9631124365302
 30
0.0
 40
250.000005
100
AcDbArc
 50
170.3302029999999
 51
189.6705879999998
  0
ARC
  5
41C
330
1B
100
AcDbEntity
  8
4
100
AcDbCircle
 10
1301.033160343231
 20
176.4728774365302
 30
0.0
 40
2.99994
100
AcDbArc
 50
279.6746549999998
 51
350.3253449999998
  0
ARC
  5
41D
330
1B
100
AcDbEntity
  8
4
100
AcDbCircle
 10
1259.542925343232
 20
419.9631124365303
 30
0.0
 40
249.99997
100
AcDbArc
 50
260.3302030000001
 51
279.6708179999999
  0
ARC
  5
41E
330
1B
100
AcDbEntity
  8
4
100
AcDbCircle
 10
1301.033160343231
 20
259.4533474365302
 30
0.0
 40
2.99994
100
AcDbArc
 50
9.674655000000154
 51
80.32534500000017
  0
ARC
  5
41F
330
1B
100
AcDbEntity
  8
4
100
AcDbCircle
 10
1259.542925343232
 20
15.9631124365302
 30
0.0
 40
250.000025
100
AcDbArc
 50
80.3298070000001
 51
99.67024799999993
  0
ARC
  5
420
330
1B
100
AcDbEntity
  8
4
100
AcDbCircle
 10
1057.542925343232
 20
217.9631124365302
 30
0.0
 40
249.99998
100
AcDbArc
 50
350.330598
 51
9.670248
  0
LINE
  5
421
330
1B
100
AcDbEntity
  8
4
100
AcDbLine
 10
1351.542925343232
 20
156.4631124365302
 30
0.0
 11
1346.542925343232
 21
156.4631124365302
 31
0.0
  0
LINE
  5
422
330
1B
100
AcDbEntity
  8
4
100
AcDbLine
 10
1353.54292534323
 20
293.9631124365302
 30
0.0
 11
1353.54292534323
 21
217.9631124365302
 31
0.0
  0
LINE
  5
423
330
1B
100
AcDbEntity
  8
4
100
AcDbLine
 10
1349.542925343232
 20
293.9631124365302
 30
0.0
 11
1353.54292534323
 21
293.9631124365302
 31
0.0
  0
LINE
  5
424
330
1B
100
AcDbEntity
  8
4
100
AcDbLine
 10
1351.542925343232
 20
217.9631124365302
 30
0.0
 11
1351.542925343232
 21
156.4631124365302
 31
0.0
  0
LINE
  5
425
330
1B
100
AcDbEntity
  8
4
100
AcDbLine
 10
1351.542925343232
 20
181.9631124365301
 30
0.0
 11
1353.543305343233
 21
181.9631124365301
 31
0.0
  0
LINE
  5
426
330
1B
100
AcDbEntity
  8
4
100
AcDbLine
 10
1353.543305343233
 20
176.4631124365302
 30
0.0
 11
1353.543305343233
 21
181.9631124365301
 31
0.0
  0
LINE
  5
427
330
1B
100
AcDbEntity
  8
4
100
AcDbLine
 10
1351.542925343232
 20
170.9631124365302
 30
0.0
 11
1353.543305343233
 21
170.9631124365302
 31
0.0
  0
LINE
  5
428
330
1B
100
AcDbEntity
  8
4
100
AcDbLine
 10
1353.543305343233
 20
176.4631124365302
 30
0.0
 11
1353.543305343233
 21
170.9631124365302
 31
0.0
  0
LINE
  5
429
330
1B
100
AcDbEntity
  8
4
100
AcDbLine
 10
949.542680343231
 20
310.4631124365302
 30
0.0
 11
1337.542680343233
 21
310.4631124365302
 31
0.0
  0
LINE
  5
42A
330
1B
100
AcDbEntity
  8
4
100
AcDbLine
 10
1101.542925343232
 20
342.9631124365303
 30
0.0
 11
1101.542925343232
 21
341.9631124365302
 31
0.0
  0
LINE
  5
42B
330
1B
100
AcDbEntity
  8
4
100
AcDbLine
 10
1217.542925343232
 20
332.9626624365303
 30
0.0
 11
1217.542925343232
 21
328.4932364670954
 31
0.0
  0
LINE
  5
42C
330
1B
100
AcDbEntity
  8
4
100
AcDbLine
 10
1217.542925343232
 20
332.9626624365303
 30
0.0
 11
1257.542925343232
 21
332.9626624365303
 31
0.0
  0
LINE
  5
42D
330
1B
100
AcDbEntity
  8
4
100
AcDbLine
 10
1257.542925343232
 20
332.9626624365303
 30
0.0
 11
1257.542925343232
 21
326.8631124365302
 31
0.0
  0
LINE
  5
42E
330
1B
100
AcDbEntity
  8
4
100
AcDbLine
 10
1191.542925343232
 20
341.9631124365302
 30
0.0
 11
1191.542925343232
 21
342.9631124365303
 31
0.0
  0
LINE
  5
42F
330
1B
100
AcDbEntity
  8
4
100
AcDbLine
 10
1191.542925343232
 20
342.9631124365303
 30
0.0
 11
1100.542925343232
 21
342.9631124365303
 31
0.0
  0
LINE
  5
430
330
1B
100
AcDbEntity
  8
4
100
AcDbLine
 10
441.1731836527279
 20
362.9631124365302
 30
0.0
 11
441.1731836527279
 21
342.8629674365303
 31
0.0
  0
LINE
  5
431
330
1B
100
AcDbEntity
  8
4
100
AcDbLine
 10
416.1731836527279
 20
362.9631124365302
 30
0.0
 11
441.1731836527279
 21
362.9631124365302
 31
0.0
  0
LINE
  5
432
330
1B
100
AcDbEntity
  8
4
100
AcDbLine
 10
440.1731836527279
 20
461.9631124365303
 30
0.0
 11
439.1731836527269
 21
462.9631124365301
 31
0.0
  0
LINE
  5
433
330
1B
100
AcDbEntity
  8
4
100
AcDbLine
 10
440.1731836527279
 20
461.9631124365303
 30
0.0
 11
440.1731836527279
 21
362.9631124365302
 31
0.0
  0
LINE
  5
434
330
1B
100
AcDbEntity
  8
4
100
AcDbLine
 10
439.1731836527269
 20
462.9631124365301
 30
0.0
 11
416.1731836527279
 21
462.9631124365301
 31
0.0
  0
LINE
  5
435
330
1B
100
AcDbEntity
  8
4
100
AcDbLine
 10
392.1731836527288
 20
461.9631124365303
 30
0.0
 11
392.1731836527288
 21
362.9631124365302
 31
0.0
  0
LINE
  5
436
330
1B
100
AcDbEntity
  8
4
100
AcDbLine
 10
416.1731836527279
 20
362.9631124365302
 30
0.0
 11
391.1731836527279
 21
362.9631124365302
 31
0.0
  0
LINE
  5
437
330
1B
100
AcDbEntity
  8
4
100
AcDbLine
 10
391.1731836527279
 20
362.9631124365302
 30
0.0
 11
391.1731836527279
 21
342.8629674365303
 31
0.0
  0
LINE
  5
438
330
1B
100
AcDbEntity
  8
4
100
AcDbLine
 10
393.1731836527279
 20
462.9631124365301
 30
0.0
 11
416.1731836527279
 21
462.9631124365301
 31
0.0
  0
LINE
  5
439
330
1B
100
AcDbEntity
  8
4
100
AcDbLine
 10
392.1731836527288
 20
461.9631124365303
 30
0.0
 11
393.1731836527279
 21
462.9631124365301
 31
0.0
  0
LINE
  5
43A
330
1B
100
AcDbEntity
  8
4
100
AcDbLine
 10
1122.542925343232
 20
461.9631124365303
 30
0.0
 11
1122.542925343232
 21
362.9631124365302
 31
0.0
  0
LINE
  5
43B
330
1B
100
AcDbEntity
  8
4
100
AcDbLine
 10
1170.542925343231
 20
461.9631124365303
 30
0.0
 11
1170.542925343231
 21
362.9631124365302
 31
0.0
  0
LINE
  5
43C
330
1B
100
AcDbEntity
  8
4
100
AcDbLine
 10
1146.542925343232
 20
362.9631124365302
 30
0.0
 11
1121.542925343232
 21
362.9631124365302
 31
0.0
  0
LINE
  5
43D
330
1B
100
AcDbEntity
  8
4
100
AcDbLine
 10
1121.542925343232
 20
362.9631124365302
 30
0.0
 11
1121.542925343232
 21
342.9631124365303
 31
0.0
  0
LINE
  5
43E
330
1B
100
AcDbEntity
  8
4
100
AcDbLine
 10
1171.542925343232
 20
362.9631124365302
 30
0.0
 11
1171.542925343232
 21
342.9631124365303
 31
0.0
  0
LINE
  5
43F
330
1B
100
AcDbEntity
  8
4
100
AcDbLine
 10
1122.542925343232
 20
461.9631124365303
 30
0.0
 11
1146.542925343232
 21
461.9631124365303
 31
0.0
  0
LINE
  5
440
330
1B
100
AcDbEntity
  8
4
100
AcDbLine
 10
1122.542925343232
 20
461.9631124365303
 30
0.0
 11
1123.54292534323
 21
462.9631124365301
 31
0.0
  0
LINE
  5
441
330
1B
100
AcDbEntity
  8
4
100
AcDbLine
 10
1170.542925343231
 20
461.9631124365303
 30
0.0
 11
1169.542925343232
 21
462.9631124365301
 31
0.0
  0
LINE
  5
442
330
1B
100
AcDbEntity
  8
4
100
AcDbLine
 10
1169.542925343232
 20
462.9631124365301
 30
0.0
 11
1146.542925343232
 21
462.9631124365301
 31
0.0
  0
LINE
  5
443
330
1B
100
AcDbEntity
  8
4
100
AcDbLine
 10
1170.542925343231
 20
461.9631124365303
 30
0.0
 11
1146.542925343232
 21
461.9631124365303
 31
0.0
  0
LINE
  5
444
330
1B
100
AcDbEntity
  8
4
100
AcDbLine
 10
1146.542925343232
 20
362.9631124365302
 30
0.0
 11
1171.542925343232
 21
362.9631124365302
 31
0.0
  0
LINE
  5
445
330
1B
100
AcDbEntity
  8
4
100
AcDbLine
 10
1119.042925343232
 20
462.9631124365301
 30
0.0
 11
1146.542925343232
 21
462.9631124365301
 31
0.0
  0
LINE
  5
446
330
1B
100
AcDbEntity
  8
4
100
AcDbLine
 10
1119.042925343232
 20
372.9631124365302
 30
0.0
 11
1119.042925343232
 21
462.9631124365301
 31
0.0
  0
LINE
  5
447
330
1B
100
AcDbEntity
  8
4
100
AcDbLine
 10
1122.542925343232
 20
372.9631124365302
 30
0.0
 11
1119.042925343232
 21
372.9631124365302
 31
0.0
  0
ARC
  5
448
330
1B
100
AcDbEntity
  8
4
100
AcDbCircle
 10
416.1731836527279
 20
377.9631124365301
 30
0.0
 40
6.0
100
AcDbArc
 50
270.0
 51
0.0
  0
ARC
  5
449
330
1B
100
AcDbEntity
  8
4
100
AcDbCircle
 10
416.1731836527279
 20
377.9631124365301
 30
0.0
 40
6.0
100
AcDbArc
 50
180.0
 51
270.0
  0
LINE
  5
44A
330
1B
100
AcDbEntity
  8
4
100
AcDbLine
 10
410.1731836527279
 20
462.9631124365301
 30
0.0
 11
410.1731836527279
 21
377.9631124365301
 31
0.0
  0
LINE
  5
44B
330
1B
100
AcDbEntity
  8
4
100
AcDbLine
 10
422.1731836527288
 20
462.9631124365301
 30
0.0
 11
422.1731836527288
 21
377.9631124365301
 31
0.0
  0
LINE
  5
44C
330
1B
100
AcDbEntity
  8
4
100
AcDbLine
 10
410.1731836527279
 20
461.9631124365303
 30
0.0
 11
392.1731836527288
 21
461.9631124365303
 31
0.0
  0
LINE
  5
44D
330
1B
100
AcDbEntity
  8
4
100
AcDbLine
 10
422.1731836527288
 20
461.9631124365303
 30
0.0
 11
440.1731836527279
 21
461.9631124365303
 31
0.0
  0
LINE
  5
4DA
330
1B
100
AcDbEntity
  8
4
100
AcDbLine
 10
441.1731836527279
 20
130.9631124365301
 30
0.0
 11
441.1731836527279
 21
150.9631124365302
 31
0.0
  0
LINE
  5
4DB
330
1B
100
AcDbEntity
  8
4
100
AcDbLine
 10
440.1731836527279
 20
31.96311243652997
 30
0.0
 11
439.1731836527269
 21
30.9631124365302
 31
0.0
  0
LINE
  5
4DC
330
1B
100
AcDbEntity
  8
4
100
AcDbLine
 10
440.1731836527279
 20
31.96311243652997
 30
0.0
 11
440.1731836527279
 21
130.9631124365301
 31
0.0
  0
LINE
  5
4DD
330
1B
100
AcDbEntity
  8
4
100
AcDbLine
 10
392.1731836527288
 20
31.96311243652997
 30
0.0
 11
392.1731836527288
 21
127.9631124365302
 31
0.0
  0
LINE
  5
4DE
330
1B
100
AcDbEntity
  8
4
100
AcDbLine
 10
441.1731836527279
 20
130.9631124365301
 30
0.0
 11
392.795983652727
 21
130.9631124365301
 31
0.0
  0
LINE
  5
4E0
330
1B
100
AcDbEntity
  8
4
100
AcDbLine
 10
393.1731836527279
 20
30.9631124365302
 30
0.0
 11
439.1731836527269
 21
30.9631124365302
 31
0.0
  0
LINE
  5
4E1
330
1B
100
AcDbEntity
  8
4
100
AcDbLine
 10
392.1731836527288
 20
31.96311243652997
 30
0.0
 11
393.1731836527279
 21
30.9631124365302
 31
0.0
  0
ARC
  5
4E2
330
1B
100
AcDbEntity
  8
4
100
AcDbCircle
 10
416.1731836527279
 20
115.9631124365302
 30
0.0
 40
6.0
100
AcDbArc
 50
0.0
 51
90.0
  0
ARC
  5
4E3
330
1B
100
AcDbEntity
  8
4
100
AcDbCircle
 10
416.1731836527279
 20
115.9631124365302
 30
0.0
 40
6.0
100
AcDbArc
 50
90.0
 51
180.0
  0
LINE
  5
4E4
330
1B
100
AcDbEntity
  8
4
100
AcDbLine
 10
410.1731836527279
 20
30.9631124365302
 30
0.0
 11
410.1731836527279
 21
115.9631124365302
 31
0.0
  0
LINE
  5
4E5
330
1B
100
AcDbEntity
  8
4
100
AcDbLine
 10
422.1731836527288
 20
30.9631124365302
 30
0.0
 11
422.1731836527288
 21
115.9631124365302
 31
0.0
  0
LINE
  5
4E6
330
1B
100
AcDbEntity
  8
4
100
AcDbLine
 10
410.1731836527279
 20
31.96311243652997
 30
0.0
 11
392.1731836527288
 21
31.96311243652997
 31
0.0
  0
LINE
  5
4E7
330
1B
100
AcDbEntity
  8
4
100
AcDbLine
 10
1122.542925343232
 20
31.96311243652997
 30
0.0
 11
1122.542925343232
 21
130.9631124365301
 31
0.0
  0
LINE
  5
4E8
330
1B
100
AcDbEntity
  8
4
100
AcDbLine
 10
1170.542925343231
 20
31.96311243652997
 30
0.0
 11
1170.542925343231
 21
130.9631124365301
 31
0.0
  0
LINE
  5
4E9
330
1B
100
AcDbEntity
  8
4
100
AcDbLine
 10
1171.542925343232
 20
130.9631124365301
 30
0.0
 11
1121.542925343232
 21
130.9631124365301
 31
0.0
  0
LINE
  5
4EA
330
1B
100
AcDbEntity
  8
4
100
AcDbLine
 10
1121.542925343232
 20
130.9631124365301
 30
0.0
 11
1121.542925343232
 21
150.96311243653
 31
0.0
  0
LINE
  5
4EB
330
1B
100
AcDbEntity
  8
4
100
AcDbLine
 10
1171.542925343232
 20
130.9631124365301
 30
0.0
 11
1171.542925343232
 21
150.96311243653
 31
0.0
  0
LINE
  5
4EC
330
1B
100
AcDbEntity
  8
4
100
AcDbLine
 10
1122.542925343232
 20
31.96311243652997
 30
0.0
 11
1170.542925343231
 21
31.96311243652997
 31
0.0
  0
LINE
  5
4ED
330
1B
100
AcDbEntity
  8
4
100
AcDbLine
 10
1122.542925343232
 20
31.96311243652997
 30
0.0
 11
1123.54292534323
 21
30.9631124365302
 31
0.0
  0
LINE
  5
4EE
330
1B
100
AcDbEntity
  8
4
100
AcDbLine
 10
1170.542925343231
 20
31.96311243652997
 30
0.0
 11
1169.542925343232
 21
30.9631124365302
 31
0.0
  0
LINE
  5
4EF
330
1B
100
AcDbEntity
  8
4
100
AcDbLine
 10
1119.042925343232
 20
30.9631124365302
 30
0.0
 11
1169.542925343232
 21
30.9631124365302
 31
0.0
  0
LINE
  5
4F0
330
1B
100
AcDbEntity
  8
4
100
AcDbLine
 10
1119.042925343232
 20
120.9631124365301
 30
0.0
 11
1119.042925343232
 21
30.9631124365302
 31
0.0
  0
LINE
  5
4F1
330
1B
100
AcDbEntity
  8
4
100
AcDbLine
 10
1122.542925343232
 20
120.9631124365301
 30
0.0
 11
1119.042925343232
 21
120.9631124365301
 31
0.0
  0
LINE
  5
4F4
330
1B
100
AcDbEntity
  8
4
100
AcDbLine
 10
422.1731836527279
 20
31.96311243652997
 30
0.0
 11
440.1731836527269
 21
31.96311243652997
 31
0.0
  0
LINE
  5
535
330
1B
100
AcDbEntity
  8
4
100
AcDbLine
 10
243.7961786527258
 20
235.4631124365302
 30
0.0
 11
243.7961786527258
 21
200.4631124365302
 31
0.0
  0
LINE
  5
536
330
1B
100
AcDbEntity
  8
4
100
AcDbLine
 10
243.7961786527258
 20
235.4631124365302
 30
0.0
 11
255.7959836527252
 21
235.4631124365302
 31
0.0
  0
LINE
  5
537
330
1B
100
AcDbEntity
  8
4
100
AcDbLine
 10
243.7961786527258
 20
200.4631124365302
 30
0.0
 11
255.7959836527252
 21
200.4631124365301
 31
0.0
  0
LINE
  5
538
330
1B
100
AcDbEntity
  8
4
100
AcDbLine
 10
184.7961786527258
 20
231.4631124365302
 30
0.0
 11
184.7961786527258
 21
204.4631124365301
 31
0.0
  0
LINE
  5
539
330
1B
100
AcDbEntity
  8
4
100
AcDbLine
 10
184.7961786527258
 20
231.4631124365302
 30
0.0
 11
183.7961786527258
 21
230.4631124365302
 31
0.0
  0
LINE
  5
53A
330
1B
100
AcDbEntity
  8
4
100
AcDbLine
 10
184.7961786527258
 20
204.4631124365301
 30
0.0
 11
183.7961786527258
 21
205.4631124365302
 31
0.0
  0
LINE
  5
53B
330
1B
100
AcDbEntity
  8
4
100
AcDbLine
 10
184.7961786527258
 20
231.4631124365302
 30
0.0
 11
243.7961786527258
 21
231.4631124365302
 31
0.0
  0
LINE
  5
53C
330
1B
100
AcDbEntity
  8
4
100
AcDbLine
 10
184.7961786527258
 20
204.4631124365301
 30
0.0
 11
243.7961786527258
 21
204.4631124365301
 31
0.0
  0
LINE
  5
53D
330
1B
100
AcDbEntity
  8
4
100
AcDbLine
 10
183.7961786527258
 20
205.4631124365302
 30
0.0
 11
183.7961786527258
 21
234.4631124365301
 31
0.0
  0
LINE
  5
53E
330
1B
100
AcDbEntity
  8
4
100
AcDbLine
 10
238.7961786527258
 20
234.4631124365301
 30
0.0
 11
183.7961786527258
 21
234.4631124365301
 31
0.0
  0
LINE
  5
53F
330
1B
100
AcDbEntity
  8
4
100
AcDbLine
 10
238.7961786527258
 20
231.4631124365302
 30
0.0
 11
238.7961786527258
 21
234.4631124365301
 31
0.0
  0
LINE
  5
542
330
1B
100
AcDbEntity
  8
4
100
AcDbLine
 10
183.795983652727
 20
935.2949865909329
 30
0.0
 11
235.295983652727
 21
935.2949865909329
 31
0.0
  0
LINE
  5
543
330
1B
100
AcDbEntity
  8
4
100
AcDbLine
 10
183.795983652727
 20
942.2949865909329
 30
0.0
 11
235.295983652727
 21
942.2949865909329
 31
0.0
  0
LINE
  5
544
330
1B
100
AcDbEntity
  8
4
100
AcDbLine
 10
242.295983652727
 20
952.2949865909329
 30
0.0
 11
184.795983652727
 21
952.2949865909329
 31
0.0
  0
LINE
  5
545
330
1B
100
AcDbEntity
  8
4
100
AcDbLine
 10
242.295983652727
 20
925.2949865909329
 30
0.0
 11
184.795983652727
 21
925.2949865909329
 31
0.0
  0
ARC
  5
546
330
1B
100
AcDbEntity
  8
4
100
AcDbCircle
 10
235.295983652727
 20
938.7949865909329
 30
0.0
 40
3.5
100
AcDbArc
 50
0.0
 51
90.0
  0
LINE
  5
547
330
1B
100
AcDbEntity
  8
4
100
AcDbLine
 10
243.795983652727
 20
921.2949865909329
 30
0.0
 11
243.795983652727
 21
956.2949865909329
 31
0.0
  0
ARC
  5
548
330
1B
100
AcDbEntity
  8
4
100
AcDbCircle
 10
242.295983652727
 20
923.7949865909329
 30
0.0
 40
1.5
100
AcDbArc
 50
0.0
 51
90.0
  0
ARC
  5
549
330
1B
100
AcDbEntity
  8
4
100
AcDbCircle
 10
235.295983652727
 20
938.7949865909329
 30
0.0
 40
3.5
100
AcDbArc
 50
270.0
 51
0.0
  0
LINE
  5
54A
330
1B
100
AcDbEntity
  8
4
100
AcDbLine
 10
238.795983652727
 20
938.7949865909329
 30
0.0
 11
238.795983652727
 21
938.7949865909329
 31
0.0
  0
ARC
  5
54B
330
1B
100
AcDbEntity
  8
4
100
AcDbCircle
 10
242.295983652727
 20
953.7949865909329
 30
0.0
 40
1.5
100
AcDbArc
 50
270.0
 51
0.0
  0
LINE
  5
54C
330
1B
100
AcDbEntity
  8
4
100
AcDbLine
 10
183.795983652727
 20
951.2949865909329
 30
0.0
 11
183.795983652727
 21
926.2949865909329
 31
0.0
  0
LINE
  5
54D
330
1B
100
AcDbEntity
  8
4
100
AcDbLine
 10
183.795983652727
 20
926.2949865909329
 30
0.0
 11
184.795983652727
 21
925.2949865909329
 31
0.0
  0
LINE
  5
54E
330
1B
100
AcDbEntity
  8
4
100
AcDbLine
 10
184.795983652727
 20
935.2949865909329
 30
0.0
 11
184.795983652727
 21
925.2949865909329
 31
0.0
  0
LINE
  5
54F
330
1B
100
AcDbEntity
  8
4
100
AcDbLine
 10
184.795983652727
 20
952.2949865909329
 30
0.0
 11
183.795983652727
 21
951.2949865909329
 31
0.0
  0
LINE
  5
550
330
1B
100
AcDbEntity
  8
4
100
AcDbLine
 10
184.795983652727
 20
952.2949865909329
 30
0.0
 11
184.795983652727
 21
942.2949865909329
 31
0.0
  0
LINE
  5
551
330
1B
100
AcDbEntity
  8
4
100
AcDbLine
 10
243.795983652727
 20
956.2949865909329
 30
0.0
 11
255.7959836527252
 21
956.2949865909327
 31
0.0
  0
LINE
  5
552
330
1B
100
AcDbEntity
  8
4
100
AcDbLine
 10
243.795983652727
 20
921.2949865909329
 30
0.0
 11
255.7959836527252
 21
921.2949865909329
 31
0.0
  0
TEXT
  5
57D
330
1B
100
AcDbEntity
  8
3
100
AcDbText
 10
751.6281414487353
 20
52.5943505231503
 30
0.0
 40
12.0
  1
LDC5-07
  7
KANJI
 72
     1
 11
790.6281414487353
 21
52.5943505231503
 31
0.0
100
AcDbText
  0
LINE
  5
57E
330
1B
100
AcDbEntity
  8
4
100
AcDbLine
 10
129.8068684288819
 20
234.4631124365302
 30
0.0
 11
122.8068684288819
 21
234.4631124365302
 31
0.0
  0
LINE
  5
580
330
1B
100
AcDbEntity
  8
4
100
AcDbLine
 10
129.8068684288819
 20
227.4631124365302
 30
0.0
 11
122.8068684288819
 21
227.4631124365302
 31
0.0
  0
LINE
  5
581
330
1B
100
AcDbEntity
  8
L-CENTER
100
AcDbLine
 10
148.3776724288819
 20
217.9631124365302
 30
0.0
 11
104.2360644288819
 21
217.9631124365302
 31
0.0
  0
ARC
  5
582
330
1B
100
AcDbEntity
  8
4
100
AcDbCircle
 10
126.3068684288819
 20
217.9631124365302
 30
0.0
 40
13.499964
100
AcDbArc
 50
105.0261550000032
 51
74.97380400000327
  0
LINE
  5
583
330
1B
100
AcDbEntity
  8
4
100
AcDbLine
 10
122.8068684288819
 20
234.4631124365302
 30
0.0
 11
122.8068684288819
 21
227.4631124365302
 31
0.0
  0
LINE
  5
584
330
1B
100
AcDbEntity
  8
4
100
AcDbLine
 10
129.8068684288819
 20
227.4631124365302
 30
0.0
 11
129.8068684288819
 21
234.4631124365302
 31
0.0
  0
LINE
  5
585
330
1B
100
AcDbEntity
  8
L-CENTER
100
AcDbLine
 10
126.3068684288819
 20
240.0339164365301
 30
0.0
 11
126.3068684288819
 21
195.8923084365302
 31
0.0
  0
ENDSEC
  0
SECTION
  2
OBJECTS
  0
DICTIONARY
  5
9
330
0
100
AcDbDictionary
281
     1
  3
ACAD_COLOR
350
30
  3
ACAD_GROUP
350
2E
  3
ACAD_LAYOUT
350
24
  3
ACAD_MATERIAL
350
B
  3
ACAD_MLEADERSTYLE
350
4A9
  3
ACAD_MLINESTYLE
350
19
  3
ACAD_PLOTSETTINGS
350
2F
  3
ACAD_PLOTSTYLENAME
350
8
  3
ACAD_SCALELIST
350
37
  3
ACAD_TABLESTYLE
350
4A8
  3
ACAD_VISUALSTYLE
350
31
  3
ACDBHEADERROUNDTRIPXREC
350
5CA
  3
AcDbVariableDictionary
350
4A6
  3
DWGPROPS
350
5CD
  0
DICTIONARY
  5
5CE
330
2D
100
AcDbDictionary
280
     1
281
     1
  3
ACAD_XREC_ROUNDTRIP
360
5CF
  0
DICTIONARY
  5
3
330
2
100
AcDbDictionary
280
     1
281
     1
  3
ACAD_LAYERSTATES
360
4
  0
DICTIONARY
  5
20
330
1F
100
AcDbDictionary
280
     1
281
     1
  3
ADSK_XREC_LAYER_RECONCILED
360
21
  0
DICTIONARY
  5
BB
330
BA
100
AcDbDictionary
280
     1
281
     1
  3
ADSK_XREC_LAYER_RECONCILED
360
BC
  0
DICTIONARY
  5
5
330
1
100
AcDbDictionary
280
     1
281
     1
  3
ADSK_XREC_LAYER_RECONCILED
360
6
  0
DICTIONARY
  5
80
330
7F
100
AcDbDictionary
280
     1
281
     1
  3
ADSK_XREC_LAYER_RECONCILED
360
81
  0
DICTIONARY
  5
9B
330
9A
100
AcDbDictionary
280
     1
281
     1
  3
ADSK_XREC_LAYER_RECONCILED
360
9C
  0
DICTIONARY
  5
5D
330
5C
100
AcDbDictionary
280
     1
281
     1
  3
ADSK_XREC_LAYER_RECONCILED
360
5E
  0
DICTIONARY
  5
1C
330
1B
100
AcDbDictionary
280
     1
281
     1
  3
ACAD_SORTENTS
360
1D
  0
DICTIONARY
  5
30
102
{ACAD_REACTORS
330
9
102
}
330
9
100
AcDbDictionary
281
     1
  0
DICTIONARY
  5
2E
102
{ACAD_REACTORS
330
9
102
}
330
9
100
AcDbDictionary
281
     1
  0
DICTIONARY
  5
24
102
{ACAD_REACTORS
330
9
102
}
330
9
100
AcDbDictionary
281
     1
  3
Model
350
23
  3
ﾚｲｱｳﾄ1
350
2A
  0
DICTIONARY
  5
B
102
{ACAD_REACTORS
330
9
102
}
330
9
100
AcDbDictionary
281
     1
  3
ByBlock
350
5A
  3
ByLayer
350
14
  3
Global
350
A
  0
DICTIONARY
  5
4A9
102
{ACAD_REACTORS
330
9
102
}
330
9
100
AcDbDictionary
281
     1
  3
Standard
350
52C
  0
DICTIONARY
  5
19
102
{ACAD_REACTORS
330
9
102
}
330
9
100
AcDbDictionary
281
     1
  3
STANDARD
350
18
  0
DICTIONARY
  5
2F
102
{ACAD_REACTORS
330
9
102
}
330
9
100
AcDbDictionary
281
     1
  0
ACDBDICTIONARYWDFLT
  5
8
102
{ACAD_REACTORS
330
9
102
}
330
9
100
AcDbDictionary
281
     1
  3
Normal
350
7
100
AcDbDictionaryWithDefault
340
7
  0
DICTIONARY
  5
37
102
{ACAD_REACTORS
330
9
102
}
330
9
100
AcDbDictionary
281
     1
  3
*A1
350
59
  0
DICTIONARY
  5
4A8
102
{ACAD_REACTORS
330
9
102
}
330
9
100
AcDbDictionary
281
     1
  3
Standard
350
531
  0
DICTIONARY
  5
31
102
{ACAD_REACTORS
330
9
102
}
330
9
100
AcDbDictionary
281
     1
  3
2dWireframe
350
4B1
  3
Basic
350
4B3
  3
Brighten
350
4B6
  3
ColorChange
350
4BA
  3
Conceptual
350
4B4
  3
Dim
350
4B5
  3
EdgeColorOff
350
4BD
  3
Facepattern
350
4B9
  3
Flat
350
4AD
  3
FlatWithEdges
350
4AE
  3
Gouraud
350
4AF
  3
GouraudWithEdges
350
4B0
  3
Hidden
350
4B2
  3
JitterOff
350
4BB
  3
Linepattern
350
4B8
  3
OverhangOff
350
4BC
  3
Realistic
350
32
  3
Shaded
350
4C2
  3
Shaded with edges
350
4C1
  3
Shades of Gray
350
4BE
  3
Sketchy
350
4BF
  3
Thicken
350
4B7
  3
Wireframe
350
33
  3
X-Ray
350
4C0
  0
DICTIONARY
  5
5CA
102
{ACAD_REACTORS
330
9
102
}
330
9
100
AcDbDictionary
281
     1
  3
COLORDICT
350
5CB
  3
MATERIALDICT
350
5CC
  0
DICTIONARY
  5
4A6
102
{ACAD_REACTORS
330
9
102
}
330
9
100
AcDbDictionary
281
     1
  3
CANNOSCALE
350
4A7
  3
CMLEADERSTYLE
350
52E
  3
CTABLESTYLE
350
532
  3
DIMASSOC
350
589
  3
HIDETEXT
350
58A
  3
MSLTSCALE
350
591
  3
XCLIPFRAME
350
4AA
  0
XRECORD
  5
5CD
102
{ACAD_REACTORS
330
9
102
}
330
9
100
AcDbXrecord
280
     1
  1
DWGPROPS COOKIE
  2

  3

  4

  6

  7

  8
sg-d03
  9

300
=
301
=
302
=
303
=
304
=
305
=
306
=
307
=
308
=
309
=
 40
0.0
 41
2457504.441095949
 42
2458115.233661829
  1

 90
        0
  0
XRECORD
  5
5CF
102
{ACAD_REACTORS
330
5CE
102
}
330
5CE
100
AcDbXrecord
280
     1
102
VTR_0.000_0.000_1.000_1.000_GRIDDISPLAY
 70
     3
102
VTR_0.000_0.000_1.000_1.000_GRIDMAJOR
 70
     5
102
VTR_0.000_0.000_1.000_1.000_DEFAULTLIGHTING
280
     1
102
VTR_0.000_0.000_1.000_1.000_DEFAULTLIGHTINGTYPE
 70
     1
102
VTR_0.000_0.000_1.000_1.000_BRIGHTNESS
141
0.0
102
VTR_0.000_0.000_1.000_1.000_CONTRAST
142
0.0
  0
DICTIONARY
  5
4
102
{ACAD_REACTORS
330
3
102
}
330
3
100
AcDbDictionary
281
     1
  0
XRECORD
  5
21
102
{ACAD_REACTORS
330
20
102
}
330
20
100
AcDbXrecord
280
     1
290
     1
  0
XRECORD
  5
BC
102
{ACAD_REACTORS
330
BB
102
}
330
BB
100
AcDbXrecord
280
     1
290
     1
  0
XRECORD
  5
6
102
{ACAD_REACTORS
330
5
102
}
330
5
100
AcDbXrecord
280
     1
290
     1
  0
XRECORD
  5
81
102
{ACAD_REACTORS
330
80
102
}
330
80
100
AcDbXrecord
280
     1
290
     1
  0
XRECORD
  5
9C
102
{ACAD_REACTORS
330
9B
102
}
330
9B
100
AcDbXrecord
280
     1
290
     1
  0
XRECORD
  5
5E
102
{ACAD_REACTORS
330
5D
102
}
330
5D
100
AcDbXrecord
280
     1
290
     1
  0
SORTENTSTABLE
  5
1D
102
{ACAD_REACTORS
330
1C
102
}
330
1C
100
AcDbSortentsTable
330
1B
331
0
  5
BF
331
0
  5
428
331
0
  5
427
331
0
  5
426
331
0
  5
425
331
0
  5
424
331
0
  5
423
331
0
  5
41D
331
0
  5
41B
331
0
  5
41A
331
0
  5
419
331
0
  5
418
331
0
  5
417
331
0
  5
416
331
7E
  5
414
331
82
  5
413
331
83
  5
411
331
84
  5
410
331
85
  5
40F
331
86
  5
40E
331
87
  5
40D
331
88
  5
40C
331
89
  5
40B
331
8A
  5
40A
331
8B
  5
409
331
8C
  5
408
331
8D
  5
407
331
8E
  5
406
331
8F
  5
405
331
90
  5
404
331
91
  5
403
331
92
  5
402
331
93
  5
401
331
94
  5
400
331
95
  5
3FF
331
96
  5
3FE
331
97
  5
3FD
331
98
  5
3FC
331
99
  5
3FB
331
9E
  5
3FA
331
9F
  5
3F9
331
A0
  5
3F8
331
A1
  5
3F7
331
A2
  5
3F6
331
A3
  5
3F5
331
A4
  5
3F4
331
A5
  5
3F3
331
A6
  5
3F2
331
A7
  5
3F1
331
A8
  5
3F0
331
A9
  5
3EF
331
AA
  5
3EE
331
AB
  5
3ED
331
AC
  5
3EC
331
0
  5
3EB
331
0
  5
3EA
331
0
  5
3E9
331
0
  5
3E8
331
0
  5
3E7
331
0
  5
3E6
331
0
  5
3E5
331
0
  5
3E4
331
0
  5
3E3
331
0
  5
3E2
331
0
  5
3E1
331
0
  5
3E0
331
0
  5
3DF
331
0
  5
3DE
331
0
  5
3DD
331
0
  5
3DC
331
0
  5
3DB
331
0
  5
3DA
331
0
  5
3D9
331
0
  5
3D8
331
0
  5
3D7
331
0
  5
3D6
331
0
  5
3D5
331
0
  5
3D4
331
0
  5
3D3
331
0
  5
3D2
331
0
  5
3D1
331
0
  5
3D0
331
0
  5
3CF
331
0
  5
3CE
331
0
  5
3CD
331
0
  5
3CC
331
0
  5
3CB
331
0
  5
3CA
331
0
  5
3C9
331
0
  5
3C8
331
0
  5
3C7
331
0
  5
3C6
331
0
  5
3C5
331
0
  5
3C4
331
0
  5
3C3
331
0
  5
3C2
331
0
  5
3C1
331
0
  5
3C0
331
0
  5
3BF
331
0
  5
3BE
331
0
  5
3BD
331
0
  5
3BC
331
0
  5
3BB
331
0
  5
3BA
331
0
  5
3B9
331
0
  5
3B8
331
0
  5
3B7
331
0
  5
3B6
331
0
  5
3B5
331
0
  5
3B4
331
0
  5
3B3
331
0
  5
3B2
331
0
  5
3B1
331
0
  5
3B0
331
0
  5
3AF
331
0
  5
3AE
331
0
  5
3AD
331
0
  5
3AC
331
0
  5
3AB
331
0
  5
3AA
331
0
  5
3A9
331
0
  5
3A8
331
0
  5
3A7
331
0
  5
3A6
331
0
  5
3A5
331
0
  5
3A4
331
0
  5
3A3
331
0
  5
3A2
331
0
  5
3A1
331
0
  5
3A0
331
0
  5
39F
331
0
  5
39E
331
0
  5
39D
331
0
  5
39C
331
0
  5
39B
331
0
  5
39A
331
0
  5
399
331
0
  5
398
331
0
  5
397
331
0
  5
396
331
0
  5
395
331
0
  5
394
331
0
  5
393
331
0
  5
392
331
0
  5
391
331
0
  5
390
331
0
  5
38F
331
0
  5
38E
331
0
  5
38D
331
0
  5
38C
331
0
  5
38B
331
0
  5
38A
331
0
  5
389
331
0
  5
388
331
0
  5
387
331
0
  5
386
331
0
  5
385
331
0
  5
384
331
0
  5
383
331
0
  5
382
331
0
  5
381
331
0
  5
380
331
0
  5
37F
331
0
  5
37E
331
0
  5
37D
331
0
  5
37C
331
0
  5
37B
331
0
  5
37A
331
0
  5
379
331
0
  5
378
331
0
  5
377
331
0
  5
376
331
0
  5
375
331
0
  5
374
331
0
  5
373
331
0
  5
372
331
0
  5
371
331
0
  5
370
331
0
  5
36F
331
0
  5
36E
331
0
  5
36D
331
0
  5
36C
331
0
  5
36B
331
0
  5
36A
331
0
  5
369
331
0
  5
368
331
0
  5
367
331
0
  5
366
331
0
  5
365
331
0
  5
364
331
0
  5
363
331
0
  5
362
331
0
  5
361
331
0
  5
360
331
0
  5
35F
331
0
  5
35E
331
0
  5
35D
331
0
  5
35C
331
0
  5
35B
331
0
  5
35A
331
0
  5
359
331
0
  5
358
331
0
  5
357
331
0
  5
356
331
0
  5
355
331
0
  5
354
331
0
  5
353
331
0
  5
352
331
0
  5
351
331
0
  5
350
331
0
  5
34F
331
0
  5
34E
331
0
  5
34D
331
0
  5
34C
331
0
  5
34B
331
0
  5
34A
331
0
  5
349
331
0
  5
348
331
0
  5
347
331
0
  5
346
331
0
  5
345
331
0
  5
344
331
0
  5
343
331
0
  5
342
331
0
  5
341
331
0
  5
340
331
0
  5
33F
331
0
  5
33E
331
0
  5
33D
331
0
  5
33C
331
0
  5
33B
331
0
  5
33A
331
0
  5
339
331
0
  5
338
331
0
  5
337
331
0
  5
336
331
0
  5
335
331
0
  5
334
331
0
  5
333
331
0
  5
332
331
0
  5
331
331
0
  5
330
331
0
  5
32F
331
0
  5
32E
331
0
  5
32D
331
0
  5
32C
331
0
  5
32B
331
0
  5
32A
331
0
  5
329
331
0
  5
328
331
0
  5
327
331
0
  5
326
331
0
  5
325
331
0
  5
324
331
0
  5
323
331
0
  5
322
331
0
  5
321
331
0
  5
320
331
0
  5
31F
331
0
  5
31E
331
0
  5
31D
331
0
  5
31C
331
0
  5
31B
331
0
  5
31A
331
0
  5
319
331
0
  5
318
331
0
  5
317
331
0
  5
316
331
0
  5
315
331
0
  5
314
331
0
  5
313
331
0
  5
312
331
0
  5
311
331
0
  5
310
331
0
  5
30F
331
0
  5
30E
331
0
  5
30D
331
0
  5
30C
331
0
  5
30B
331
0
  5
30A
331
0
  5
309
331
0
  5
308
331
0
  5
307
331
0
  5
306
331
0
  5
305
331
0
  5
304
331
0
  5
303
331
0
  5
302
331
0
  5
301
331
0
  5
300
331
0
  5
2FF
331
0
  5
2FE
331
0
  5
2FD
331
0
  5
2FC
331
0
  5
2FB
331
0
  5
2FA
331
0
  5
2F9
331
0
  5
2F8
331
0
  5
2F7
331
0
  5
2F6
331
0
  5
2F5
331
0
  5
2F4
331
0
  5
2F3
331
1AA
  5
2F2
331
1AB
  5
2F1
331
1AC
  5
2F0
331
1AD
  5
2EF
331
0
  5
2EE
331
0
  5
2ED
331
0
  5
2EC
331
0
  5
2EB
331
0
  5
2EA
331
0
  5
2E9
331
0
  5
2E8
331
0
  5
2E7
331
0
  5
2E6
331
0
  5
2E5
331
0
  5
2E4
331
0
  5
2E3
331
0
  5
2E2
331
0
  5
2E1
331
0
  5
2E0
331
0
  5
2DF
331
0
  5
2DE
331
0
  5
2DD
331
0
  5
2DC
331
0
  5
2DB
331
0
  5
2DA
331
0
  5
2D9
331
0
  5
2D8
331
0
  5
2D7
331
0
  5
2D6
331
0
  5
2D5
331
0
  5
2D4
331
0
  5
2D3
331
0
  5
2D2
331
0
  5
2D1
331
0
  5
2D0
331
0
  5
2CF
331
0
  5
2CE
331
0
  5
2CD
331
0
  5
2CC
331
0
  5
2CB
331
0
  5
2CA
331
0
  5
2C9
331
0
  5
2C8
331
0
  5
2C7
331
0
  5
2C6
331
0
  5
2C5
331
0
  5
2C4
331
0
  5
2C3
331
0
  5
2C2
331
0
  5
2C1
331
0
  5
2C0
331
0
  5
2BF
331
0
  5
2BE
331
0
  5
2BD
331
0
  5
2BC
331
0
  5
2BB
331
0
  5
2BA
331
0
  5
2B9
331
0
  5
2B8
331
0
  5
2B7
331
0
  5
2B6
331
0
  5
2B5
331
0
  5
2B4
331
0
  5
2B3
331
0
  5
2B2
331
0
  5
2B1
331
0
  5
2B0
331
0
  5
2AF
331
0
  5
2AE
331
0
  5
2AD
331
0
  5
2AC
331
0
  5
2AB
331
0
  5
2AA
331
0
  5
2A9
331
0
  5
2A8
331
0
  5
2A7
331
0
  5
2A6
331
0
  5
2A5
331
0
  5
2A4
331
0
  5
2A3
331
0
  5
2A2
331
0
  5
2A1
331
0
  5
2A0
331
0
  5
29F
331
0
  5
29E
331
0
  5
29D
331
0
  5
29C
331
0
  5
29B
331
0
  5
29A
331
0
  5
298
331
0
  5
297
331
0
  5
296
331
0
  5
294
331
0
  5
293
331
0
  5
292
331
0
  5
291
331
0
  5
290
331
0
  5
28F
331
0
  5
28E
331
0
  5
28D
331
0
  5
28C
331
0
  5
28B
331
0
  5
28A
331
0
  5
289
331
0
  5
288
331
0
  5
287
331
0
  5
286
331
0
  5
285
331
0
  5
27E
331
0
  5
27D
331
0
  5
27C
331
0
  5
27B
331
0
  5
27A
331
0
  5
279
331
0
  5
278
331
0
  5
277
331
0
  5
276
331
0
  5
275
331
0
  5
274
331
0
  5
273
331
0
  5
272
331
0
  5
271
331
0
  5
270
331
0
  5
26F
331
0
  5
26E
331
0
  5
26D
331
0
  5
26C
331
0
  5
26B
331
0
  5
26A
331
0
  5
269
331
0
  5
268
331
0
  5
267
331
0
  5
266
331
0
  5
265
331
0
  5
264
331
0
  5
263
331
0
  5
262
331
0
  5
261
331
0
  5
260
331
0
  5
25F
331
0
  5
25E
331
0
  5
25D
331
240
  5
25C
331
241
  5
25B
331
242
  5
25A
331
243
  5
259
331
244
  5
258
331
245
  5
257
331
246
  5
256
331
247
  5
255
331
248
  5
254
331
249
  5
253
331
24A
  5
252
331
24B
  5
251
331
24C
  5
250
331
24D
  5
24F
331
24F
  5
24D
331
250
  5
24C
331
251
  5
24B
331
252
  5
24A
331
253
  5
249
331
254
  5
248
331
255
  5
247
331
256
  5
246
331
257
  5
245
331
258
  5
244
331
259
  5
243
331
25A
  5
242
331
25B
  5
241
331
25C
  5
240
331
25D
  5
23F
331
25E
  5
23E
331
25F
  5
23D
331
260
  5
23C
331
261
  5
23B
331
262
  5
23A
331
263
  5
239
331
264
  5
238
331
265
  5
237
331
266
  5
236
331
267
  5
235
331
268
  5
234
331
269
  5
233
331
26A
  5
232
331
26B
  5
231
331
26C
  5
230
331
26D
  5
22F
331
26E
  5
22E
331
26F
  5
22D
331
270
  5
22C
331
271
  5
22B
331
272
  5
22A
331
273
  5
229
331
274
  5
228
331
275
  5
227
331
276
  5
226
331
277
  5
225
331
278
  5
224
331
279
  5
223
331
27A
  5
222
331
27B
  5
221
331
27C
  5
220
331
27D
  5
21F
331
27E
  5
21E
331
27F
  5
21D
331
280
  5
21C
331
281
  5
21B
331
282
  5
21A
331
283
  5
219
331
284
  5
218
331
285
  5
217
331
286
  5
216
331
287
  5
215
331
288
  5
214
331
289
  5
213
331
28A
  5
212
331
28B
  5
211
331
28C
  5
210
331
28D
  5
20F
331
28E
  5
20E
331
28F
  5
20D
331
290
  5
20C
331
291
  5
20B
331
292
  5
20A
331
293
  5
209
331
294
  5
208
331
295
  5
207
331
296
  5
206
331
297
  5
205
331
298
  5
204
331
299
  5
203
331
29A
  5
202
331
29B
  5
201
331
29C
  5
200
331
29D
  5
1FF
331
29E
  5
1FE
331
29F
  5
1FD
331
2A0
  5
1FC
331
2A1
  5
1FB
331
2A2
  5
1FA
331
2A3
  5
1F9
331
2A4
  5
1F8
331
2A5
  5
1F7
331
2A6
  5
1F6
331
2A7
  5
1F5
331
2A8
  5
1F4
331
2A9
  5
1F3
331
2AA
  5
1F2
331
2AB
  5
1F1
331
2AC
  5
1F0
331
2AD
  5
1EF
331
2AE
  5
1EE
331
2AF
  5
1ED
331
2B0
  5
1EC
331
2B1
  5
1EB
331
2B2
  5
1EA
331
2B3
  5
1E9
331
2B4
  5
1E8
331
2B5
  5
1E7
331
2B6
  5
1E6
331
2B7
  5
1E5
331
2B8
  5
1E4
331
2B9
  5
1E3
331
2BA
  5
1E2
331
2BB
  5
1E1
331
2BC
  5
1E0
331
2BD
  5
1DF
331
2BE
  5
1DE
331
2BF
  5
1DD
331
2C0
  5
1DC
331
2C1
  5
1DB
331
2C2
  5
1DA
331
2C3
  5
1D9
331
2C4
  5
1D8
331
2C5
  5
1D7
331
2C6
  5
1D6
331
2C7
  5
1D5
331
2C8
  5
1D4
331
2C9
  5
1D3
331
2CA
  5
1D2
331
2CB
  5
1D1
331
2CC
  5
1D0
331
2CD
  5
1CF
331
2CE
  5
1CE
331
2CF
  5
1CD
331
2D0
  5
1CC
331
2D1
  5
1CB
331
2D2
  5
1CA
331
2D3
  5
1C9
331
2D4
  5
1C8
331
2D5
  5
1C7
331
2D6
  5
1C6
331
2D7
  5
1C5
331
2D8
  5
1C4
331
2D9
  5
1C3
331
2DA
  5
1C2
331
2DB
  5
1C1
331
2DC
  5
1C0
331
2DD
  5
1BF
331
2DE
  5
1BE
331
2DF
  5
1BD
331
2E0
  5
1BC
331
2E1
  5
1BB
331
2E2
  5
1BA
331
2E3
  5
1B9
331
2E4
  5
1B8
331
2E5
  5
1B7
331
2E6
  5
1B6
331
2F8
  5
1A4
331
2F9
  5
1A3
331
2FA
  5
1A2
331
2FB
  5
1A1
331
2FC
  5
1A0
331
2FD
  5
19F
331
2FE
  5
19E
331
2FF
  5
19D
331
300
  5
19C
331
301
  5
19B
331
302
  5
19A
331
303
  5
199
331
304
  5
198
331
305
  5
197
331
306
  5
196
331
307
  5
195
331
308
  5
194
331
309
  5
193
331
30A
  5
192
331
30B
  5
191
331
30C
  5
190
331
30D
  5
18F
331
30E
  5
18E
331
30F
  5
18D
331
310
  5
18C
331
311
  5
18B
331
312
  5
18A
331
313
  5
189
331
314
  5
188
331
315
  5
187
331
316
  5
186
331
317
  5
185
331
318
  5
184
331
319
  5
183
331
31A
  5
182
331
31B
  5
181
331
31C
  5
180
331
31D
  5
17F
331
31E
  5
17E
331
31F
  5
17D
331
320
  5
17C
331
321
  5
17B
331
322
  5
17A
331
323
  5
179
331
324
  5
178
331
325
  5
177
331
326
  5
176
331
327
  5
175
331
328
  5
174
331
329
  5
173
331
32A
  5
172
331
32B
  5
171
331
32C
  5
170
331
32D
  5
16F
331
32E
  5
16E
331
32F
  5
16D
331
330
  5
16C
331
331
  5
16B
331
332
  5
16A
331
333
  5
169
331
334
  5
168
331
335
  5
167
331
336
  5
166
331
337
  5
165
331
338
  5
164
331
339
  5
163
331
33A
  5
162
331
33B
  5
161
331
33C
  5
160
331
33D
  5
15F
331
33E
  5
15E
331
33F
  5
15D
331
340
  5
15C
331
341
  5
15B
331
342
  5
15A
331
343
  5
159
331
344
  5
158
331
345
  5
157
331
346
  5
156
331
347
  5
155
331
348
  5
154
331
349
  5
153
331
34A
  5
152
331
34B
  5
151
331
34C
  5
150
331
34D
  5
14F
331
34E
  5
14E
331
34F
  5
14D
331
350
  5
14C
331
351
  5
14B
331
352
  5
14A
331
353
  5
149
331
354
  5
148
331
355
  5
147
331
356
  5
146
331
357
  5
145
331
358
  5
144
331
359
  5
143
331
35A
  5
142
331
35B
  5
141
331
35C
  5
140
331
35D
  5
13F
331
35E
  5
13E
331
35F
  5
13D
331
360
  5
13C
331
361
  5
13B
331
362
  5
13A
331
363
  5
139
331
364
  5
138
331
365
  5
137
331
366
  5
136
331
367
  5
135
331
368
  5
134
331
369
  5
133
331
36A
  5
132
331
36B
  5
131
331
36C
  5
130
331
36D
  5
12F
331
36E
  5
12E
331
36F
  5
12D
331
370
  5
12C
331
371
  5
12B
331
372
  5
12A
331
373
  5
129
331
374
  5
128
331
375
  5
127
331
376
  5
126
331
377
  5
125
331
378
  5
124
331
379
  5
123
331
37A
  5
122
331
37B
  5
121
331
37C
  5
120
331
37D
  5
11F
331
37E
  5
11E
331
37F
  5
11D
331
380
  5
11C
331
381
  5
11B
331
382
  5
11A
331
383
  5
119
331
384
  5
118
331
385
  5
117
331
386
  5
116
331
387
  5
115
331
388
  5
114
331
389
  5
113
331
38A
  5
112
331
38B
  5
111
331
38C
  5
110
331
38D
  5
10F
331
38E
  5
10E
331
38F
  5
10D
331
0
  5
10C
331
0
  5
10B
331
0
  5
10A
331
0
  5
103
331
0
  5
102
331
0
  5
101
331
0
  5
100
331
3A0
  5
FC
331
3A1
  5
FB
331
3A2
  5
FA
331
3A3
  5
F9
331
3A4
  5
F8
331
3A5
  5
F7
331
3A6
  5
F6
331
3A7
  5
F5
331
3A8
  5
F4
331
0
  5
F3
331
0
  5
F2
331
0
  5
EC
331
0
  5
EB
331
0
  5
EA
331
0
  5
E9
331
0
  5
E8
331
0
  5
E7
331
0
  5
E6
331
0
  5
E5
331
0
  5
E4
331
0
  5
E3
331
0
  5
E2
331
0
  5
DB
331
0
  5
DA
331
0
  5
D9
331
0
  5
D8
331
0
  5
D7
331
0
  5
D6
331
3C7
  5
D5
331
3C8
  5
D4
331
3C9
  5
D3
331
3CA
  5
CF
331
3CB
  5
CE
331
3CC
  5
CD
331
3CD
  5
CC
331
3CE
  5
CB
331
3CF
  5
CA
331
3D0
  5
C9
331
3D1
  5
C8
331
3D2
  5
C7
331
3D3
  5
C6
331
3D4
  5
C5
331
3D5
  5
C2
331
3D6
  5
C0
331
3D7
  5
BE
331
3D8
  5
BD
331
3D9
  5
B9
331
3DA
  5
B8
331
3DB
  5
B7
331
3DC
  5
B6
331
3DD
  5
B5
331
3DE
  5
B3
331
3DF
  5
B2
331
3E0
  5
B1
331
3E1
  5
B0
331
3E2
  5
AF
331
3E3
  5
AE
331
3E4
  5
AD
331
3E5
  5
AC
331
3E6
  5
AB
331
3E7
  5
AA
331
3E8
  5
A9
331
3E9
  5
A8
331
3EA
  5
A7
331
3EB
  5
A6
331
3EC
  5
A5
331
3ED
  5
A4
331
3EE
  5
A3
331
3EF
  5
A2
331
3F0
  5
A1
331
3F1
  5
A0
331
3F2
  5
9F
331
3F3
  5
9E
331
3F4
  5
99
331
3F5
  5
98
331
3F6
  5
97
331
3F7
  5
96
331
3F8
  5
95
331
3F9
  5
94
331
3FA
  5
93
331
3FB
  5
92
331
3FC
  5
91
331
3FD
  5
90
331
3FE
  5
8F
331
3FF
  5
8E
331
400
  5
8D
331
401
  5
8C
331
402
  5
8B
331
403
  5
8A
331
404
  5
89
331
405
  5
88
331
406
  5
87
331
407
  5
86
331
408
  5
85
331
409
  5
84
331
40A
  5
83
331
40B
  5
82
331
40C
  5
7E
331
40D
  5
7D
331
40E
  5
7C
331
40F
  5
7B
331
410
  5
7A
331
411
  5
79
331
412
  5
78
331
413
  5
77
331
414
  5
76
331
415
  5
75
331
416
  5
74
331
417
  5
73
331
418
  5
72
331
419
  5
71
331
41A
  5
70
331
41B
  5
6F
331
41C
  5
6E
331
41D
  5
6D
331
41E
  5
6C
331
41F
  5
6B
331
420
  5
6A
331
421
  5
69
331
422
  5
68
331
423
  5
67
331
424
  5
66
331
425
  5
65
331
426
  5
64
331
427
  5
63
331
428
  5
62
331
429
  5
61
331
42A
  5
60
331
42B
  5
5F
331
42C
  5
5B
331
42D
  5
434
331
42E
  5
435
331
42F
  5
436
331
430
  5
437
331
431
  5
438
331
432
  5
439
331
433
  5
43A
331
434
  5
43E
331
435
  5
43F
331
436
  5
440
331
437
  5
441
331
438
  5
442
331
439
  5
443
331
43A
  5
444
331
43B
  5
445
331
43C
  5
446
331
43D
  5
447
331
43E
  5
448
331
43F
  5
449
331
440
  5
44A
331
441
  5
44B
331
442
  5
44C
331
443
  5
44D
331
444
  5
44E
331
445
  5
44F
331
446
  5
450
331
447
  5
451
331
448
  5
452
331
449
  5
453
331
44A
  5
454
331
44B
  5
455
331
44C
  5
459
331
44D
  5
45A
331
0
  5
46C
331
0
  5
46D
331
0
  5
46E
331
0
  5
46F
331
0
  5
470
331
0
  5
471
331
0
  5
472
331
0
  5
473
331
0
  5
474
331
0
  5
475
331
0
  5
476
331
0
  5
477
331
0
  5
478
331
0
  5
479
331
0
  5
47A
331
0
  5
47B
331
0
  5
47C
331
0
  5
47D
331
0
  5
47E
331
0
  5
47F
331
0
  5
480
331
0
  5
481
331
0
  5
482
331
0
  5
483
331
0
  5
484
331
0
  5
485
331
0
  5
486
331
0
  5
487
331
0
  5
488
331
0
  5
489
331
0
  5
48A
331
0
  5
48B
331
0
  5
48C
331
0
  5
48D
331
0
  5
48E
331
0
  5
48F
331
0
  5
490
331
0
  5
491
331
0
  5
492
331
0
  5
493
331
0
  5
494
331
0
  5
495
331
0
  5
496
331
0
  5
497
331
0
  5
498
331
0
  5
499
331
0
  5
49A
331
0
  5
49B
331
0
  5
49C
331
0
  5
49D
331
0
  5
49E
331
0
  5
49F
331
0
  5
4A0
331
0
  5
4A1
331
0
  5
4A2
331
0
  5
4A3
331
0
  5
4A4
331
0
  5
4A5
331
0
  5
4C3
331
0
  5
4C4
331
0
  5
4C5
331
0
  5
4C6
331
0
  5
4C7
331
0
  5
4C8
331
0
  5
4C9
331
0
  5
4CA
331
0
  5
4CB
331
0
  5
4CC
331
0
  5
4CD
331
0
  5
4CE
331
0
  5
4CF
331
0
  5
4D1
331
0
  5
4D2
331
0
  5
4D3
331
0
  5
4D4
331
0
  5
4D6
331
0
  5
4D7
331
0
  5
4D8
331
0
  5
4D9
331
0
  5
4DA
331
0
  5
4DB
331
4DA
  5
4DD
331
4DB
  5
4DE
331
4DC
  5
4DF
331
4DD
  5
4E1
331
4DE
  5
4E2
331
4E0
  5
4E3
331
4E1
  5
4E4
331
4E2
  5
4E5
331
4E3
  5
4E6
331
4E4
  5
4E7
331
4E5
  5
4E8
331
4E6
  5
4E9
331
4E7
  5
4EA
331
4E8
  5
4EB
331
4E9
  5
4EC
331
4EA
  5
4ED
331
4EB
  5
4EE
331
4EC
  5
4EF
331
4ED
  5
4F0
331
4EE
  5
4F1
331
4EF
  5
4F2
331
4F0
  5
4F4
331
4F1
  5
4F5
331
4F4
  5
4F6
331
0
  5
4F7
331
0
  5
4F8
331
0
  5
4F9
331
0
  5
4FA
331
0
  5
4FB
331
0
  5
4FC
331
0
  5
4FD
331
0
  5
4FE
331
0
  5
4FF
331
0
  5
50E
331
0
  5
50F
331
0
  5
510
331
0
  5
511
331
0
  5
512
331
0
  5
513
331
0
  5
514
331
0
  5
515
331
0
  5
516
331
0
  5
517
331
0
  5
518
331
0
  5
519
331
0
  5
51A
331
0
  5
51B
331
0
  5
51C
331
0
  5
51D
331
0
  5
524
331
0
  5
525
331
0
  5
526
331
0
  5
527
331
0
  5
528
331
0
  5
529
331
0
  5
52A
331
0
  5
52B
331
0
  5
52F
331
0
  5
530
  0
LAYOUT
  5
23
102
{ACAD_REACTORS
330
24
102
}
102
{ACAD_XDICTIONARY
360
25
102
}
330
24
100
AcDbPlotSettings
  1

  2
Bullzip PDF Printer.pc3
  4
A3
  6

 40
0.2
 41
0.0
 42
0.0
 43
0.0
 44
420.2
 45
297.1
 46
25.0
 47
12.0
 48
79.99999987333331
 49
0.0
140
1607.999996373333
141
1089.999997456667
142
1.0
143
4.0
 70
 11936
 72
     1
 73
     0
 74
     4
  7
monochrome.ctb
 75
    18
147
0.25
148
-79.99999987333331
149
0.0
100
AcDbLayout
  1
Model
 70
     0
 71
     0
 10
0.0
 20
0.0
 11
12.0
 21
9.0
 12
0.0
 22
0.0
 32
0.0
 14
79.99999987333331
 24
0.0
 34
0.0
 15
1607.999996373333
 25
1659.04940253631
 35
0.0
146
0.0
 13
0.0
 23
0.0
 33
0.0
 16
1.0
 26
0.0
 36
0.0
 17
0.0
 27
1.0
 37
0.0
 76
     0
330
1B
331
34
1001
ACAD_PSEXT
1000
Bullzip PDF Printer.pc3
1000
Bullzip PDF Printer
1000
BULLZIP
1000
Bullzip PDF Printer 10.1.0.1871
1070
     0
  0
LAYOUT
  5
2A
102
{ACAD_REACTORS
330
24
102
}
330
24
100
AcDbPlotSettings
  1

  2
SR-LP8300F
  4

  6

 40
0.0
 41
0.0
 42
0.0
 43
0.0
 44
0.0
 45
0.0
 46
0.0
 47
0.0
 48
0.0
 49
0.0
140
0.0
141
0.0
142
1.0
143
1.0
 70
   688
 72
     0
 73
     0
 74
     5
  7
monochrome.ctb
 75
    16
147
1.0
148
0.0
149
0.0
100
AcDbLayout
  1
ﾚｲｱｳﾄ1
 70
     0
 71
     1
 10
0.0
 20
0.0
 11
12.0
 21
9.0
 12
0.0
 22
0.0
 32
0.0
 14
1000000000000000E+20
 24
1000000000000000E+20
 34
1000000000000000E+20
 15
-1000000000000000E+20
 25
-1000000000000000E+20
 35
-1000000000000000E+20
146
0.0
 13
0.0
 23
0.0
 33
0.0
 16
1.0
 26
0.0
 36
0.0
 17
0.0
 27
1.0
 37
0.0
 76
     0
330
27
  0
MATERIAL
  5
5A
102
{ACAD_REACTORS
330
B
102
}
102
{ACAD_XDICTIONARY
360
5D4
102
}
330
B
100
AcDbMaterial
  1
ByBlock
 72
     0
 73
     2
 43
0.0208333333333333
 43
0.0
 43
0.0
 43
0.0
 43
0.0
 43
0.0208333333333333
 43
0.0
 43
0.0
 43
0.0
 43
0.0
 43
1.0
 43
0.0
 43
0.0
 43
0.0
 43
0.0
 43
1.0
 77
     0
 78
     2
 47
0.0208333333333333
 47
0.0
 47
0.0
 47
0.0
 47
0.0
 47
0.0208333333333333
 47
0.0
 47
0.0
 47
0.0
 47
0.0
 47
1.0
 47
0.0
 47
0.0
 47
0.0
 47
0.0
 47
1.0
171
     0
172
     2
 49
0.0208333333333333
 49
0.0
 49
0.0
 49
0.0
 49
0.0
 49
0.0208333333333333
 49
0.0
 49
0.0
 49
0.0
 49
0.0
 49
1.0
 49
0.0
 49
0.0
 49
0.0
 49
0.0
 49
1.0
175
     0
176
     2
142
0.0208333333333333
142
0.0
142
0.0
142
0.0
142
0.0
142
0.0208333333333333
142
0.0
142
0.0
142
0.0
142
0.0
142
1.0
142
0.0
142
0.0
142
0.0
142
0.0
142
1.0
179
     0
270
     2
144
0.0208333333333333
144
0.0
144
0.0
144
0.0
144
0.0
144
0.0208333333333333
144
0.0
144
0.0
144
0.0
144
0.0
144
1.0
144
0.0
144
0.0
144
0.0
144
0.0
144
1.0
274
     2
147
0.0208333333333333
147
0.0
147
0.0
147
0.0
147
0.0
147
0.0208333333333333
147
0.0
147
0.0
147
0.0
147
0.0
147
1.0
147
0.0
147
0.0
147
0.0
147
0.0
147
1.0
  0
MATERIAL
  5
14
102
{ACAD_REACTORS
330
B
102
}
102
{ACAD_XDICTIONARY
360
5D0
102
}
330
B
100
AcDbMaterial
  1
ByLayer
 72
     0
 73
     2
 43
0.0208333333333333
 43
0.0
 43
0.0
 43
0.0
 43
0.0
 43
0.0208333333333333
 43
0.0
 43
0.0
 43
0.0
 43
0.0
 43
1.0
 43
0.0
 43
0.0
 43
0.0
 43
0.0
 43
1.0
 77
     0
 78
     2
 47
0.0208333333333333
 47
0.0
 47
0.0
 47
0.0
 47
0.0
 47
0.0208333333333333
 47
0.0
 47
0.0
 47
0.0
 47
0.0
 47
1.0
 47
0.0
 47
0.0
 47
0.0
 47
0.0
 47
1.0
171
     0
172
     2
 49
0.0208333333333333
 49
0.0
 49
0.0
 49
0.0
 49
0.0
 49
0.0208333333333333
 49
0.0
 49
0.0
 49
0.0
 49
0.0
 49
1.0
 49
0.0
 49
0.0
 49
0.0
 49
0.0
 49
1.0
175
     0
176
     2
142
0.0208333333333333
142
0.0
142
0.0
142
0.0
142
0.0
142
0.0208333333333333
142
0.0
142
0.0
142
0.0
142
0.0
142
1.0
142
0.0
142
0.0
142
0.0
142
0.0
142
1.0
179
     0
270
     2
144
0.0208333333333333
144
0.0
144
0.0
144
0.0
144
0.0
144
0.0208333333333333
144
0.0
144
0.0
144
0.0
144
0.0
144
1.0
144
0.0
144
0.0
144
0.0
144
0.0
144
1.0
274
     2
147
0.0208333333333333
147
0.0
147
0.0
147
0.0
147
0.0
147
0.0208333333333333
147
0.0
147
0.0
147
0.0
147
0.0
147
1.0
147
0.0
147
0.0
147
0.0
147
0.0
147
1.0
  0
MATERIAL
  5
A
102
{ACAD_REACTORS
330
B
102
}
102
{ACAD_XDICTIONARY
360
5D2
102
}
330
B
100
AcDbMaterial
  1
Global
 72
     0
 73
     2
 43
0.0208333333333333
 43
0.0
 43
0.0
 43
0.0
 43
0.0
 43
0.0208333333333333
 43
0.0
 43
0.0
 43
0.0
 43
0.0
 43
1.0
 43
0.0
 43
0.0
 43
0.0
 43
0.0
 43
1.0
 77
     0
 78
     2
 47
0.0208333333333333
 47
0.0
 47
0.0
 47
0.0
 47
0.0
 47
0.0208333333333333
 47
0.0
 47
0.0
 47
0.0
 47
0.0
 47
1.0
 47
0.0
 47
0.0
 47
0.0
 47
0.0
 47
1.0
171
     0
172
     2
 49
0.0208333333333333
 49
0.0
 49
0.0
 49
0.0
 49
0.0
 49
0.0208333333333333
 49
0.0
 49
0.0
 49
0.0
 49
0.0
 49
1.0
 49
0.0
 49
0.0
 49
0.0
 49
0.0
 49
1.0
175
     0
176
     2
142
0.0208333333333333
142
0.0
142
0.0
142
0.0
142
0.0
142
0.0208333333333333
142
0.0
142
0.0
142
0.0
142
0.0
142
1.0
142
0.0
142
0.0
142
0.0
142
0.0
142
1.0
179
     0
270
     2
144
0.0208333333333333
144
0.0
144
0.0
144
0.0
144
0.0
144
0.0208333333333333
144
0.0
144
0.0
144
0.0
144
0.0
144
1.0
144
0.0
144
0.0
144
0.0
144
0.0
144
1.0
274
     2
147
0.0208333333333333
147
0.0
147
0.0
147
0.0
147
0.0
147
0.0208333333333333
147
0.0
147
0.0
147
0.0
147
0.0
147
1.0
147
0.0
147
0.0
147
0.0
147
0.0
147
1.0
1001
ACAD
1070
    -1
1070
     3
1070
     0
1000

1071
        0
  0
MLEADERSTYLE
  5
52C
102
{ACAD_REACTORS
330
4A9
102
}
102
{ACAD_XDICTIONARY
360
606
102
}
330
4A9
100
AcDbMLeaderStyle
170
     2
171
     1
172
     0
 90
        2
 40
0.0
 41
0.0
173
     1
 91
-1056964608
340
11
 92
       -2
290
     1
 42
0.09
291
     1
 43
0.36
  3
Standard
341
0
 44
0.18
300

342
12
174
     1
178
     6
175
     1
176
     0
 93
-1056964608
 45
0.18
292
     0
297
     0
 46
0.18
343
0
 94
-1056964608
 47
1.0
 49
1.0
140
1.0
293
     1
141
0.0
294
     1
177
     0
142
1.0
295
     0
296
     0
143
0.125
1001
ACAD_MLEADERVER
1070
     2
  0
MLINESTYLE
  5
18
102
{ACAD_REACTORS
330
19
102
}
330
19
100
AcDbMlineStyle
  2
STANDARD
 70
     0
  3

 62
     0
 51
90.0
 52
90.0
 71
     2
 49
0.5
 62
   256
  6
BYLAYER
 49
-0.5
 62
   256
  6
BYLAYER
  0
ACDBPLACEHOLDER
  5
7
102
{ACAD_REACTORS
330
8
102
}
330
8
  0
SCALE
  5
59
102
{ACAD_REACTORS
330
37
102
}
330
37
100
AcDbScale
 70
     0
300
1:1
140
1.0
141
1.0
290
     1
  0
TABLESTYLE
  5
531
102
{ACAD_REACTORS
330
4A8
102
}
330
4A8
100
AcDbTableStyle
  3
Standard
 70
     0
 71
     0
 40
0.06
 41
0.06
280
     0
281
     0
  7
STANDARD
140
0.18
170
     2
 62
     0
 63
   257
283
     0
274
    -2
284
     1
 64
     0
275
    -2
285
     1
 65
     0
276
    -2
286
     1
 66
     0
277
    -2
287
     1
 67
     0
278
    -2
288
     1
 68
     0
279
    -2
289
     1
 69
     0
  7
STANDARD
140
0.25
170
     5
 62
     0
 63
   257
283
     0
274
    -2
284
     1
 64
     0
275
    -2
285
     1
 65
     0
276
    -2
286
     1
 66
     0
277
    -2
287
     1
 67
     0
278
    -2
288
     1
 68
     0
279
    -2
289
     1
 69
     0
  7
STANDARD
140
0.18
170
     5
 62
     0
 63
   257
283
     0
274
    -2
284
     1
 64
     0
275
    -2
285
     1
 65
     0
276
    -2
286
     1
 66
     0
277
    -2
287
     1
 67
     0
278
    -2
288
     1
 68
     0
279
    -2
289
     1
 69
     0
  0
VISUALSTYLE
  5
4B1
102
{ACAD_REACTORS
330
31
102
}
102
{ACAD_XDICTIONARY
360
5E2
102
}
330
31
100
AcDbVisualStyle
  2
2dWireframe
 70
     4
 71
     0
 72
     2
 73
     0
 90
        0
 40
0.6
 41
30.0
 62
     5
 63
     7
 74
     1
 91
        4
 64
     7
 65
   257
 75
     1
175
     1
 42
1.0
 92
        0
 66
   257
 43
1.0
 76
     1
 77
     6
 78
     2
 67
     7
 79
     5
170
     0
171
     0
290
     0
174
     0
 93
        1
 44
0.0
173
     0
291
     0
 45
0.0
1001
ACAD
1000
AcDbSavedByObjectVersion
1070
     0
  0
VISUALSTYLE
  5
4B3
102
{ACAD_REACTORS
330
31
102
}
102
{ACAD_XDICTIONARY
360
5E6
102
}
330
31
100
AcDbVisualStyle
  2
Basic
 70
     7
 71
     1
 72
     0
 73
     1
 90
        0
 40
0.6
 41
30.0
 62
     5
 63
     7
 74
     0
 91
        4
 64
     7
 65
   257
 75
     1
175
     1
 42
1.0
 92
        8
 66
     7
 43
1.0
 76
     1
 77
     6
 78
     2
 67
     7
 79
     5
170
     0
171
     0
290
     0
174
     0
 93
        1
 44
0.0
173
     0
291
     1
 45
0.0
1001
ACAD
1000
AcDbSavedByObjectVersion
1070
     0
  0
VISUALSTYLE
  5
4B6
102
{ACAD_REACTORS
330
31
102
}
102
{ACAD_XDICTIONARY
360
5EC
102
}
330
31
100
AcDbVisualStyle
  2
Brighten
 70
    12
 71
     2
 72
     2
 73
     0
 90
        0
 40
0.6
 41
30.0
 62
     5
 63
     7
 74
     1
 91
        4
 64
     7
 65
   257
 75
     1
175
     1
 42
1.0
 92
        8
 66
     7
 43
1.0
 76
     1
 77
     6
 78
     2
 67
     7
 79
     5
170
     0
171
     0
290
     0
174
     0
 93
        1
 44
50.0
173
     0
291
     1
 45
0.0
1001
ACAD
1000
AcDbSavedByObjectVersion
1070
     0
  0
VISUALSTYLE
  5
4BA
102
{ACAD_REACTORS
330
31
102
}
102
{ACAD_XDICTIONARY
360
5F4
102
}
330
31
100
AcDbVisualStyle
  2
ColorChange
 70
    16
 71
     2
 72
     2
 73
     3
 90
        0
 40
0.6
 41
30.0
 62
     5
 63
     8
 74
     1
 91
        4
 64
     7
 65
   257
 75
     1
175
     1
 42
1.0
 92
        8
 66
     8
 43
1.0
 76
     1
 77
     6
 78
     2
 67
     7
 79
     5
170
     0
171
     0
290
     0
174
     0
 93
        1
 44
0.0
173
     0
291
     1
 45
0.0
1001
ACAD
1000
AcDbSavedByObjectVersion
1070
     0
  0
VISUALSTYLE
  5
4B4
102
{ACAD_REACTORS
330
31
102
}
102
{ACAD_XDICTIONARY
360
5E8
102
}
330
31
100
AcDbVisualStyle
  2
Conceptual
 70
     9
 71
     3
 72
     2
 73
     0
 90
        0
 40
0.6
 41
30.0
 62
     5
 63
     7
 74
     2
 91
        2
 64
     7
 65
   257
 75
     1
175
     1
 42
40.0
 92
        8
 66
     7
 43
1.0
 76
     1
 77
     6
 78
     2
 67
     7
 79
     3
170
     0
171
     0
290
     0
174
     0
 93
        1
 44
0.0
173
     0
291
     0
 45
0.0
1001
ACAD
1000
AcDbSavedByObjectVersion
1070
     0
  0
VISUALSTYLE
  5
4B5
102
{ACAD_REACTORS
330
31
102
}
102
{ACAD_XDICTIONARY
360
5EA
102
}
330
31
100
AcDbVisualStyle
  2
Dim
 70
    11
 71
     2
 72
     2
 73
     0
 90
        0
 40
0.6
 41
30.0
 62
     5
 63
     7
 74
     1
 91
        4
 64
     7
 65
   257
 75
     1
175
     1
 42
1.0
 92
        8
 66
     7
 43
1.0
 76
     1
 77
     6
 78
     2
 67
     7
 79
     5
170
     0
171
     0
290
     0
174
     0
 93
        1
 44
-50.0
173
     0
291
     1
 45
0.0
1001
ACAD
1000
AcDbSavedByObjectVersion
1070
     0
  0
VISUALSTYLE
  5
4BD
102
{ACAD_REACTORS
330
31
102
}
102
{ACAD_XDICTIONARY
360
5FA
102
}
330
31
100
AcDbVisualStyle
  2
EdgeColorOff
 70
    22
 71
     2
 72
     2
 73
     0
 90
        0
 40
0.6
 41
30.0
 62
     5
 63
     7
 74
     1
 91
        4
 64
     7
 65
   257
 75
     1
175
     1
 42
1.0
 92
        8
 66
     7
 43
1.0
 76
     1
 77
     6
 78
     2
 67
     7
 79
     5
170
     0
171
     0
290
     0
174
     0
 93
        1
 44
0.0
173
     0
291
     1
 45
0.0
1001
ACAD
1000
AcDbSavedByObjectVersion
1070
     0
  0
VISUALSTYLE
  5
4B9
102
{ACAD_REACTORS
330
31
102
}
102
{ACAD_XDICTIONARY
360
5F2
102
}
330
31
100
AcDbVisualStyle
  2
Facepattern
 70
    15
 71
     2
 72
     2
 73
     0
 90
        0
 40
0.6
 41
30.0
 62
     5
 63
     7
 74
     1
 91
        4
 64
     7
 65
   257
 75
     1
175
     1
 42
1.0
 92
        8
 66
     7
 43
1.0
 76
     1
 77
     6
 78
     2
 67
     7
 79
     5
170
     0
171
     0
290
     0
174
     0
 93
        1
 44
0.0
173
     0
291
     1
 45
0.0
1001
ACAD
1000
AcDbSavedByObjectVersion
1070
     0
  0
VISUALSTYLE
  5
4AD
102
{ACAD_REACTORS
330
31
102
}
102
{ACAD_XDICTIONARY
360
5DA
102
}
330
31
100
AcDbVisualStyle
  2
Flat
 70
     0
 71
     2
 72
     1
 73
     1
 90
        2
 40
0.6
 41
30.0
 62
     5
 63
     7
 74
     0
 91
        4
 64
     7
 65
   257
 75
     1
175
     1
 42
1.0
 92
        8
 66
     7
 43
1.0
 76
     1
 77
     6
 78
     2
 67
     7
 79
     5
170
     0
171
     0
290
     0
174
     0
 93
       13
 44
0.0
173
     0
291
     1
 45
0.0
1001
ACAD
1000
AcDbSavedByObjectVersion
1070
     0
  0
VISUALSTYLE
  5
4AE
102
{ACAD_REACTORS
330
31
102
}
102
{ACAD_XDICTIONARY
360
5DC
102
}
330
31
100
AcDbVisualStyle
  2
FlatWithEdges
 70
     1
 71
     2
 72
     1
 73
     1
 90
        2
 40
0.6
 41
30.0
 62
     5
 63
     7
 74
     1
 91
        4
 64
     7
 65
   257
 75
     1
175
     1
 42
1.0
 92
        0
 66
   257
 43
1.0
 76
     1
 77
     6
 78
     2
 67
     7
 79
     5
170
     0
171
     0
290
     0
174
     0
 93
       13
 44
0.0
173
     0
291
     1
 45
0.0
1001
ACAD
1000
AcDbSavedByObjectVersion
1070
     0
  0
VISUALSTYLE
  5
4AF
102
{ACAD_REACTORS
330
31
102
}
102
{ACAD_XDICTIONARY
360
5DE
102
}
330
31
100
AcDbVisualStyle
  2
Gouraud
 70
     2
 71
     2
 72
     2
 73
     1
 90
        2
 40
0.6
 41
30.0
 62
     5
 63
     7
 74
     0
 91
        4
 64
     7
 65
   257
 75
     1
175
     1
 42
1.0
 92
        0
 66
     7
 43
1.0
 76
     1
 77
     6
 78
     2
 67
     7
 79
     5
170
     0
171
     0
290
     0
174
     0
 93
       13
 44
0.0
173
     0
291
     1
 45
0.0
1001
ACAD
1000
AcDbSavedByObjectVersion
1070
     0
  0
VISUALSTYLE
  5
4B0
102
{ACAD_REACTORS
330
31
102
}
102
{ACAD_XDICTIONARY
360
5E0
102
}
330
31
100
AcDbVisualStyle
  2
GouraudWithEdges
 70
     3
 71
     2
 72
     2
 73
     1
 90
        2
 40
0.6
 41
30.0
 62
     5
 63
     7
 74
     1
 91
        4
 64
     7
 65
   257
 75
     1
175
     1
 42
1.0
 92
        0
 66
   257
 43
1.0
 76
     1
 77
     6
 78
     2
 67
     7
 79
     5
170
     0
171
     0
290
     0
174
     0
 93
       13
 44
0.0
173
     0
291
     1
 45
0.0
1001
ACAD
1000
AcDbSavedByObjectVersion
1070
     0
  0
VISUALSTYLE
  5
4B2
102
{ACAD_REACTORS
330
31
102
}
102
{ACAD_XDICTIONARY
360
5E4
102
}
330
31
100
AcDbVisualStyle
  2
Hidden
 70
     6
 71
     1
 72
     2
 73
     2
 90
        0
 40
0.6
 41
30.0
 62
     5
 63
     7
 74
     2
 91
        2
 64
     7
 65
   257
 75
     2
175
     1
 42
40.0
 92
        0
 66
   257
 43
1.0
 76
     1
 77
     6
 78
     2
 67
     7
 79
     3
170
     0
171
     0
290
     0
174
     0
 93
        1
 44
0.0
173
     0
291
     0
 45
0.0
1001
ACAD
1000
AcDbSavedByObjectVersion
1070
     0
  0
VISUALSTYLE
  5
4BB
102
{ACAD_REACTORS
330
31
102
}
102
{ACAD_XDICTIONARY
360
5F6
102
}
330
31
100
AcDbVisualStyle
  2
JitterOff
 70
    20
 71
     2
 72
     2
 73
     0
 90
        0
 40
0.6
 41
30.0
 62
     5
 63
     7
 74
     1
 91
        4
 64
     7
 65
   257
 75
     1
175
     1
 42
1.0
 92
       10
 66
     7
 43
1.0
 76
     1
 77
     6
 78
     2
 67
     7
 79
     5
170
     0
171
     0
290
     0
174
     0
 93
        1
 44
0.0
173
     0
291
     1
 45
0.0
1001
ACAD
1000
AcDbSavedByObjectVersion
1070
     0
  0
VISUALSTYLE
  5
4B8
102
{ACAD_REACTORS
330
31
102
}
102
{ACAD_XDICTIONARY
360
5F0
102
}
330
31
100
AcDbVisualStyle
  2
Linepattern
 70
    14
 71
     2
 72
     2
 73
     0
 90
        0
 40
0.6
 41
30.0
 62
     5
 63
     7
 74
     1
 91
        4
 64
     7
 65
   257
 75
     7
175
     7
 42
1.0
 92
        8
 66
     7
 43
1.0
 76
     1
 77
     6
 78
     2
 67
     7
 79
     5
170
     0
171
     0
290
     0
174
     0
 93
        1
 44
0.0
173
     0
291
     1
 45
0.0
1001
ACAD
1000
AcDbSavedByObjectVersion
1070
     0
  0
VISUALSTYLE
  5
4BC
102
{ACAD_REACTORS
330
31
102
}
102
{ACAD_XDICTIONARY
360
5F8
102
}
330
31
100
AcDbVisualStyle
  2
OverhangOff
 70
    21
 71
     2
 72
     2
 73
     0
 90
        0
 40
0.6
 41
30.0
 62
     5
 63
     7
 74
     1
 91
        4
 64
     7
 65
   257
 75
     1
175
     1
 42
1.0
 92
        9
 66
     7
 43
1.0
 76
     1
 77
     6
 78
     2
 67
     7
 79
     5
170
     0
171
     0
290
     0
174
     0
 93
        1
 44
0.0
173
     0
291
     1
 45
0.0
1001
ACAD
1000
AcDbSavedByObjectVersion
1070
     0
  0
VISUALSTYLE
  5
32
102
{ACAD_REACTORS
330
31
102
}
102
{ACAD_XDICTIONARY
360
5D6
102
}
330
31
100
AcDbVisualStyle
  2
Realistic
 70
     8
 71
     2
 72
     3
 73
     0
 90
        2
 40
0.6
 41
30.0
 62
     5
 63
     7
 74
     0
 91
        0
 64
     7
 65
   257
 75
     1
175
     1
 42
1.0
 92
        8
 66
   257
 43
1.0
 76
     1
 77
     6
 78
     2
 67
     7
 79
     3
170
     0
171
     0
290
     0
174
     0
 93
       13
 44
0.0
173
     0
291
     0
 45
0.0
1001
ACAD
1000
AcDbSavedByObjectVersion
1070
     0
  0
VISUALSTYLE
  5
4C2
102
{ACAD_REACTORS
330
31
102
}
102
{ACAD_XDICTIONARY
360
604
102
}
330
31
100
AcDbVisualStyle
  2
Shaded
 70
    27
 71
     2
 72
     2
 73
     1
 90
        2
 40
0.6
 41
30.0
 62
     5
 63
     7
 74
     0
 91
        4
 64
     7
 65
   257
 75
     1
175
     1
 42
1.0
 92
        8
 66
   257
 43
1.0
 76
     1
 77
     6
 78
     2
 67
   251
 79
     3
170
     0
171
     0
290
     0
174
     0
 93
        5
 44
0.0
173
     0
291
     0
 45
0.0
1001
ACAD
1000
AcDbSavedByObjectVersion
1070
     0
  0
VISUALSTYLE
  5
4C1
102
{ACAD_REACTORS
330
31
102
}
102
{ACAD_XDICTIONARY
360
602
102
}
330
31
100
AcDbVisualStyle
  2
Shaded with edges
 70
    26
 71
     2
 72
     2
 73
     1
 90
        2
 40
0.6
 41
30.0
 62
     5
 63
     7
 74
     1
 91
       10
 64
     7
 65
   257
 75
     2
175
     1
 42
1.0
 92
        8
 66
   257
 43
1.0
 76
     1
 77
     6
 78
     2
 67
     7
 79
     3
170
     0
171
     0
290
     0
174
     0
 93
        5
 44
0.0
173
     0
291
     0
 45
0.0
1001
ACAD
1000
AcDbSavedByObjectVersion
1070
     0
  0
VISUALSTYLE
  5
4BE
102
{ACAD_REACTORS
330
31
102
}
102
{ACAD_XDICTIONARY
360
5FC
102
}
330
31
100
AcDbVisualStyle
  2
Shades of Gray
 70
    23
 71
     2
 72
     2
 73
     3
 90
        0
 40
0.6
 41
30.0
 62
     5
 63
     7
 74
     2
 91
        2
 64
     7
 65
     7
 75
     1
175
     1
 42
40.0
 92
        8
 66
     7
 43
1.0
 76
     1
 77
     6
 78
     2
 67
     7
 79
     3
170
     0
171
     0
290
     0
174
     0
 93
        1
 44
0.0
173
     0
291
     0
 45
0.0
1001
ACAD
1000
AcDbSavedByObjectVersion
1070
     0
  0
VISUALSTYLE
  5
4BF
102
{ACAD_REACTORS
330
31
102
}
102
{ACAD_XDICTIONARY
360
5FE
102
}
330
31
100
AcDbVisualStyle
  2
Sketchy
 70
    24
 71
     1
 72
     2
 73
     2
 90
        0
 40
0.6
 41
30.0
 62
     5
 63
     7
 74
     2
 91
        2
 64
     7
 65
     7
 75
     1
175
     1
 42
40.0
 92
       11
 66
     7
 43
1.0
 76
     1
 77
     6
 78
     2
 67
     7
 79
     6
170
     0
171
     0
290
     0
174
     0
 93
        1
 44
0.0
173
     0
291
     0
 45
0.0
1001
ACAD
1000
AcDbSavedByObjectVersion
1070
     0
  0
VISUALSTYLE
  5
4B7
102
{ACAD_REACTORS
330
31
102
}
102
{ACAD_XDICTIONARY
360
5EE
102
}
330
31
100
AcDbVisualStyle
  2
Thicken
 70
    13
 71
     2
 72
     2
 73
     0
 90
        0
 40
0.6
 41
30.0
 62
     5
 63
     7
 74
     1
 91
        4
 64
     7
 65
   257
 75
     1
175
     1
 42
1.0
 92
       12
 66
     7
 43
1.0
 76
     1
 77
     6
 78
     2
 67
     7
 79
     5
170
     0
171
     0
290
     0
174
     0
 93
        1
 44
0.0
173
     0
291
     1
 45
0.0
1001
ACAD
1000
AcDbSavedByObjectVersion
1070
     0
  0
VISUALSTYLE
  5
33
102
{ACAD_REACTORS
330
31
102
}
102
{ACAD_XDICTIONARY
360
5D8
102
}
330
31
100
AcDbVisualStyle
  2
Wireframe
 70
     5
 71
     0
 72
     2
 73
     0
 90
        0
 40
0.6
 41
30.0
 62
     5
 63
     7
 74
     1
 91
        4
 64
     7
 65
   257
 75
     1
175
     1
 42
1.0
 92
        0
 66
   257
 43
1.0
 76
     1
 77
     6
 78
     2
 67
     7
 79
     3
170
     0
171
     0
290
     0
174
     0
 93
        1
 44
0.0
173
     0
291
     0
 45
0.0
1001
ACAD
1000
AcDbSavedByObjectVersion
1070
     0
  0
VISUALSTYLE
  5
4C0
102
{ACAD_REACTORS
330
31
102
}
102
{ACAD_XDICTIONARY
360
600
102
}
330
31
100
AcDbVisualStyle
  2
X-Ray
 70
    25
 71
     2
 72
     2
 73
     1
 90
        1
 40
0.5
 41
30.0
 62
     5
 63
     7
 74
     1
 91
        0
 64
     7
 65
   257
 75
     1
175
     1
 42
1.0
 92
        8
 66
     7
 43
1.0
 76
     1
 77
     6
 78
     2
 67
     7
 79
     3
170
     0
171
     0
290
     0
174
     0
 93
       13
 44
0.0
173
     0
291
     0
 45
0.0
1001
ACAD
1000
AcDbSavedByObjectVersion
1070
     0
  0
XRECORD
  5
5CB
102
{ACAD_REACTORS
330
5CA
102
}
330
5CA
100
AcDbXrecord
280
     1
340
30
  0
XRECORD
  5
5CC
102
{ACAD_REACTORS
330
5CA
102
}
330
5CA
100
AcDbXrecord
280
     1
340
B
  0
DICTIONARYVAR
  5
4A7
102
{ACAD_REACTORS
330
4A6
102
}
330
4A6
100
DictionaryVariables
280
     0
  1
1:1
  0
DICTIONARYVAR
  5
52E
102
{ACAD_REACTORS
330
4A6
102
}
330
4A6
100
DictionaryVariables
280
     0
  1
Standard
  0
DICTIONARYVAR
  5
532
102
{ACAD_REACTORS
330
4A6
102
}
330
4A6
100
DictionaryVariables
280
     0
  1
Standard
  0
DICTIONARYVAR
  5
589
102
{ACAD_REACTORS
330
4A6
102
}
330
4A6
100
DictionaryVariables
280
     0
  1
0
  0
DICTIONARYVAR
  5
58A
102
{ACAD_REACTORS
330
4A6
102
}
330
4A6
100
DictionaryVariables
280
     0
  1
1
  0
DICTIONARYVAR
  5
591
102
{ACAD_REACTORS
330
4A6
102
}
330
4A6
100
DictionaryVariables
280
     0
  1
1
  0
DICTIONARYVAR
  5
4AA
102
{ACAD_REACTORS
330
4A6
102
}
330
4A6
100
DictionaryVariables
280
     0
  1
0
  0
DICTIONARY
  5
25
330
23
100
AcDbDictionary
280
     1
281
     1
  0
DICTIONARY
  5
5D4
330
5A
100
AcDbDictionary
280
     1
281
     1
  3
ACAD_XREC_ROUNDTRIP
360
5D5
  0
DICTIONARY
  5
5D0
330
14
100
AcDbDictionary
280
     1
281
     1
  3
ACAD_XREC_ROUNDTRIP
360
5D1
  0
DICTIONARY
  5
5D2
330
A
100
AcDbDictionary
280
     1
281
     1
  3
ACAD_XREC_ROUNDTRIP
360
5D3
  0
DICTIONARY
  5
606
330
52C
100
AcDbDictionary
280
     1
281
     1
  3
ACAD_XREC_ROUNDTRIP
360
607
  0
DICTIONARY
  5
5E2
330
4B1
100
AcDbDictionary
280
     1
281
     1
  3
ACAD_XREC_ROUNDTRIP
360
5E3
  0
DICTIONARY
  5
5E6
330
4B3
100
AcDbDictionary
280
     1
281
     1
  3
ACAD_XREC_ROUNDTRIP
360
5E7
  0
DICTIONARY
  5
5EC
330
4B6
100
AcDbDictionary
280
     1
281
     1
  3
ACAD_XREC_ROUNDTRIP
360
5ED
  0
DICTIONARY
  5
5F4
330
4BA
100
AcDbDictionary
280
     1
281
     1
  3
ACAD_XREC_ROUNDTRIP
360
5F5
  0
DICTIONARY
  5
5E8
330
4B4
100
AcDbDictionary
280
     1
281
     1
  3
ACAD_XREC_ROUNDTRIP
360
5E9
  0
DICTIONARY
  5
5EA
330
4B5
100
AcDbDictionary
280
     1
281
     1
  3
ACAD_XREC_ROUNDTRIP
360
5EB
  0
DICTIONARY
  5
5FA
330
4BD
100
AcDbDictionary
280
     1
281
     1
  3
ACAD_XREC_ROUNDTRIP
360
5FB
  0
DICTIONARY
  5
5F2
330
4B9
100
AcDbDictionary
280
     1
281
     1
  3
ACAD_XREC_ROUNDTRIP
360
5F3
  0
DICTIONARY
  5
5DA
330
4AD
100
AcDbDictionary
280
     1
281
     1
  3
ACAD_XREC_ROUNDTRIP
360
5DB
  0
DICTIONARY
  5
5DC
330
4AE
100
AcDbDictionary
280
     1
281
     1
  3
ACAD_XREC_ROUNDTRIP
360
5DD
  0
DICTIONARY
  5
5DE
330
4AF
100
AcDbDictionary
280
     1
281
     1
  3
ACAD_XREC_ROUNDTRIP
360
5DF
  0
DICTIONARY
  5
5E0
330
4B0
100
AcDbDictionary
280
     1
281
     1
  3
ACAD_XREC_ROUNDTRIP
360
5E1
  0
DICTIONARY
  5
5E4
330
4B2
100
AcDbDictionary
280
     1
281
     1
  3
ACAD_XREC_ROUNDTRIP
360
5E5
  0
DICTIONARY
  5
5F6
330
4BB
100
AcDbDictionary
280
     1
281
     1
  3
ACAD_XREC_ROUNDTRIP
360
5F7
  0
DICTIONARY
  5
5F0
330
4B8
100
AcDbDictionary
280
     1
281
     1
  3
ACAD_XREC_ROUNDTRIP
360
5F1
  0
DICTIONARY
  5
5F8
330
4BC
100
AcDbDictionary
280
     1
281
     1
  3
ACAD_XREC_ROUNDTRIP
360
5F9
  0
DICTIONARY
  5
5D6
330
32
100
AcDbDictionary
280
     1
281
     1
  3
ACAD_XREC_ROUNDTRIP
360
5D7
  0
DICTIONARY
  5
604
330
4C2
100
AcDbDictionary
280
     1
281
     1
  3
ACAD_XREC_ROUNDTRIP
360
605
  0
DICTIONARY
  5
602
330
4C1
100
AcDbDictionary
280
     1
281
     1
  3
ACAD_XREC_ROUNDTRIP
360
603
  0
DICTIONARY
  5
5FC
330
4BE
100
AcDbDictionary
280
     1
281
     1
  3
ACAD_XREC_ROUNDTRIP
360
5FD
  0
DICTIONARY
  5
5FE
330
4BF
100
AcDbDictionary
280
     1
281
     1
  3
ACAD_XREC_ROUNDTRIP
360
5FF
  0
DICTIONARY
  5
5EE
330
4B7
100
AcDbDictionary
280
     1
281
     1
  3
ACAD_XREC_ROUNDTRIP
360
5EF
  0
DICTIONARY
  5
5D8
330
33
100
AcDbDictionary
280
     1
281
     1
  3
ACAD_XREC_ROUNDTRIP
360
5D9
  0
DICTIONARY
  5
600
330
4C0
100
AcDbDictionary
280
     1
281
     1
  3
ACAD_XREC_ROUNDTRIP
360
601
  0
XRECORD
  5
5D5
102
{ACAD_REACTORS
330
5D4
102
}
330
5D4
100
AcDbXrecord
280
     1
102
MATERIAL
148
0.0
149
0.0
149
0.0
 93
        0
 94
      127
282
     0
 72
     0
 77
     0
171
     0
175
     0
179
     0
273
     0
  0
XRECORD
  5
5D1
102
{ACAD_REACTORS
330
5D0
102
}
330
5D0
100
AcDbXrecord
280
     1
102
MATERIAL
148
0.0
149
0.0
149
0.0
 93
        0
 94
      127
282
     0
 72
     0
 77
     0
171
     0
175
     0
179
     0
273
     0
  0
XRECORD
  5
5D3
102
{ACAD_REACTORS
330
5D2
102
}
330
5D2
100
AcDbXrecord
280
     1
102
MATERIAL
148
0.0
149
0.0
149
0.0
 93
        0
 94
      127
282
     0
 72
     0
 77
     0
171
     0
175
     0
179
     0
273
     0
  0
XRECORD
  5
607
102
{ACAD_REACTORS
330
606
102
}
330
606
100
AcDbXrecord
280
     1
102
ACAD_ROUNDTRIP_2010_MLEADER_STYLE
  0
XRECORD
  5
5E3
102
{ACAD_REACTORS
330
5E2
102
}
330
5E2
100
AcDbXrecord
280
     1
102
RTVSPropertyOp0
 70
     1
102
RTVSPropertyOp1
 70
     1
102
RTVSPropertyOp2
 70
     1
102
RTVSPropertyOp3
 70
     1
102
RTVSPropertyOp4
 70
     1
102
RTVSPropertyOp5
 70
     1
102
RTVSPropertyOp6
 70
     1
102
RTVSPropertyOp7
 70
     1
102
RTVSPropertyOp8
 70
     1
102
RTVSPropertyOp9
 70
     1
102
RTVSPropertyOp10
 70
     1
102
RTVSPropertyOp11
 70
     1
102
RTVSPropertyOp12
 70
     1
102
RTVSPropertyOp13
 70
     1
102
RTVSPropertyOp14
 70
     1
102
RTVSPropertyOp15
 70
     1
102
RTVSPropertyOp16
 70
     1
102
RTVSPropertyOp17
 70
     1
102
RTVSPropertyOp18
 70
     1
102
RTVSPropertyOp19
 70
     1
102
RTVSPropertyOp20
 70
     1
102
RTVSPropertyOp21
 70
     1
102
RTVSPropertyOp22
 70
     1
102
RTVSPropertyOp23
 70
     1
102
RTVSPropertyOp24
 70
     1
102
RTVSPropertyOp25
 70
     1
102
RTVSPropertyOp26
 70
     1
102
RTVSPropertyOp27
 70
     1
102
RTVSPropertyOp28
 70
     1
102
RTVSPropertyOp29
 70
     1
102
RTVSPropertyOp30
 70
     1
102
RTVSPropertyOp31
 70
     1
102
RTVSPropertyOp32
 70
     1
102
RTVSPropertyOp33
 70
     1
102
RTVSPropertyOp34
 70
     1
102
RTVSPropertyOp35
 70
     1
102
RTVSPropertyOp36
 70
     1
102
RTVSPropertyOp37
 70
     1
102
RTVSPropertyOp38
 70
     1
102
RTVSPropertyOp39
 70
     1
102
RTVSPropertyOp40
 70
     1
102
RTVSPropertyOp41
 70
     1
102
RTVSPropertyOp42
 70
     1
102
RTVSPropertyOp43
 70
     1
102
RTVSPropertyOp44
 70
     1
102
RTVSPropertyOp45
 70
     1
102
RTVSPropertyOp46
 70
     1
102
RTVSPropertyOp47
 70
     1
102
RTVSPropertyOp48
 70
     1
102
RTVSPropertyOp49
 70
     1
102
RTVSPropertyOp50
 70
     1
102
RTVSPropertyOp51
 70
     0
102
RTVSPropertyOp52
 70
     0
102
RTVSPropertyOp53
 70
     1
102
RTVSPropertyOp54
 70
     1
102
RTVSPropertyOp55
 70
     1
102
RTVSPropertyOp56
 70
     1
102
RTVSPropertyOp57
 70
     1
102
RTVSPost2010Prop28
280
     1
102
RTVSPost2010PropOp28
 70
     1
102
RTVSPost2010Prop29
280
     1
102
RTVSPost2010PropOp29
 70
     1
102
RTVSPost2010Prop30
280
     0
102
RTVSPost2010PropOp30
 70
     1
102
RTVSPost2010Prop31
280
     0
102
RTVSPost2010PropOp31
 70
     1
102
RTVSPost2010Prop32
280
     0
102
RTVSPost2010PropOp32
 70
     1
102
RTVSPost2010Prop33
280
     0
102
RTVSPost2010PropOp33
 70
     1
102
RTVSPost2010Prop34
280
     0
102
RTVSPost2010PropOp34
 70
     1
102
RTVSPost2010Prop35
280
     0
102
RTVSPost2010PropOp35
 70
     1
102
RTVSPost2010Prop36
280
     0
102
RTVSPost2010PropOp36
 70
     1
102
RTVSPost2010Prop37
 90
       50
102
RTVSPost2010PropOp37
 70
     1
102
RTVSPost2010Prop38
140
0.0
102
RTVSPost2010PropOp38
 70
     1
102
RTVSPost2010Prop39
140
1.0
102
RTVSPost2010PropOp39
 70
     1
102
RTVSPost2010Prop40
 90
        0
102
RTVSPost2010PropOp40
 70
     1
102
RTVSPost2010Prop41ColorIndex
 90
       18
102
RTVSPost2010Prop41ColorRGB
 90
        0
102
RTVSPost2010PropOp41
 70
     1
102
RTVSPost2010Prop42
 90
       50
102
RTVSPost2010PropOp42
 70
     1
102
RTVSPost2010Prop43
 90
        3
102
RTVSPost2010PropOp43
 70
     1
102
RTVSPost2010Prop44ColorIndex
 90
        5
102
RTVSPost2010Prop44ColorRGB
 90
      255
102
RTVSPost2010PropOp44
 70
     1
102
RTVSPost2010Prop45
280
     0
102
RTVSPost2010PropOp45
 70
     1
102
RTVSPost2010Prop46
 90
       50
102
RTVSPost2010PropOp46
 70
     1
102
RTVSPost2010Prop47
 90
       50
102
RTVSPost2010PropOp47
 70
     1
102
RTVSPost2010Prop48
 90
       50
102
RTVSPost2010PropOp48
 70
     1
102
RTVSPost2010Prop49
280
     0
102
RTVSPost2010PropOp49
 70
     1
102
RTVSPost2010Prop50
 90
       50
102
RTVSPost2010PropOp50
 70
     1
102
RTVSPost2010Prop51ColorIndex
 90
      256
102
RTVSPost2010Prop51ColorRGB
 90
-16777216
102
RTVSPost2010PropOp51
 70
     0
102
RTVSPost2010Prop52
140
1.0
102
RTVSPost2010PropOp52
 70
     0
102
RTVSPost2010Prop53
 90
        2
102
RTVSPost2010PropOp53
 70
     1
102
RTVSPost2010Prop54
  1
strokes_ogs.tif
102
RTVSPost2010PropOp54
 70
     1
102
RTVSPost2010Prop55
280
     0
102
RTVSPost2010PropOp55
 70
     1
102
RTVSPost2010Prop56
140
1.0
102
RTVSPost2010PropOp56
 70
     1
102
RTVSPost2010Prop57
140
1.0
102
RTVSPost2010PropOp57
 70
     1
  0
XRECORD
  5
5E7
102
{ACAD_REACTORS
330
5E6
102
}
330
5E6
100
AcDbXrecord
280
     1
102
RTVSPropertyOp0
 70
     1
102
RTVSPropertyOp1
 70
     1
102
RTVSPropertyOp2
 70
     1
102
RTVSPropertyOp3
 70
     1
102
RTVSPropertyOp4
 70
     1
102
RTVSPropertyOp5
 70
     1
102
RTVSPropertyOp6
 70
     1
102
RTVSPropertyOp7
 70
     1
102
RTVSPropertyOp8
 70
     1
102
RTVSPropertyOp9
 70
     1
102
RTVSPropertyOp10
 70
     1
102
RTVSPropertyOp11
 70
     1
102
RTVSPropertyOp12
 70
     1
102
RTVSPropertyOp13
 70
     1
102
RTVSPropertyOp14
 70
     1
102
RTVSPropertyOp15
 70
     1
102
RTVSPropertyOp16
 70
     1
102
RTVSPropertyOp17
 70
     1
102
RTVSPropertyOp18
 70
     1
102
RTVSPropertyOp19
 70
     1
102
RTVSPropertyOp20
 70
     1
102
RTVSPropertyOp21
 70
     1
102
RTVSPropertyOp22
 70
     1
102
RTVSPropertyOp23
 70
     1
102
RTVSPropertyOp24
 70
     1
102
RTVSPropertyOp25
 70
     1
102
RTVSPropertyOp26
 70
     1
102
RTVSPropertyOp27
 70
     1
102
RTVSPropertyOp28
 70
     1
102
RTVSPropertyOp29
 70
     1
102
RTVSPropertyOp30
 70
     1
102
RTVSPropertyOp31
 70
     1
102
RTVSPropertyOp32
 70
     1
102
RTVSPropertyOp33
 70
     1
102
RTVSPropertyOp34
 70
     1
102
RTVSPropertyOp35
 70
     1
102
RTVSPropertyOp36
 70
     1
102
RTVSPropertyOp37
 70
     1
102
RTVSPropertyOp38
 70
     1
102
RTVSPropertyOp39
 70
     1
102
RTVSPropertyOp40
 70
     1
102
RTVSPropertyOp41
 70
     1
102
RTVSPropertyOp42
 70
     1
102
RTVSPropertyOp43
 70
     1
102
RTVSPropertyOp44
 70
     1
102
RTVSPropertyOp45
 70
     1
102
RTVSPropertyOp46
 70
     1
102
RTVSPropertyOp47
 70
     1
102
RTVSPropertyOp48
 70
     1
102
RTVSPropertyOp49
 70
     1
102
RTVSPropertyOp50
 70
     1
102
RTVSPropertyOp51
 70
     0
102
RTVSPropertyOp52
 70
     0
102
RTVSPropertyOp53
 70
     1
102
RTVSPropertyOp54
 70
     1
102
RTVSPropertyOp55
 70
     1
102
RTVSPropertyOp56
 70
     1
102
RTVSPropertyOp57
 70
     1
102
RTVSPost2010Prop28
280
     0
102
RTVSPost2010PropOp28
 70
     1
102
RTVSPost2010Prop29
280
     1
102
RTVSPost2010PropOp29
 70
     1
102
RTVSPost2010Prop30
280
     1
102
RTVSPost2010PropOp30
 70
     1
102
RTVSPost2010Prop31
280
     0
102
RTVSPost2010PropOp31
 70
     1
102
RTVSPost2010Prop32
280
     0
102
RTVSPost2010PropOp32
 70
     1
102
RTVSPost2010Prop33
280
     0
102
RTVSPost2010PropOp33
 70
     1
102
RTVSPost2010Prop34
280
     0
102
RTVSPost2010PropOp34
 70
     1
102
RTVSPost2010Prop35
280
     0
102
RTVSPost2010PropOp35
 70
     1
102
RTVSPost2010Prop36
280
     0
102
RTVSPost2010PropOp36
 70
     1
102
RTVSPost2010Prop37
 90
       50
102
RTVSPost2010PropOp37
 70
     1
102
RTVSPost2010Prop38
140
0.0
102
RTVSPost2010PropOp38
 70
     1
102
RTVSPost2010Prop39
140
1.0
102
RTVSPost2010PropOp39
 70
     1
102
RTVSPost2010Prop40
 90
        0
102
RTVSPost2010PropOp40
 70
     1
102
RTVSPost2010Prop41ColorIndex
 90
       18
102
RTVSPost2010Prop41ColorRGB
 90
        0
102
RTVSPost2010PropOp41
 70
     1
102
RTVSPost2010Prop42
 90
       50
102
RTVSPost2010PropOp42
 70
     1
102
RTVSPost2010Prop43
 90
        3
102
RTVSPost2010PropOp43
 70
     1
102
RTVSPost2010Prop44ColorIndex
 90
        5
102
RTVSPost2010Prop44ColorRGB
 90
      255
102
RTVSPost2010PropOp44
 70
     1
102
RTVSPost2010Prop45
280
     0
102
RTVSPost2010PropOp45
 70
     1
102
RTVSPost2010Prop46
 90
       50
102
RTVSPost2010PropOp46
 70
     1
102
RTVSPost2010Prop47
 90
       50
102
RTVSPost2010PropOp47
 70
     1
102
RTVSPost2010Prop48
 90
       50
102
RTVSPost2010PropOp48
 70
     1
102
RTVSPost2010Prop49
280
     0
102
RTVSPost2010PropOp49
 70
     1
102
RTVSPost2010Prop50
 90
       50
102
RTVSPost2010PropOp50
 70
     1
102
RTVSPost2010Prop51ColorIndex
 90
      256
102
RTVSPost2010Prop51ColorRGB
 90
-16777216
102
RTVSPost2010PropOp51
 70
     0
102
RTVSPost2010Prop52
140
1.0
102
RTVSPost2010PropOp52
 70
     0
102
RTVSPost2010Prop53
 90
        2
102
RTVSPost2010PropOp53
 70
     1
102
RTVSPost2010Prop54
  1
strokes_ogs.tif
102
RTVSPost2010PropOp54
 70
     1
102
RTVSPost2010Prop55
280
     0
102
RTVSPost2010PropOp55
 70
     1
102
RTVSPost2010Prop56
140
1.0
102
RTVSPost2010PropOp56
 70
     1
102
RTVSPost2010Prop57
140
1.0
102
RTVSPost2010PropOp57
 70
     1
  0
XRECORD
  5
5ED
102
{ACAD_REACTORS
330
5EC
102
}
330
5EC
100
AcDbXrecord
280
     1
102
RTVSPropertyOp0
 70
     1
102
RTVSPropertyOp1
 70
     1
102
RTVSPropertyOp2
 70
     1
102
RTVSPropertyOp3
 70
     1
102
RTVSPropertyOp4
 70
     1
102
RTVSPropertyOp5
 70
     1
102
RTVSPropertyOp6
 70
     1
102
RTVSPropertyOp7
 70
     1
102
RTVSPropertyOp8
 70
     1
102
RTVSPropertyOp9
 70
     1
102
RTVSPropertyOp10
 70
     1
102
RTVSPropertyOp11
 70
     1
102
RTVSPropertyOp12
 70
     1
102
RTVSPropertyOp13
 70
     1
102
RTVSPropertyOp14
 70
     1
102
RTVSPropertyOp15
 70
     1
102
RTVSPropertyOp16
 70
     1
102
RTVSPropertyOp17
 70
     1
102
RTVSPropertyOp18
 70
     1
102
RTVSPropertyOp19
 70
     1
102
RTVSPropertyOp20
 70
     1
102
RTVSPropertyOp21
 70
     1
102
RTVSPropertyOp22
 70
     1
102
RTVSPropertyOp23
 70
     1
102
RTVSPropertyOp24
 70
     1
102
RTVSPropertyOp25
 70
     1
102
RTVSPropertyOp26
 70
     1
102
RTVSPropertyOp27
 70
     1
102
RTVSPropertyOp28
 70
     1
102
RTVSPropertyOp29
 70
     1
102
RTVSPropertyOp30
 70
     1
102
RTVSPropertyOp31
 70
     1
102
RTVSPropertyOp32
 70
     1
102
RTVSPropertyOp33
 70
     1
102
RTVSPropertyOp34
 70
     1
102
RTVSPropertyOp35
 70
     1
102
RTVSPropertyOp36
 70
     1
102
RTVSPropertyOp37
 70
     1
102
RTVSPropertyOp38
 70
     1
102
RTVSPropertyOp39
 70
     1
102
RTVSPropertyOp40
 70
     1
102
RTVSPropertyOp41
 70
     1
102
RTVSPropertyOp42
 70
     1
102
RTVSPropertyOp43
 70
     1
102
RTVSPropertyOp44
 70
     1
102
RTVSPropertyOp45
 70
     1
102
RTVSPropertyOp46
 70
     1
102
RTVSPropertyOp47
 70
     1
102
RTVSPropertyOp48
 70
     1
102
RTVSPropertyOp49
 70
     1
102
RTVSPropertyOp50
 70
     1
102
RTVSPropertyOp51
 70
     0
102
RTVSPropertyOp52
 70
     0
102
RTVSPropertyOp53
 70
     1
102
RTVSPropertyOp54
 70
     1
102
RTVSPropertyOp55
 70
     1
102
RTVSPropertyOp56
 70
     1
102
RTVSPropertyOp57
 70
     1
102
RTVSPost2010Prop28
280
     0
102
RTVSPost2010PropOp28
 70
     1
102
RTVSPost2010Prop29
280
     1
102
RTVSPost2010PropOp29
 70
     1
102
RTVSPost2010Prop30
280
     1
102
RTVSPost2010PropOp30
 70
     1
102
RTVSPost2010Prop31
280
     0
102
RTVSPost2010PropOp31
 70
     1
102
RTVSPost2010Prop32
280
     0
102
RTVSPost2010PropOp32
 70
     1
102
RTVSPost2010Prop33
280
     0
102
RTVSPost2010PropOp33
 70
     1
102
RTVSPost2010Prop34
280
     0
102
RTVSPost2010PropOp34
 70
     1
102
RTVSPost2010Prop35
280
     0
102
RTVSPost2010PropOp35
 70
     1
102
RTVSPost2010Prop36
280
     0
102
RTVSPost2010PropOp36
 70
     1
102
RTVSPost2010Prop37
 90
       50
102
RTVSPost2010PropOp37
 70
     1
102
RTVSPost2010Prop38
140
0.0
102
RTVSPost2010PropOp38
 70
     1
102
RTVSPost2010Prop39
140
1.0
102
RTVSPost2010PropOp39
 70
     1
102
RTVSPost2010Prop40
 90
        0
102
RTVSPost2010PropOp40
 70
     1
102
RTVSPost2010Prop41ColorIndex
 90
       18
102
RTVSPost2010Prop41ColorRGB
 90
        0
102
RTVSPost2010PropOp41
 70
     1
102
RTVSPost2010Prop42
 90
       50
102
RTVSPost2010PropOp42
 70
     1
102
RTVSPost2010Prop43
 90
        3
102
RTVSPost2010PropOp43
 70
     1
102
RTVSPost2010Prop44ColorIndex
 90
        5
102
RTVSPost2010Prop44ColorRGB
 90
      255
102
RTVSPost2010PropOp44
 70
     1
102
RTVSPost2010Prop45
280
     0
102
RTVSPost2010PropOp45
 70
     1
102
RTVSPost2010Prop46
 90
       50
102
RTVSPost2010PropOp46
 70
     1
102
RTVSPost2010Prop47
 90
       50
102
RTVSPost2010PropOp47
 70
     1
102
RTVSPost2010Prop48
 90
       50
102
RTVSPost2010PropOp48
 70
     1
102
RTVSPost2010Prop49
280
     0
102
RTVSPost2010PropOp49
 70
     1
102
RTVSPost2010Prop50
 90
       50
102
RTVSPost2010PropOp50
 70
     1
102
RTVSPost2010Prop51ColorIndex
 90
      256
102
RTVSPost2010Prop51ColorRGB
 90
-16777216
102
RTVSPost2010PropOp51
 70
     0
102
RTVSPost2010Prop52
140
1.0
102
RTVSPost2010PropOp52
 70
     0
102
RTVSPost2010Prop53
 90
        2
102
RTVSPost2010PropOp53
 70
     1
102
RTVSPost2010Prop54
  1
strokes_ogs.tif
102
RTVSPost2010PropOp54
 70
     1
102
RTVSPost2010Prop55
280
     0
102
RTVSPost2010PropOp55
 70
     1
102
RTVSPost2010Prop56
140
1.0
102
RTVSPost2010PropOp56
 70
     1
102
RTVSPost2010Prop57
140
1.0
102
RTVSPost2010PropOp57
 70
     1
  0
XRECORD
  5
5F5
102
{ACAD_REACTORS
330
5F4
102
}
330
5F4
100
AcDbXrecord
280
     1
102
RTVSPropertyOp0
 70
     1
102
RTVSPropertyOp1
 70
     1
102
RTVSPropertyOp2
 70
     1
102
RTVSPropertyOp3
 70
     1
102
RTVSPropertyOp4
 70
     1
102
RTVSPropertyOp5
 70
     1
102
RTVSPropertyOp6
 70
     1
102
RTVSPropertyOp7
 70
     1
102
RTVSPropertyOp8
 70
     1
102
RTVSPropertyOp9
 70
     1
102
RTVSPropertyOp10
 70
     1
102
RTVSPropertyOp11
 70
     1
102
RTVSPropertyOp12
 70
     1
102
RTVSPropertyOp13
 70
     1
102
RTVSPropertyOp14
 70
     1
102
RTVSPropertyOp15
 70
     1
102
RTVSPropertyOp16
 70
     1
102
RTVSPropertyOp17
 70
     1
102
RTVSPropertyOp18
 70
     1
102
RTVSPropertyOp19
 70
     1
102
RTVSPropertyOp20
 70
     1
102
RTVSPropertyOp21
 70
     1
102
RTVSPropertyOp22
 70
     1
102
RTVSPropertyOp23
 70
     1
102
RTVSPropertyOp24
 70
     1
102
RTVSPropertyOp25
 70
     1
102
RTVSPropertyOp26
 70
     1
102
RTVSPropertyOp27
 70
     1
102
RTVSPropertyOp28
 70
     1
102
RTVSPropertyOp29
 70
     1
102
RTVSPropertyOp30
 70
     1
102
RTVSPropertyOp31
 70
     1
102
RTVSPropertyOp32
 70
     1
102
RTVSPropertyOp33
 70
     1
102
RTVSPropertyOp34
 70
     1
102
RTVSPropertyOp35
 70
     1
102
RTVSPropertyOp36
 70
     1
102
RTVSPropertyOp37
 70
     1
102
RTVSPropertyOp38
 70
     1
102
RTVSPropertyOp39
 70
     1
102
RTVSPropertyOp40
 70
     1
102
RTVSPropertyOp41
 70
     1
102
RTVSPropertyOp42
 70
     1
102
RTVSPropertyOp43
 70
     1
102
RTVSPropertyOp44
 70
     1
102
RTVSPropertyOp45
 70
     1
102
RTVSPropertyOp46
 70
     1
102
RTVSPropertyOp47
 70
     1
102
RTVSPropertyOp48
 70
     1
102
RTVSPropertyOp49
 70
     1
102
RTVSPropertyOp50
 70
     1
102
RTVSPropertyOp51
 70
     0
102
RTVSPropertyOp52
 70
     0
102
RTVSPropertyOp53
 70
     1
102
RTVSPropertyOp54
 70
     1
102
RTVSPropertyOp55
 70
     1
102
RTVSPropertyOp56
 70
     1
102
RTVSPropertyOp57
 70
     1
102
RTVSPost2010Prop28
280
     0
102
RTVSPost2010PropOp28
 70
     1
102
RTVSPost2010Prop29
280
     1
102
RTVSPost2010PropOp29
 70
     1
102
RTVSPost2010Prop30
280
     1
102
RTVSPost2010PropOp30
 70
     1
102
RTVSPost2010Prop31
280
     0
102
RTVSPost2010PropOp31
 70
     1
102
RTVSPost2010Prop32
280
     0
102
RTVSPost2010PropOp32
 70
     1
102
RTVSPost2010Prop33
280
     0
102
RTVSPost2010PropOp33
 70
     1
102
RTVSPost2010Prop34
280
     0
102
RTVSPost2010PropOp34
 70
     1
102
RTVSPost2010Prop35
280
     0
102
RTVSPost2010PropOp35
 70
     1
102
RTVSPost2010Prop36
280
     0
102
RTVSPost2010PropOp36
 70
     1
102
RTVSPost2010Prop37
 90
       50
102
RTVSPost2010PropOp37
 70
     1
102
RTVSPost2010Prop38
140
0.0
102
RTVSPost2010PropOp38
 70
     1
102
RTVSPost2010Prop39
140
1.0
102
RTVSPost2010PropOp39
 70
     1
102
RTVSPost2010Prop40
 90
        0
102
RTVSPost2010PropOp40
 70
     1
102
RTVSPost2010Prop41ColorIndex
 90
       18
102
RTVSPost2010Prop41ColorRGB
 90
        0
102
RTVSPost2010PropOp41
 70
     1
102
RTVSPost2010Prop42
 90
       50
102
RTVSPost2010PropOp42
 70
     1
102
RTVSPost2010Prop43
 90
        3
102
RTVSPost2010PropOp43
 70
     1
102
RTVSPost2010Prop44ColorIndex
 90
        5
102
RTVSPost2010Prop44ColorRGB
 90
      255
102
RTVSPost2010PropOp44
 70
     1
102
RTVSPost2010Prop45
280
     0
102
RTVSPost2010PropOp45
 70
     1
102
RTVSPost2010Prop46
 90
       50
102
RTVSPost2010PropOp46
 70
     1
102
RTVSPost2010Prop47
 90
       50
102
RTVSPost2010PropOp47
 70
     1
102
RTVSPost2010Prop48
 90
       50
102
RTVSPost2010PropOp48
 70
     1
102
RTVSPost2010Prop49
280
     0
102
RTVSPost2010PropOp49
 70
     1
102
RTVSPost2010Prop50
 90
       50
102
RTVSPost2010PropOp50
 70
     1
102
RTVSPost2010Prop51ColorIndex
 90
      256
102
RTVSPost2010Prop51ColorRGB
 90
-16777216
102
RTVSPost2010PropOp51
 70
     0
102
RTVSPost2010Prop52
140
1.0
102
RTVSPost2010PropOp52
 70
     0
102
RTVSPost2010Prop53
 90
        2
102
RTVSPost2010PropOp53
 70
     1
102
RTVSPost2010Prop54
  1
strokes_ogs.tif
102
RTVSPost2010PropOp54
 70
     1
102
RTVSPost2010Prop55
280
     0
102
RTVSPost2010PropOp55
 70
     1
102
RTVSPost2010Prop56
140
1.0
102
RTVSPost2010PropOp56
 70
     1
102
RTVSPost2010Prop57
140
1.0
102
RTVSPost2010PropOp57
 70
     1
  0
XRECORD
  5
5E9
102
{ACAD_REACTORS
330
5E8
102
}
330
5E8
100
AcDbXrecord
280
     1
102
RTVSPropertyOp0
 70
     1
102
RTVSPropertyOp1
 70
     1
102
RTVSPropertyOp2
 70
     1
102
RTVSPropertyOp3
 70
     1
102
RTVSPropertyOp4
 70
     1
102
RTVSPropertyOp5
 70
     1
102
RTVSPropertyOp6
 70
     1
102
RTVSPropertyOp7
 70
     1
102
RTVSPropertyOp8
 70
     1
102
RTVSPropertyOp9
 70
     1
102
RTVSPropertyOp10
 70
     1
102
RTVSPropertyOp11
 70
     1
102
RTVSPropertyOp12
 70
     1
102
RTVSPropertyOp13
 70
     1
102
RTVSPropertyOp14
 70
     1
102
RTVSPropertyOp15
 70
     1
102
RTVSPropertyOp16
 70
     1
102
RTVSPropertyOp17
 70
     1
102
RTVSPropertyOp18
 70
     1
102
RTVSPropertyOp19
 70
     1
102
RTVSPropertyOp20
 70
     1
102
RTVSPropertyOp21
 70
     1
102
RTVSPropertyOp22
 70
     1
102
RTVSPropertyOp23
 70
     1
102
RTVSPropertyOp24
 70
     1
102
RTVSPropertyOp25
 70
     1
102
RTVSPropertyOp26
 70
     1
102
RTVSPropertyOp27
 70
     1
102
RTVSPropertyOp28
 70
     1
102
RTVSPropertyOp29
 70
     1
102
RTVSPropertyOp30
 70
     1
102
RTVSPropertyOp31
 70
     1
102
RTVSPropertyOp32
 70
     1
102
RTVSPropertyOp33
 70
     1
102
RTVSPropertyOp34
 70
     1
102
RTVSPropertyOp35
 70
     1
102
RTVSPropertyOp36
 70
     1
102
RTVSPropertyOp37
 70
     1
102
RTVSPropertyOp38
 70
     1
102
RTVSPropertyOp39
 70
     1
102
RTVSPropertyOp40
 70
     1
102
RTVSPropertyOp41
 70
     1
102
RTVSPropertyOp42
 70
     1
102
RTVSPropertyOp43
 70
     1
102
RTVSPropertyOp44
 70
     1
102
RTVSPropertyOp45
 70
     1
102
RTVSPropertyOp46
 70
     1
102
RTVSPropertyOp47
 70
     1
102
RTVSPropertyOp48
 70
     1
102
RTVSPropertyOp49
 70
     1
102
RTVSPropertyOp50
 70
     1
102
RTVSPropertyOp51
 70
     0
102
RTVSPropertyOp52
 70
     0
102
RTVSPropertyOp53
 70
     1
102
RTVSPropertyOp54
 70
     1
102
RTVSPropertyOp55
 70
     1
102
RTVSPropertyOp56
 70
     1
102
RTVSPropertyOp57
 70
     1
102
RTVSPost2010Prop28
280
     0
102
RTVSPost2010PropOp28
 70
     1
102
RTVSPost2010Prop29
280
     1
102
RTVSPost2010PropOp29
 70
     1
102
RTVSPost2010Prop30
280
     1
102
RTVSPost2010PropOp30
 70
     1
102
RTVSPost2010Prop31
280
     0
102
RTVSPost2010PropOp31
 70
     1
102
RTVSPost2010Prop32
280
     0
102
RTVSPost2010PropOp32
 70
     1
102
RTVSPost2010Prop33
280
     0
102
RTVSPost2010PropOp33
 70
     1
102
RTVSPost2010Prop34
280
     0
102
RTVSPost2010PropOp34
 70
     1
102
RTVSPost2010Prop35
280
     0
102
RTVSPost2010PropOp35
 70
     1
102
RTVSPost2010Prop36
280
     0
102
RTVSPost2010PropOp36
 70
     1
102
RTVSPost2010Prop37
 90
       50
102
RTVSPost2010PropOp37
 70
     1
102
RTVSPost2010Prop38
140
0.0
102
RTVSPost2010PropOp38
 70
     1
102
RTVSPost2010Prop39
140
1.0
102
RTVSPost2010PropOp39
 70
     1
102
RTVSPost2010Prop40
 90
        0
102
RTVSPost2010PropOp40
 70
     1
102
RTVSPost2010Prop41ColorIndex
 90
       18
102
RTVSPost2010Prop41ColorRGB
 90
        0
102
RTVSPost2010PropOp41
 70
     1
102
RTVSPost2010Prop42
 90
       50
102
RTVSPost2010PropOp42
 70
     1
102
RTVSPost2010Prop43
 90
        3
102
RTVSPost2010PropOp43
 70
     1
102
RTVSPost2010Prop44ColorIndex
 90
        5
102
RTVSPost2010Prop44ColorRGB
 90
      255
102
RTVSPost2010PropOp44
 70
     1
102
RTVSPost2010Prop45
280
     0
102
RTVSPost2010PropOp45
 70
     1
102
RTVSPost2010Prop46
 90
       50
102
RTVSPost2010PropOp46
 70
     1
102
RTVSPost2010Prop47
 90
       50
102
RTVSPost2010PropOp47
 70
     1
102
RTVSPost2010Prop48
 90
       50
102
RTVSPost2010PropOp48
 70
     1
102
RTVSPost2010Prop49
280
     0
102
RTVSPost2010PropOp49
 70
     1
102
RTVSPost2010Prop50
 90
       50
102
RTVSPost2010PropOp50
 70
     1
102
RTVSPost2010Prop51ColorIndex
 90
      256
102
RTVSPost2010Prop51ColorRGB
 90
-16777216
102
RTVSPost2010PropOp51
 70
     0
102
RTVSPost2010Prop52
140
1.0
102
RTVSPost2010PropOp52
 70
     0
102
RTVSPost2010Prop53
 90
        2
102
RTVSPost2010PropOp53
 70
     1
102
RTVSPost2010Prop54
  1
strokes_ogs.tif
102
RTVSPost2010PropOp54
 70
     1
102
RTVSPost2010Prop55
280
     0
102
RTVSPost2010PropOp55
 70
     1
102
RTVSPost2010Prop56
140
1.0
102
RTVSPost2010PropOp56
 70
     1
102
RTVSPost2010Prop57
140
1.0
102
RTVSPost2010PropOp57
 70
     1
  0
XRECORD
  5
5EB
102
{ACAD_REACTORS
330
5EA
102
}
330
5EA
100
AcDbXrecord
280
     1
102
RTVSPropertyOp0
 70
     1
102
RTVSPropertyOp1
 70
     1
102
RTVSPropertyOp2
 70
     1
102
RTVSPropertyOp3
 70
     1
102
RTVSPropertyOp4
 70
     1
102
RTVSPropertyOp5
 70
     1
102
RTVSPropertyOp6
 70
     1
102
RTVSPropertyOp7
 70
     1
102
RTVSPropertyOp8
 70
     1
102
RTVSPropertyOp9
 70
     1
102
RTVSPropertyOp10
 70
     1
102
RTVSPropertyOp11
 70
     1
102
RTVSPropertyOp12
 70
     1
102
RTVSPropertyOp13
 70
     1
102
RTVSPropertyOp14
 70
     1
102
RTVSPropertyOp15
 70
     1
102
RTVSPropertyOp16
 70
     1
102
RTVSPropertyOp17
 70
     1
102
RTVSPropertyOp18
 70
     1
102
RTVSPropertyOp19
 70
     1
102
RTVSPropertyOp20
 70
     1
102
RTVSPropertyOp21
 70
     1
102
RTVSPropertyOp22
 70
     1
102
RTVSPropertyOp23
 70
     1
102
RTVSPropertyOp24
 70
     1
102
RTVSPropertyOp25
 70
     1
102
RTVSPropertyOp26
 70
     1
102
RTVSPropertyOp27
 70
     1
102
RTVSPropertyOp28
 70
     1
102
RTVSPropertyOp29
 70
     1
102
RTVSPropertyOp30
 70
     1
102
RTVSPropertyOp31
 70
     1
102
RTVSPropertyOp32
 70
     1
102
RTVSPropertyOp33
 70
     1
102
RTVSPropertyOp34
 70
     1
102
RTVSPropertyOp35
 70
     1
102
RTVSPropertyOp36
 70
     1
102
RTVSPropertyOp37
 70
     1
102
RTVSPropertyOp38
 70
     1
102
RTVSPropertyOp39
 70
     1
102
RTVSPropertyOp40
 70
     1
102
RTVSPropertyOp41
 70
     1
102
RTVSPropertyOp42
 70
     1
102
RTVSPropertyOp43
 70
     1
102
RTVSPropertyOp44
 70
     1
102
RTVSPropertyOp45
 70
     1
102
RTVSPropertyOp46
 70
     1
102
RTVSPropertyOp47
 70
     1
102
RTVSPropertyOp48
 70
     1
102
RTVSPropertyOp49
 70
     1
102
RTVSPropertyOp50
 70
     1
102
RTVSPropertyOp51
 70
     0
102
RTVSPropertyOp52
 70
     0
102
RTVSPropertyOp53
 70
     1
102
RTVSPropertyOp54
 70
     1
102
RTVSPropertyOp55
 70
     1
102
RTVSPropertyOp56
 70
     1
102
RTVSPropertyOp57
 70
     1
102
RTVSPost2010Prop28
280
     0
102
RTVSPost2010PropOp28
 70
     1
102
RTVSPost2010Prop29
280
     1
102
RTVSPost2010PropOp29
 70
     1
102
RTVSPost2010Prop30
280
     1
102
RTVSPost2010PropOp30
 70
     1
102
RTVSPost2010Prop31
280
     0
102
RTVSPost2010PropOp31
 70
     1
102
RTVSPost2010Prop32
280
     0
102
RTVSPost2010PropOp32
 70
     1
102
RTVSPost2010Prop33
280
     0
102
RTVSPost2010PropOp33
 70
     1
102
RTVSPost2010Prop34
280
     0
102
RTVSPost2010PropOp34
 70
     1
102
RTVSPost2010Prop35
280
     0
102
RTVSPost2010PropOp35
 70
     1
102
RTVSPost2010Prop36
280
     0
102
RTVSPost2010PropOp36
 70
     1
102
RTVSPost2010Prop37
 90
       50
102
RTVSPost2010PropOp37
 70
     1
102
RTVSPost2010Prop38
140
0.0
102
RTVSPost2010PropOp38
 70
     1
102
RTVSPost2010Prop39
140
1.0
102
RTVSPost2010PropOp39
 70
     1
102
RTVSPost2010Prop40
 90
        0
102
RTVSPost2010PropOp40
 70
     1
102
RTVSPost2010Prop41ColorIndex
 90
       18
102
RTVSPost2010Prop41ColorRGB
 90
        0
102
RTVSPost2010PropOp41
 70
     1
102
RTVSPost2010Prop42
 90
       50
102
RTVSPost2010PropOp42
 70
     1
102
RTVSPost2010Prop43
 90
        3
102
RTVSPost2010PropOp43
 70
     1
102
RTVSPost2010Prop44ColorIndex
 90
        5
102
RTVSPost2010Prop44ColorRGB
 90
      255
102
RTVSPost2010PropOp44
 70
     1
102
RTVSPost2010Prop45
280
     0
102
RTVSPost2010PropOp45
 70
     1
102
RTVSPost2010Prop46
 90
       50
102
RTVSPost2010PropOp46
 70
     1
102
RTVSPost2010Prop47
 90
       50
102
RTVSPost2010PropOp47
 70
     1
102
RTVSPost2010Prop48
 90
       50
102
RTVSPost2010PropOp48
 70
     1
102
RTVSPost2010Prop49
280
     0
102
RTVSPost2010PropOp49
 70
     1
102
RTVSPost2010Prop50
 90
       50
102
RTVSPost2010PropOp50
 70
     1
102
RTVSPost2010Prop51ColorIndex
 90
      256
102
RTVSPost2010Prop51ColorRGB
 90
-16777216
102
RTVSPost2010PropOp51
 70
     0
102
RTVSPost2010Prop52
140
1.0
102
RTVSPost2010PropOp52
 70
     0
102
RTVSPost2010Prop53
 90
        2
102
RTVSPost2010PropOp53
 70
     1
102
RTVSPost2010Prop54
  1
strokes_ogs.tif
102
RTVSPost2010PropOp54
 70
     1
102
RTVSPost2010Prop55
280
     0
102
RTVSPost2010PropOp55
 70
     1
102
RTVSPost2010Prop56
140
1.0
102
RTVSPost2010PropOp56
 70
     1
102
RTVSPost2010Prop57
140
1.0
102
RTVSPost2010PropOp57
 70
     1
  0
XRECORD
  5
5FB
102
{ACAD_REACTORS
330
5FA
102
}
330
5FA
100
AcDbXrecord
280
     1
102
RTVSPropertyOp0
 70
     0
102
RTVSPropertyOp1
 70
     0
102
RTVSPropertyOp2
 70
     0
102
RTVSPropertyOp3
 70
     0
102
RTVSPropertyOp4
 70
     0
102
RTVSPropertyOp5
 70
     0
102
RTVSPropertyOp6
 70
     0
102
RTVSPropertyOp7
 70
     0
102
RTVSPropertyOp8
 70
     0
102
RTVSPropertyOp9
 70
     0
102
RTVSPropertyOp10
 70
     0
102
RTVSPropertyOp11
 70
     0
102
RTVSPropertyOp12
 70
     0
102
RTVSPropertyOp13
 70
     0
102
RTVSPropertyOp14
 70
     0
102
RTVSPropertyOp15
 70
     0
102
RTVSPropertyOp16
 70
     0
102
RTVSPropertyOp17
 70
     0
102
RTVSPropertyOp18
 70
     0
102
RTVSPropertyOp19
 70
     0
102
RTVSPropertyOp20
 70
     0
102
RTVSPropertyOp21
 70
     0
102
RTVSPropertyOp22
 70
     0
102
RTVSPropertyOp23
 70
     0
102
RTVSPropertyOp24
 70
     0
102
RTVSPropertyOp25
 70
     0
102
RTVSPropertyOp26
 70
     0
102
RTVSPropertyOp27
 70
     0
102
RTVSPropertyOp28
 70
     1
102
RTVSPropertyOp29
 70
     1
102
RTVSPropertyOp30
 70
     1
102
RTVSPropertyOp31
 70
     1
102
RTVSPropertyOp32
 70
     1
102
RTVSPropertyOp33
 70
     1
102
RTVSPropertyOp34
 70
     1
102
RTVSPropertyOp35
 70
     1
102
RTVSPropertyOp36
 70
     1
102
RTVSPropertyOp37
 70
     1
102
RTVSPropertyOp38
 70
     1
102
RTVSPropertyOp39
 70
     1
102
RTVSPropertyOp40
 70
     1
102
RTVSPropertyOp41
 70
     1
102
RTVSPropertyOp42
 70
     1
102
RTVSPropertyOp43
 70
     1
102
RTVSPropertyOp44
 70
     1
102
RTVSPropertyOp45
 70
     1
102
RTVSPropertyOp46
 70
     1
102
RTVSPropertyOp47
 70
     1
102
RTVSPropertyOp48
 70
     1
102
RTVSPropertyOp49
 70
     1
102
RTVSPropertyOp50
 70
     1
102
RTVSPropertyOp51
 70
     0
102
RTVSPropertyOp52
 70
     0
102
RTVSPropertyOp53
 70
     1
102
RTVSPropertyOp54
 70
     1
102
RTVSPropertyOp55
 70
     1
102
RTVSPropertyOp56
 70
     1
102
RTVSPropertyOp57
 70
     1
102
RTVSPost2010Prop28
280
     0
102
RTVSPost2010PropOp28
 70
     1
102
RTVSPost2010Prop29
280
     1
102
RTVSPost2010PropOp29
 70
     1
102
RTVSPost2010Prop30
280
     1
102
RTVSPost2010PropOp30
 70
     1
102
RTVSPost2010Prop31
280
     0
102
RTVSPost2010PropOp31
 70
     1
102
RTVSPost2010Prop32
280
     0
102
RTVSPost2010PropOp32
 70
     1
102
RTVSPost2010Prop33
280
     0
102
RTVSPost2010PropOp33
 70
     1
102
RTVSPost2010Prop34
280
     0
102
RTVSPost2010PropOp34
 70
     1
102
RTVSPost2010Prop35
280
     0
102
RTVSPost2010PropOp35
 70
     1
102
RTVSPost2010Prop36
280
     0
102
RTVSPost2010PropOp36
 70
     1
102
RTVSPost2010Prop37
 90
       50
102
RTVSPost2010PropOp37
 70
     1
102
RTVSPost2010Prop38
140
0.0
102
RTVSPost2010PropOp38
 70
     1
102
RTVSPost2010Prop39
140
1.0
102
RTVSPost2010PropOp39
 70
     1
102
RTVSPost2010Prop40
 90
        0
102
RTVSPost2010PropOp40
 70
     1
102
RTVSPost2010Prop41ColorIndex
 90
       18
102
RTVSPost2010Prop41ColorRGB
 90
        0
102
RTVSPost2010PropOp41
 70
     1
102
RTVSPost2010Prop42
 90
       50
102
RTVSPost2010PropOp42
 70
     1
102
RTVSPost2010Prop43
 90
        3
102
RTVSPost2010PropOp43
 70
     1
102
RTVSPost2010Prop44ColorIndex
 90
        5
102
RTVSPost2010Prop44ColorRGB
 90
      255
102
RTVSPost2010PropOp44
 70
     1
102
RTVSPost2010Prop45
280
     0
102
RTVSPost2010PropOp45
 70
     1
102
RTVSPost2010Prop46
 90
       50
102
RTVSPost2010PropOp46
 70
     1
102
RTVSPost2010Prop47
 90
       50
102
RTVSPost2010PropOp47
 70
     1
102
RTVSPost2010Prop48
 90
       50
102
RTVSPost2010PropOp48
 70
     1
102
RTVSPost2010Prop49
280
     0
102
RTVSPost2010PropOp49
 70
     1
102
RTVSPost2010Prop50
 90
       50
102
RTVSPost2010PropOp50
 70
     1
102
RTVSPost2010Prop51ColorIndex
 90
      256
102
RTVSPost2010Prop51ColorRGB
 90
-16777216
102
RTVSPost2010PropOp51
 70
     0
102
RTVSPost2010Prop52
140
1.0
102
RTVSPost2010PropOp52
 70
     0
102
RTVSPost2010Prop53
 90
        2
102
RTVSPost2010PropOp53
 70
     1
102
RTVSPost2010Prop54
  1
strokes_ogs.tif
102
RTVSPost2010PropOp54
 70
     1
102
RTVSPost2010Prop55
280
     0
102
RTVSPost2010PropOp55
 70
     1
102
RTVSPost2010Prop56
140
1.0
102
RTVSPost2010PropOp56
 70
     1
102
RTVSPost2010Prop57
140
1.0
102
RTVSPost2010PropOp57
 70
     1
  0
XRECORD
  5
5F3
102
{ACAD_REACTORS
330
5F2
102
}
330
5F2
100
AcDbXrecord
280
     1
102
RTVSPropertyOp0
 70
     1
102
RTVSPropertyOp1
 70
     1
102
RTVSPropertyOp2
 70
     1
102
RTVSPropertyOp3
 70
     1
102
RTVSPropertyOp4
 70
     1
102
RTVSPropertyOp5
 70
     1
102
RTVSPropertyOp6
 70
     1
102
RTVSPropertyOp7
 70
     1
102
RTVSPropertyOp8
 70
     1
102
RTVSPropertyOp9
 70
     1
102
RTVSPropertyOp10
 70
     1
102
RTVSPropertyOp11
 70
     1
102
RTVSPropertyOp12
 70
     1
102
RTVSPropertyOp13
 70
     1
102
RTVSPropertyOp14
 70
     1
102
RTVSPropertyOp15
 70
     1
102
RTVSPropertyOp16
 70
     1
102
RTVSPropertyOp17
 70
     1
102
RTVSPropertyOp18
 70
     1
102
RTVSPropertyOp19
 70
     1
102
RTVSPropertyOp20
 70
     1
102
RTVSPropertyOp21
 70
     1
102
RTVSPropertyOp22
 70
     1
102
RTVSPropertyOp23
 70
     1
102
RTVSPropertyOp24
 70
     1
102
RTVSPropertyOp25
 70
     1
102
RTVSPropertyOp26
 70
     1
102
RTVSPropertyOp27
 70
     1
102
RTVSPropertyOp28
 70
     1
102
RTVSPropertyOp29
 70
     1
102
RTVSPropertyOp30
 70
     1
102
RTVSPropertyOp31
 70
     1
102
RTVSPropertyOp32
 70
     1
102
RTVSPropertyOp33
 70
     1
102
RTVSPropertyOp34
 70
     1
102
RTVSPropertyOp35
 70
     1
102
RTVSPropertyOp36
 70
     1
102
RTVSPropertyOp37
 70
     1
102
RTVSPropertyOp38
 70
     1
102
RTVSPropertyOp39
 70
     1
102
RTVSPropertyOp40
 70
     1
102
RTVSPropertyOp41
 70
     1
102
RTVSPropertyOp42
 70
     1
102
RTVSPropertyOp43
 70
     1
102
RTVSPropertyOp44
 70
     1
102
RTVSPropertyOp45
 70
     1
102
RTVSPropertyOp46
 70
     1
102
RTVSPropertyOp47
 70
     1
102
RTVSPropertyOp48
 70
     1
102
RTVSPropertyOp49
 70
     1
102
RTVSPropertyOp50
 70
     1
102
RTVSPropertyOp51
 70
     0
102
RTVSPropertyOp52
 70
     0
102
RTVSPropertyOp53
 70
     1
102
RTVSPropertyOp54
 70
     1
102
RTVSPropertyOp55
 70
     1
102
RTVSPropertyOp56
 70
     1
102
RTVSPropertyOp57
 70
     1
102
RTVSPost2010Prop28
280
     0
102
RTVSPost2010PropOp28
 70
     1
102
RTVSPost2010Prop29
280
     1
102
RTVSPost2010PropOp29
 70
     1
102
RTVSPost2010Prop30
280
     1
102
RTVSPost2010PropOp30
 70
     1
102
RTVSPost2010Prop31
280
     0
102
RTVSPost2010PropOp31
 70
     1
102
RTVSPost2010Prop32
280
     0
102
RTVSPost2010PropOp32
 70
     1
102
RTVSPost2010Prop33
280
     0
102
RTVSPost2010PropOp33
 70
     1
102
RTVSPost2010Prop34
280
     0
102
RTVSPost2010PropOp34
 70
     1
102
RTVSPost2010Prop35
280
     0
102
RTVSPost2010PropOp35
 70
     1
102
RTVSPost2010Prop36
280
     0
102
RTVSPost2010PropOp36
 70
     1
102
RTVSPost2010Prop37
 90
       50
102
RTVSPost2010PropOp37
 70
     1
102
RTVSPost2010Prop38
140
0.0
102
RTVSPost2010PropOp38
 70
     1
102
RTVSPost2010Prop39
140
1.0
102
RTVSPost2010PropOp39
 70
     1
102
RTVSPost2010Prop40
 90
        0
102
RTVSPost2010PropOp40
 70
     1
102
RTVSPost2010Prop41ColorIndex
 90
       18
102
RTVSPost2010Prop41ColorRGB
 90
        0
102
RTVSPost2010PropOp41
 70
     1
102
RTVSPost2010Prop42
 90
       50
102
RTVSPost2010PropOp42
 70
     1
102
RTVSPost2010Prop43
 90
        3
102
RTVSPost2010PropOp43
 70
     1
102
RTVSPost2010Prop44ColorIndex
 90
        5
102
RTVSPost2010Prop44ColorRGB
 90
      255
102
RTVSPost2010PropOp44
 70
     1
102
RTVSPost2010Prop45
280
     0
102
RTVSPost2010PropOp45
 70
     1
102
RTVSPost2010Prop46
 90
       50
102
RTVSPost2010PropOp46
 70
     1
102
RTVSPost2010Prop47
 90
       50
102
RTVSPost2010PropOp47
 70
     1
102
RTVSPost2010Prop48
 90
       50
102
RTVSPost2010PropOp48
 70
     1
102
RTVSPost2010Prop49
280
     0
102
RTVSPost2010PropOp49
 70
     1
102
RTVSPost2010Prop50
 90
       50
102
RTVSPost2010PropOp50
 70
     1
102
RTVSPost2010Prop51ColorIndex
 90
      256
102
RTVSPost2010Prop51ColorRGB
 90
-16777216
102
RTVSPost2010PropOp51
 70
     0
102
RTVSPost2010Prop52
140
1.0
102
RTVSPost2010PropOp52
 70
     0
102
RTVSPost2010Prop53
 90
        2
102
RTVSPost2010PropOp53
 70
     1
102
RTVSPost2010Prop54
  1
strokes_ogs.tif
102
RTVSPost2010PropOp54
 70
     1
102
RTVSPost2010Prop55
280
     0
102
RTVSPost2010PropOp55
 70
     1
102
RTVSPost2010Prop56
140
1.0
102
RTVSPost2010PropOp56
 70
     1
102
RTVSPost2010Prop57
140
1.0
102
RTVSPost2010PropOp57
 70
     1
  0
XRECORD
  5
5DB
102
{ACAD_REACTORS
330
5DA
102
}
330
5DA
100
AcDbXrecord
280
     1
102
RTVSPropertyOp0
 70
     1
102
RTVSPropertyOp1
 70
     1
102
RTVSPropertyOp2
 70
     1
102
RTVSPropertyOp3
 70
     1
102
RTVSPropertyOp4
 70
     1
102
RTVSPropertyOp5
 70
     1
102
RTVSPropertyOp6
 70
     1
102
RTVSPropertyOp7
 70
     1
102
RTVSPropertyOp8
 70
     1
102
RTVSPropertyOp9
 70
     1
102
RTVSPropertyOp10
 70
     1
102
RTVSPropertyOp11
 70
     1
102
RTVSPropertyOp12
 70
     1
102
RTVSPropertyOp13
 70
     1
102
RTVSPropertyOp14
 70
     1
102
RTVSPropertyOp15
 70
     1
102
RTVSPropertyOp16
 70
     1
102
RTVSPropertyOp17
 70
     1
102
RTVSPropertyOp18
 70
     1
102
RTVSPropertyOp19
 70
     1
102
RTVSPropertyOp20
 70
     1
102
RTVSPropertyOp21
 70
     1
102
RTVSPropertyOp22
 70
     1
102
RTVSPropertyOp23
 70
     1
102
RTVSPropertyOp24
 70
     1
102
RTVSPropertyOp25
 70
     1
102
RTVSPropertyOp26
 70
     1
102
RTVSPropertyOp27
 70
     1
102
RTVSPropertyOp28
 70
     1
102
RTVSPropertyOp29
 70
     1
102
RTVSPropertyOp30
 70
     1
102
RTVSPropertyOp31
 70
     1
102
RTVSPropertyOp32
 70
     1
102
RTVSPropertyOp33
 70
     1
102
RTVSPropertyOp34
 70
     1
102
RTVSPropertyOp35
 70
     1
102
RTVSPropertyOp36
 70
     1
102
RTVSPropertyOp37
 70
     1
102
RTVSPropertyOp38
 70
     1
102
RTVSPropertyOp39
 70
     1
102
RTVSPropertyOp40
 70
     1
102
RTVSPropertyOp41
 70
     1
102
RTVSPropertyOp42
 70
     1
102
RTVSPropertyOp43
 70
     1
102
RTVSPropertyOp44
 70
     1
102
RTVSPropertyOp45
 70
     1
102
RTVSPropertyOp46
 70
     1
102
RTVSPropertyOp47
 70
     1
102
RTVSPropertyOp48
 70
     1
102
RTVSPropertyOp49
 70
     1
102
RTVSPropertyOp50
 70
     1
102
RTVSPropertyOp51
 70
     0
102
RTVSPropertyOp52
 70
     0
102
RTVSPropertyOp53
 70
     1
102
RTVSPropertyOp54
 70
     1
102
RTVSPropertyOp55
 70
     1
102
RTVSPropertyOp56
 70
     1
102
RTVSPropertyOp57
 70
     1
102
RTVSPost2010Prop28
280
     0
102
RTVSPost2010PropOp28
 70
     1
102
RTVSPost2010Prop29
280
     1
102
RTVSPost2010PropOp29
 70
     1
102
RTVSPost2010Prop30
280
     1
102
RTVSPost2010PropOp30
 70
     1
102
RTVSPost2010Prop31
280
     0
102
RTVSPost2010PropOp31
 70
     1
102
RTVSPost2010Prop32
280
     0
102
RTVSPost2010PropOp32
 70
     1
102
RTVSPost2010Prop33
280
     0
102
RTVSPost2010PropOp33
 70
     1
102
RTVSPost2010Prop34
280
     0
102
RTVSPost2010PropOp34
 70
     1
102
RTVSPost2010Prop35
280
     0
102
RTVSPost2010PropOp35
 70
     1
102
RTVSPost2010Prop36
280
     0
102
RTVSPost2010PropOp36
 70
     1
102
RTVSPost2010Prop37
 90
       50
102
RTVSPost2010PropOp37
 70
     1
102
RTVSPost2010Prop38
140
0.0
102
RTVSPost2010PropOp38
 70
     1
102
RTVSPost2010Prop39
140
1.0
102
RTVSPost2010PropOp39
 70
     1
102
RTVSPost2010Prop40
 90
        0
102
RTVSPost2010PropOp40
 70
     1
102
RTVSPost2010Prop41ColorIndex
 90
       18
102
RTVSPost2010Prop41ColorRGB
 90
        0
102
RTVSPost2010PropOp41
 70
     1
102
RTVSPost2010Prop42
 90
       50
102
RTVSPost2010PropOp42
 70
     1
102
RTVSPost2010Prop43
 90
        3
102
RTVSPost2010PropOp43
 70
     1
102
RTVSPost2010Prop44ColorIndex
 90
        5
102
RTVSPost2010Prop44ColorRGB
 90
      255
102
RTVSPost2010PropOp44
 70
     1
102
RTVSPost2010Prop45
280
     0
102
RTVSPost2010PropOp45
 70
     1
102
RTVSPost2010Prop46
 90
       50
102
RTVSPost2010PropOp46
 70
     1
102
RTVSPost2010Prop47
 90
       50
102
RTVSPost2010PropOp47
 70
     1
102
RTVSPost2010Prop48
 90
       50
102
RTVSPost2010PropOp48
 70
     1
102
RTVSPost2010Prop49
280
     0
102
RTVSPost2010PropOp49
 70
     1
102
RTVSPost2010Prop50
 90
       50
102
RTVSPost2010PropOp50
 70
     1
102
RTVSPost2010Prop51ColorIndex
 90
      256
102
RTVSPost2010Prop51ColorRGB
 90
-16777216
102
RTVSPost2010PropOp51
 70
     0
102
RTVSPost2010Prop52
140
1.0
102
RTVSPost2010PropOp52
 70
     0
102
RTVSPost2010Prop53
 90
        2
102
RTVSPost2010PropOp53
 70
     1
102
RTVSPost2010Prop54
  1
strokes_ogs.tif
102
RTVSPost2010PropOp54
 70
     1
102
RTVSPost2010Prop55
280
     0
102
RTVSPost2010PropOp55
 70
     1
102
RTVSPost2010Prop56
140
1.0
102
RTVSPost2010PropOp56
 70
     1
102
RTVSPost2010Prop57
140
1.0
102
RTVSPost2010PropOp57
 70
     1
  0
XRECORD
  5
5DD
102
{ACAD_REACTORS
330
5DC
102
}
330
5DC
100
AcDbXrecord
280
     1
102
RTVSPropertyOp0
 70
     1
102
RTVSPropertyOp1
 70
     1
102
RTVSPropertyOp2
 70
     1
102
RTVSPropertyOp3
 70
     1
102
RTVSPropertyOp4
 70
     1
102
RTVSPropertyOp5
 70
     1
102
RTVSPropertyOp6
 70
     1
102
RTVSPropertyOp7
 70
     1
102
RTVSPropertyOp8
 70
     1
102
RTVSPropertyOp9
 70
     1
102
RTVSPropertyOp10
 70
     1
102
RTVSPropertyOp11
 70
     1
102
RTVSPropertyOp12
 70
     1
102
RTVSPropertyOp13
 70
     1
102
RTVSPropertyOp14
 70
     1
102
RTVSPropertyOp15
 70
     1
102
RTVSPropertyOp16
 70
     1
102
RTVSPropertyOp17
 70
     1
102
RTVSPropertyOp18
 70
     1
102
RTVSPropertyOp19
 70
     1
102
RTVSPropertyOp20
 70
     1
102
RTVSPropertyOp21
 70
     1
102
RTVSPropertyOp22
 70
     1
102
RTVSPropertyOp23
 70
     1
102
RTVSPropertyOp24
 70
     1
102
RTVSPropertyOp25
 70
     1
102
RTVSPropertyOp26
 70
     1
102
RTVSPropertyOp27
 70
     1
102
RTVSPropertyOp28
 70
     1
102
RTVSPropertyOp29
 70
     1
102
RTVSPropertyOp30
 70
     1
102
RTVSPropertyOp31
 70
     1
102
RTVSPropertyOp32
 70
     1
102
RTVSPropertyOp33
 70
     1
102
RTVSPropertyOp34
 70
     1
102
RTVSPropertyOp35
 70
     1
102
RTVSPropertyOp36
 70
     1
102
RTVSPropertyOp37
 70
     1
102
RTVSPropertyOp38
 70
     1
102
RTVSPropertyOp39
 70
     1
102
RTVSPropertyOp40
 70
     1
102
RTVSPropertyOp41
 70
     1
102
RTVSPropertyOp42
 70
     1
102
RTVSPropertyOp43
 70
     1
102
RTVSPropertyOp44
 70
     1
102
RTVSPropertyOp45
 70
     1
102
RTVSPropertyOp46
 70
     1
102
RTVSPropertyOp47
 70
     1
102
RTVSPropertyOp48
 70
     1
102
RTVSPropertyOp49
 70
     1
102
RTVSPropertyOp50
 70
     1
102
RTVSPropertyOp51
 70
     0
102
RTVSPropertyOp52
 70
     0
102
RTVSPropertyOp53
 70
     1
102
RTVSPropertyOp54
 70
     1
102
RTVSPropertyOp55
 70
     1
102
RTVSPropertyOp56
 70
     1
102
RTVSPropertyOp57
 70
     1
102
RTVSPost2010Prop28
280
     0
102
RTVSPost2010PropOp28
 70
     1
102
RTVSPost2010Prop29
280
     1
102
RTVSPost2010PropOp29
 70
     1
102
RTVSPost2010Prop30
280
     1
102
RTVSPost2010PropOp30
 70
     1
102
RTVSPost2010Prop31
280
     0
102
RTVSPost2010PropOp31
 70
     1
102
RTVSPost2010Prop32
280
     0
102
RTVSPost2010PropOp32
 70
     1
102
RTVSPost2010Prop33
280
     0
102
RTVSPost2010PropOp33
 70
     1
102
RTVSPost2010Prop34
280
     0
102
RTVSPost2010PropOp34
 70
     1
102
RTVSPost2010Prop35
280
     0
102
RTVSPost2010PropOp35
 70
     1
102
RTVSPost2010Prop36
280
     0
102
RTVSPost2010PropOp36
 70
     1
102
RTVSPost2010Prop37
 90
       50
102
RTVSPost2010PropOp37
 70
     1
102
RTVSPost2010Prop38
140
0.0
102
RTVSPost2010PropOp38
 70
     1
102
RTVSPost2010Prop39
140
1.0
102
RTVSPost2010PropOp39
 70
     1
102
RTVSPost2010Prop40
 90
        0
102
RTVSPost2010PropOp40
 70
     1
102
RTVSPost2010Prop41ColorIndex
 90
       18
102
RTVSPost2010Prop41ColorRGB
 90
        0
102
RTVSPost2010PropOp41
 70
     1
102
RTVSPost2010Prop42
 90
       50
102
RTVSPost2010PropOp42
 70
     1
102
RTVSPost2010Prop43
 90
        3
102
RTVSPost2010PropOp43
 70
     1
102
RTVSPost2010Prop44ColorIndex
 90
        5
102
RTVSPost2010Prop44ColorRGB
 90
      255
102
RTVSPost2010PropOp44
 70
     1
102
RTVSPost2010Prop45
280
     0
102
RTVSPost2010PropOp45
 70
     1
102
RTVSPost2010Prop46
 90
       50
102
RTVSPost2010PropOp46
 70
     1
102
RTVSPost2010Prop47
 90
       50
102
RTVSPost2010PropOp47
 70
     1
102
RTVSPost2010Prop48
 90
       50
102
RTVSPost2010PropOp48
 70
     1
102
RTVSPost2010Prop49
280
     0
102
RTVSPost2010PropOp49
 70
     1
102
RTVSPost2010Prop50
 90
       50
102
RTVSPost2010PropOp50
 70
     1
102
RTVSPost2010Prop51ColorIndex
 90
      256
102
RTVSPost2010Prop51ColorRGB
 90
-16777216
102
RTVSPost2010PropOp51
 70
     0
102
RTVSPost2010Prop52
140
1.0
102
RTVSPost2010PropOp52
 70
     0
102
RTVSPost2010Prop53
 90
        2
102
RTVSPost2010PropOp53
 70
     1
102
RTVSPost2010Prop54
  1
strokes_ogs.tif
102
RTVSPost2010PropOp54
 70
     1
102
RTVSPost2010Prop55
280
     0
102
RTVSPost2010PropOp55
 70
     1
102
RTVSPost2010Prop56
140
1.0
102
RTVSPost2010PropOp56
 70
     1
102
RTVSPost2010Prop57
140
1.0
102
RTVSPost2010PropOp57
 70
     1
  0
XRECORD
  5
5DF
102
{ACAD_REACTORS
330
5DE
102
}
330
5DE
100
AcDbXrecord
280
     1
102
RTVSPropertyOp0
 70
     1
102
RTVSPropertyOp1
 70
     1
102
RTVSPropertyOp2
 70
     1
102
RTVSPropertyOp3
 70
     1
102
RTVSPropertyOp4
 70
     1
102
RTVSPropertyOp5
 70
     1
102
RTVSPropertyOp6
 70
     1
102
RTVSPropertyOp7
 70
     1
102
RTVSPropertyOp8
 70
     1
102
RTVSPropertyOp9
 70
     1
102
RTVSPropertyOp10
 70
     1
102
RTVSPropertyOp11
 70
     1
102
RTVSPropertyOp12
 70
     1
102
RTVSPropertyOp13
 70
     1
102
RTVSPropertyOp14
 70
     1
102
RTVSPropertyOp15
 70
     1
102
RTVSPropertyOp16
 70
     1
102
RTVSPropertyOp17
 70
     1
102
RTVSPropertyOp18
 70
     1
102
RTVSPropertyOp19
 70
     1
102
RTVSPropertyOp20
 70
     1
102
RTVSPropertyOp21
 70
     1
102
RTVSPropertyOp22
 70
     1
102
RTVSPropertyOp23
 70
     1
102
RTVSPropertyOp24
 70
     1
102
RTVSPropertyOp25
 70
     1
102
RTVSPropertyOp26
 70
     1
102
RTVSPropertyOp27
 70
     1
102
RTVSPropertyOp28
 70
     1
102
RTVSPropertyOp29
 70
     1
102
RTVSPropertyOp30
 70
     1
102
RTVSPropertyOp31
 70
     1
102
RTVSPropertyOp32
 70
     1
102
RTVSPropertyOp33
 70
     1
102
RTVSPropertyOp34
 70
     1
102
RTVSPropertyOp35
 70
     1
102
RTVSPropertyOp36
 70
     1
102
RTVSPropertyOp37
 70
     1
102
RTVSPropertyOp38
 70
     1
102
RTVSPropertyOp39
 70
     1
102
RTVSPropertyOp40
 70
     1
102
RTVSPropertyOp41
 70
     1
102
RTVSPropertyOp42
 70
     1
102
RTVSPropertyOp43
 70
     1
102
RTVSPropertyOp44
 70
     1
102
RTVSPropertyOp45
 70
     1
102
RTVSPropertyOp46
 70
     1
102
RTVSPropertyOp47
 70
     1
102
RTVSPropertyOp48
 70
     1
102
RTVSPropertyOp49
 70
     1
102
RTVSPropertyOp50
 70
     1
102
RTVSPropertyOp51
 70
     0
102
RTVSPropertyOp52
 70
     0
102
RTVSPropertyOp53
 70
     1
102
RTVSPropertyOp54
 70
     1
102
RTVSPropertyOp55
 70
     1
102
RTVSPropertyOp56
 70
     1
102
RTVSPropertyOp57
 70
     1
102
RTVSPost2010Prop28
280
     0
102
RTVSPost2010PropOp28
 70
     1
102
RTVSPost2010Prop29
280
     1
102
RTVSPost2010PropOp29
 70
     1
102
RTVSPost2010Prop30
280
     1
102
RTVSPost2010PropOp30
 70
     1
102
RTVSPost2010Prop31
280
     0
102
RTVSPost2010PropOp31
 70
     1
102
RTVSPost2010Prop32
280
     0
102
RTVSPost2010PropOp32
 70
     1
102
RTVSPost2010Prop33
280
     0
102
RTVSPost2010PropOp33
 70
     1
102
RTVSPost2010Prop34
280
     0
102
RTVSPost2010PropOp34
 70
     1
102
RTVSPost2010Prop35
280
     0
102
RTVSPost2010PropOp35
 70
     1
102
RTVSPost2010Prop36
280
     0
102
RTVSPost2010PropOp36
 70
     1
102
RTVSPost2010Prop37
 90
       50
102
RTVSPost2010PropOp37
 70
     1
102
RTVSPost2010Prop38
140
0.0
102
RTVSPost2010PropOp38
 70
     1
102
RTVSPost2010Prop39
140
1.0
102
RTVSPost2010PropOp39
 70
     1
102
RTVSPost2010Prop40
 90
        0
102
RTVSPost2010PropOp40
 70
     1
102
RTVSPost2010Prop41ColorIndex
 90
       18
102
RTVSPost2010Prop41ColorRGB
 90
        0
102
RTVSPost2010PropOp41
 70
     1
102
RTVSPost2010Prop42
 90
       50
102
RTVSPost2010PropOp42
 70
     1
102
RTVSPost2010Prop43
 90
        3
102
RTVSPost2010PropOp43
 70
     1
102
RTVSPost2010Prop44ColorIndex
 90
        5
102
RTVSPost2010Prop44ColorRGB
 90
      255
102
RTVSPost2010PropOp44
 70
     1
102
RTVSPost2010Prop45
280
     0
102
RTVSPost2010PropOp45
 70
     1
102
RTVSPost2010Prop46
 90
       50
102
RTVSPost2010PropOp46
 70
     1
102
RTVSPost2010Prop47
 90
       50
102
RTVSPost2010PropOp47
 70
     1
102
RTVSPost2010Prop48
 90
       50
102
RTVSPost2010PropOp48
 70
     1
102
RTVSPost2010Prop49
280
     0
102
RTVSPost2010PropOp49
 70
     1
102
RTVSPost2010Prop50
 90
       50
102
RTVSPost2010PropOp50
 70
     1
102
RTVSPost2010Prop51ColorIndex
 90
      256
102
RTVSPost2010Prop51ColorRGB
 90
-16777216
102
RTVSPost2010PropOp51
 70
     0
102
RTVSPost2010Prop52
140
1.0
102
RTVSPost2010PropOp52
 70
     0
102
RTVSPost2010Prop53
 90
        2
102
RTVSPost2010PropOp53
 70
     1
102
RTVSPost2010Prop54
  1
strokes_ogs.tif
102
RTVSPost2010PropOp54
 70
     1
102
RTVSPost2010Prop55
280
     0
102
RTVSPost2010PropOp55
 70
     1
102
RTVSPost2010Prop56
140
1.0
102
RTVSPost2010PropOp56
 70
     1
102
RTVSPost2010Prop57
140
1.0
102
RTVSPost2010PropOp57
 70
     1
  0
XRECORD
  5
5E1
102
{ACAD_REACTORS
330
5E0
102
}
330
5E0
100
AcDbXrecord
280
     1
102
RTVSPropertyOp0
 70
     1
102
RTVSPropertyOp1
 70
     1
102
RTVSPropertyOp2
 70
     1
102
RTVSPropertyOp3
 70
     1
102
RTVSPropertyOp4
 70
     1
102
RTVSPropertyOp5
 70
     1
102
RTVSPropertyOp6
 70
     1
102
RTVSPropertyOp7
 70
     1
102
RTVSPropertyOp8
 70
     1
102
RTVSPropertyOp9
 70
     1
102
RTVSPropertyOp10
 70
     1
102
RTVSPropertyOp11
 70
     1
102
RTVSPropertyOp12
 70
     1
102
RTVSPropertyOp13
 70
     1
102
RTVSPropertyOp14
 70
     1
102
RTVSPropertyOp15
 70
     1
102
RTVSPropertyOp16
 70
     1
102
RTVSPropertyOp17
 70
     1
102
RTVSPropertyOp18
 70
     1
102
RTVSPropertyOp19
 70
     1
102
RTVSPropertyOp20
 70
     1
102
RTVSPropertyOp21
 70
     1
102
RTVSPropertyOp22
 70
     1
102
RTVSPropertyOp23
 70
     1
102
RTVSPropertyOp24
 70
     1
102
RTVSPropertyOp25
 70
     1
102
RTVSPropertyOp26
 70
     1
102
RTVSPropertyOp27
 70
     1
102
RTVSPropertyOp28
 70
     1
102
RTVSPropertyOp29
 70
     1
102
RTVSPropertyOp30
 70
     1
102
RTVSPropertyOp31
 70
     1
102
RTVSPropertyOp32
 70
     1
102
RTVSPropertyOp33
 70
     1
102
RTVSPropertyOp34
 70
     1
102
RTVSPropertyOp35
 70
     1
102
RTVSPropertyOp36
 70
     1
102
RTVSPropertyOp37
 70
     1
102
RTVSPropertyOp38
 70
     1
102
RTVSPropertyOp39
 70
     1
102
RTVSPropertyOp40
 70
     1
102
RTVSPropertyOp41
 70
     1
102
RTVSPropertyOp42
 70
     1
102
RTVSPropertyOp43
 70
     1
102
RTVSPropertyOp44
 70
     1
102
RTVSPropertyOp45
 70
     1
102
RTVSPropertyOp46
 70
     1
102
RTVSPropertyOp47
 70
     1
102
RTVSPropertyOp48
 70
     1
102
RTVSPropertyOp49
 70
     1
102
RTVSPropertyOp50
 70
     1
102
RTVSPropertyOp51
 70
     0
102
RTVSPropertyOp52
 70
     0
102
RTVSPropertyOp53
 70
     1
102
RTVSPropertyOp54
 70
     1
102
RTVSPropertyOp55
 70
     1
102
RTVSPropertyOp56
 70
     1
102
RTVSPropertyOp57
 70
     1
102
RTVSPost2010Prop28
280
     0
102
RTVSPost2010PropOp28
 70
     1
102
RTVSPost2010Prop29
280
     1
102
RTVSPost2010PropOp29
 70
     1
102
RTVSPost2010Prop30
280
     1
102
RTVSPost2010PropOp30
 70
     1
102
RTVSPost2010Prop31
280
     0
102
RTVSPost2010PropOp31
 70
     1
102
RTVSPost2010Prop32
280
     0
102
RTVSPost2010PropOp32
 70
     1
102
RTVSPost2010Prop33
280
     0
102
RTVSPost2010PropOp33
 70
     1
102
RTVSPost2010Prop34
280
     0
102
RTVSPost2010PropOp34
 70
     1
102
RTVSPost2010Prop35
280
     0
102
RTVSPost2010PropOp35
 70
     1
102
RTVSPost2010Prop36
280
     0
102
RTVSPost2010PropOp36
 70
     1
102
RTVSPost2010Prop37
 90
       50
102
RTVSPost2010PropOp37
 70
     1
102
RTVSPost2010Prop38
140
0.0
102
RTVSPost2010PropOp38
 70
     1
102
RTVSPost2010Prop39
140
1.0
102
RTVSPost2010PropOp39
 70
     1
102
RTVSPost2010Prop40
 90
        0
102
RTVSPost2010PropOp40
 70
     1
102
RTVSPost2010Prop41ColorIndex
 90
       18
102
RTVSPost2010Prop41ColorRGB
 90
        0
102
RTVSPost2010PropOp41
 70
     1
102
RTVSPost2010Prop42
 90
       50
102
RTVSPost2010PropOp42
 70
     1
102
RTVSPost2010Prop43
 90
        3
102
RTVSPost2010PropOp43
 70
     1
102
RTVSPost2010Prop44ColorIndex
 90
        5
102
RTVSPost2010Prop44ColorRGB
 90
      255
102
RTVSPost2010PropOp44
 70
     1
102
RTVSPost2010Prop45
280
     0
102
RTVSPost2010PropOp45
 70
     1
102
RTVSPost2010Prop46
 90
       50
102
RTVSPost2010PropOp46
 70
     1
102
RTVSPost2010Prop47
 90
       50
102
RTVSPost2010PropOp47
 70
     1
102
RTVSPost2010Prop48
 90
       50
102
RTVSPost2010PropOp48
 70
     1
102
RTVSPost2010Prop49
280
     0
102
RTVSPost2010PropOp49
 70
     1
102
RTVSPost2010Prop50
 90
       50
102
RTVSPost2010PropOp50
 70
     1
102
RTVSPost2010Prop51ColorIndex
 90
      256
102
RTVSPost2010Prop51ColorRGB
 90
-16777216
102
RTVSPost2010PropOp51
 70
     0
102
RTVSPost2010Prop52
140
1.0
102
RTVSPost2010PropOp52
 70
     0
102
RTVSPost2010Prop53
 90
        2
102
RTVSPost2010PropOp53
 70
     1
102
RTVSPost2010Prop54
  1
strokes_ogs.tif
102
RTVSPost2010PropOp54
 70
     1
102
RTVSPost2010Prop55
280
     0
102
RTVSPost2010PropOp55
 70
     1
102
RTVSPost2010Prop56
140
1.0
102
RTVSPost2010PropOp56
 70
     1
102
RTVSPost2010Prop57
140
1.0
102
RTVSPost2010PropOp57
 70
     1
  0
XRECORD
  5
5E5
102
{ACAD_REACTORS
330
5E4
102
}
330
5E4
100
AcDbXrecord
280
     1
102
RTVSPropertyOp0
 70
     1
102
RTVSPropertyOp1
 70
     1
102
RTVSPropertyOp2
 70
     1
102
RTVSPropertyOp3
 70
     1
102
RTVSPropertyOp4
 70
     1
102
RTVSPropertyOp5
 70
     1
102
RTVSPropertyOp6
 70
     1
102
RTVSPropertyOp7
 70
     1
102
RTVSPropertyOp8
 70
     1
102
RTVSPropertyOp9
 70
     1
102
RTVSPropertyOp10
 70
     1
102
RTVSPropertyOp11
 70
     1
102
RTVSPropertyOp12
 70
     1
102
RTVSPropertyOp13
 70
     1
102
RTVSPropertyOp14
 70
     1
102
RTVSPropertyOp15
 70
     1
102
RTVSPropertyOp16
 70
     1
102
RTVSPropertyOp17
 70
     1
102
RTVSPropertyOp18
 70
     1
102
RTVSPropertyOp19
 70
     1
102
RTVSPropertyOp20
 70
     1
102
RTVSPropertyOp21
 70
     1
102
RTVSPropertyOp22
 70
     1
102
RTVSPropertyOp23
 70
     1
102
RTVSPropertyOp24
 70
     1
102
RTVSPropertyOp25
 70
     1
102
RTVSPropertyOp26
 70
     1
102
RTVSPropertyOp27
 70
     1
102
RTVSPropertyOp28
 70
     1
102
RTVSPropertyOp29
 70
     1
102
RTVSPropertyOp30
 70
     1
102
RTVSPropertyOp31
 70
     1
102
RTVSPropertyOp32
 70
     1
102
RTVSPropertyOp33
 70
     1
102
RTVSPropertyOp34
 70
     1
102
RTVSPropertyOp35
 70
     1
102
RTVSPropertyOp36
 70
     1
102
RTVSPropertyOp37
 70
     1
102
RTVSPropertyOp38
 70
     1
102
RTVSPropertyOp39
 70
     1
102
RTVSPropertyOp40
 70
     1
102
RTVSPropertyOp41
 70
     1
102
RTVSPropertyOp42
 70
     1
102
RTVSPropertyOp43
 70
     1
102
RTVSPropertyOp44
 70
     1
102
RTVSPropertyOp45
 70
     1
102
RTVSPropertyOp46
 70
     1
102
RTVSPropertyOp47
 70
     1
102
RTVSPropertyOp48
 70
     1
102
RTVSPropertyOp49
 70
     1
102
RTVSPropertyOp50
 70
     1
102
RTVSPropertyOp51
 70
     0
102
RTVSPropertyOp52
 70
     0
102
RTVSPropertyOp53
 70
     1
102
RTVSPropertyOp54
 70
     1
102
RTVSPropertyOp55
 70
     1
102
RTVSPropertyOp56
 70
     1
102
RTVSPropertyOp57
 70
     1
102
RTVSPost2010Prop28
280
     0
102
RTVSPost2010PropOp28
 70
     1
102
RTVSPost2010Prop29
280
     1
102
RTVSPost2010PropOp29
 70
     1
102
RTVSPost2010Prop30
280
     1
102
RTVSPost2010PropOp30
 70
     1
102
RTVSPost2010Prop31
280
     0
102
RTVSPost2010PropOp31
 70
     1
102
RTVSPost2010Prop32
280
     0
102
RTVSPost2010PropOp32
 70
     1
102
RTVSPost2010Prop33
280
     0
102
RTVSPost2010PropOp33
 70
     1
102
RTVSPost2010Prop34
280
     0
102
RTVSPost2010PropOp34
 70
     1
102
RTVSPost2010Prop35
280
     0
102
RTVSPost2010PropOp35
 70
     1
102
RTVSPost2010Prop36
280
     0
102
RTVSPost2010PropOp36
 70
     1
102
RTVSPost2010Prop37
 90
       50
102
RTVSPost2010PropOp37
 70
     1
102
RTVSPost2010Prop38
140
0.0
102
RTVSPost2010PropOp38
 70
     1
102
RTVSPost2010Prop39
140
1.0
102
RTVSPost2010PropOp39
 70
     1
102
RTVSPost2010Prop40
 90
        0
102
RTVSPost2010PropOp40
 70
     1
102
RTVSPost2010Prop41ColorIndex
 90
       18
102
RTVSPost2010Prop41ColorRGB
 90
        0
102
RTVSPost2010PropOp41
 70
     1
102
RTVSPost2010Prop42
 90
       50
102
RTVSPost2010PropOp42
 70
     1
102
RTVSPost2010Prop43
 90
        3
102
RTVSPost2010PropOp43
 70
     1
102
RTVSPost2010Prop44ColorIndex
 90
        5
102
RTVSPost2010Prop44ColorRGB
 90
      255
102
RTVSPost2010PropOp44
 70
     1
102
RTVSPost2010Prop45
280
     0
102
RTVSPost2010PropOp45
 70
     1
102
RTVSPost2010Prop46
 90
       50
102
RTVSPost2010PropOp46
 70
     1
102
RTVSPost2010Prop47
 90
       50
102
RTVSPost2010PropOp47
 70
     1
102
RTVSPost2010Prop48
 90
       50
102
RTVSPost2010PropOp48
 70
     1
102
RTVSPost2010Prop49
280
     0
102
RTVSPost2010PropOp49
 70
     1
102
RTVSPost2010Prop50
 90
       50
102
RTVSPost2010PropOp50
 70
     1
102
RTVSPost2010Prop51ColorIndex
 90
      256
102
RTVSPost2010Prop51ColorRGB
 90
-16777216
102
RTVSPost2010PropOp51
 70
     0
102
RTVSPost2010Prop52
140
1.0
102
RTVSPost2010PropOp52
 70
     0
102
RTVSPost2010Prop53
 90
        2
102
RTVSPost2010PropOp53
 70
     1
102
RTVSPost2010Prop54
  1
strokes_ogs.tif
102
RTVSPost2010PropOp54
 70
     1
102
RTVSPost2010Prop55
280
     0
102
RTVSPost2010PropOp55
 70
     1
102
RTVSPost2010Prop56
140
1.0
102
RTVSPost2010PropOp56
 70
     1
102
RTVSPost2010Prop57
140
1.0
102
RTVSPost2010PropOp57
 70
     1
  0
XRECORD
  5
5F7
102
{ACAD_REACTORS
330
5F6
102
}
330
5F6
100
AcDbXrecord
280
     1
102
RTVSPropertyOp0
 70
     0
102
RTVSPropertyOp1
 70
     0
102
RTVSPropertyOp2
 70
     0
102
RTVSPropertyOp3
 70
     0
102
RTVSPropertyOp4
 70
     0
102
RTVSPropertyOp5
 70
     0
102
RTVSPropertyOp6
 70
     0
102
RTVSPropertyOp7
 70
     0
102
RTVSPropertyOp8
 70
     0
102
RTVSPropertyOp9
 70
     0
102
RTVSPropertyOp10
 70
     0
102
RTVSPropertyOp11
 70
     0
102
RTVSPropertyOp12
 70
     0
102
RTVSPropertyOp13
 70
     0
102
RTVSPropertyOp14
 70
     0
102
RTVSPropertyOp15
 70
     0
102
RTVSPropertyOp16
 70
     0
102
RTVSPropertyOp17
 70
     0
102
RTVSPropertyOp18
 70
     0
102
RTVSPropertyOp19
 70
     0
102
RTVSPropertyOp20
 70
     0
102
RTVSPropertyOp21
 70
     0
102
RTVSPropertyOp22
 70
     0
102
RTVSPropertyOp23
 70
     0
102
RTVSPropertyOp24
 70
     0
102
RTVSPropertyOp25
 70
     0
102
RTVSPropertyOp26
 70
     0
102
RTVSPropertyOp27
 70
     0
102
RTVSPropertyOp28
 70
     1
102
RTVSPropertyOp29
 70
     1
102
RTVSPropertyOp30
 70
     1
102
RTVSPropertyOp31
 70
     1
102
RTVSPropertyOp32
 70
     1
102
RTVSPropertyOp33
 70
     1
102
RTVSPropertyOp34
 70
     1
102
RTVSPropertyOp35
 70
     1
102
RTVSPropertyOp36
 70
     1
102
RTVSPropertyOp37
 70
     1
102
RTVSPropertyOp38
 70
     1
102
RTVSPropertyOp39
 70
     1
102
RTVSPropertyOp40
 70
     1
102
RTVSPropertyOp41
 70
     1
102
RTVSPropertyOp42
 70
     1
102
RTVSPropertyOp43
 70
     1
102
RTVSPropertyOp44
 70
     1
102
RTVSPropertyOp45
 70
     1
102
RTVSPropertyOp46
 70
     1
102
RTVSPropertyOp47
 70
     1
102
RTVSPropertyOp48
 70
     1
102
RTVSPropertyOp49
 70
     1
102
RTVSPropertyOp50
 70
     1
102
RTVSPropertyOp51
 70
     0
102
RTVSPropertyOp52
 70
     0
102
RTVSPropertyOp53
 70
     1
102
RTVSPropertyOp54
 70
     1
102
RTVSPropertyOp55
 70
     1
102
RTVSPropertyOp56
 70
     1
102
RTVSPropertyOp57
 70
     1
102
RTVSPost2010Prop28
280
     0
102
RTVSPost2010PropOp28
 70
     1
102
RTVSPost2010Prop29
280
     1
102
RTVSPost2010PropOp29
 70
     1
102
RTVSPost2010Prop30
280
     1
102
RTVSPost2010PropOp30
 70
     1
102
RTVSPost2010Prop31
280
     0
102
RTVSPost2010PropOp31
 70
     1
102
RTVSPost2010Prop32
280
     0
102
RTVSPost2010PropOp32
 70
     1
102
RTVSPost2010Prop33
280
     0
102
RTVSPost2010PropOp33
 70
     1
102
RTVSPost2010Prop34
280
     0
102
RTVSPost2010PropOp34
 70
     1
102
RTVSPost2010Prop35
280
     0
102
RTVSPost2010PropOp35
 70
     1
102
RTVSPost2010Prop36
280
     0
102
RTVSPost2010PropOp36
 70
     1
102
RTVSPost2010Prop37
 90
       50
102
RTVSPost2010PropOp37
 70
     1
102
RTVSPost2010Prop38
140
0.0
102
RTVSPost2010PropOp38
 70
     1
102
RTVSPost2010Prop39
140
1.0
102
RTVSPost2010PropOp39
 70
     1
102
RTVSPost2010Prop40
 90
        0
102
RTVSPost2010PropOp40
 70
     1
102
RTVSPost2010Prop41ColorIndex
 90
       18
102
RTVSPost2010Prop41ColorRGB
 90
        0
102
RTVSPost2010PropOp41
 70
     1
102
RTVSPost2010Prop42
 90
       50
102
RTVSPost2010PropOp42
 70
     1
102
RTVSPost2010Prop43
 90
        3
102
RTVSPost2010PropOp43
 70
     1
102
RTVSPost2010Prop44ColorIndex
 90
        5
102
RTVSPost2010Prop44ColorRGB
 90
      255
102
RTVSPost2010PropOp44
 70
     1
102
RTVSPost2010Prop45
280
     0
102
RTVSPost2010PropOp45
 70
     1
102
RTVSPost2010Prop46
 90
       50
102
RTVSPost2010PropOp46
 70
     1
102
RTVSPost2010Prop47
 90
       50
102
RTVSPost2010PropOp47
 70
     1
102
RTVSPost2010Prop48
 90
       50
102
RTVSPost2010PropOp48
 70
     1
102
RTVSPost2010Prop49
280
     0
102
RTVSPost2010PropOp49
 70
     1
102
RTVSPost2010Prop50
 90
       50
102
RTVSPost2010PropOp50
 70
     1
102
RTVSPost2010Prop51ColorIndex
 90
      256
102
RTVSPost2010Prop51ColorRGB
 90
-16777216
102
RTVSPost2010PropOp51
 70
     0
102
RTVSPost2010Prop52
140
1.0
102
RTVSPost2010PropOp52
 70
     0
102
RTVSPost2010Prop53
 90
        2
102
RTVSPost2010PropOp53
 70
     1
102
RTVSPost2010Prop54
  1
strokes_ogs.tif
102
RTVSPost2010PropOp54
 70
     1
102
RTVSPost2010Prop55
280
     0
102
RTVSPost2010PropOp55
 70
     1
102
RTVSPost2010Prop56
140
1.0
102
RTVSPost2010PropOp56
 70
     1
102
RTVSPost2010Prop57
140
1.0
102
RTVSPost2010PropOp57
 70
     1
  0
XRECORD
  5
5F1
102
{ACAD_REACTORS
330
5F0
102
}
330
5F0
100
AcDbXrecord
280
     1
102
RTVSPropertyOp0
 70
     1
102
RTVSPropertyOp1
 70
     1
102
RTVSPropertyOp2
 70
     1
102
RTVSPropertyOp3
 70
     1
102
RTVSPropertyOp4
 70
     1
102
RTVSPropertyOp5
 70
     1
102
RTVSPropertyOp6
 70
     1
102
RTVSPropertyOp7
 70
     1
102
RTVSPropertyOp8
 70
     1
102
RTVSPropertyOp9
 70
     1
102
RTVSPropertyOp10
 70
     1
102
RTVSPropertyOp11
 70
     1
102
RTVSPropertyOp12
 70
     1
102
RTVSPropertyOp13
 70
     1
102
RTVSPropertyOp14
 70
     1
102
RTVSPropertyOp15
 70
     1
102
RTVSPropertyOp16
 70
     1
102
RTVSPropertyOp17
 70
     1
102
RTVSPropertyOp18
 70
     1
102
RTVSPropertyOp19
 70
     1
102
RTVSPropertyOp20
 70
     1
102
RTVSPropertyOp21
 70
     1
102
RTVSPropertyOp22
 70
     1
102
RTVSPropertyOp23
 70
     1
102
RTVSPropertyOp24
 70
     1
102
RTVSPropertyOp25
 70
     1
102
RTVSPropertyOp26
 70
     1
102
RTVSPropertyOp27
 70
     1
102
RTVSPropertyOp28
 70
     1
102
RTVSPropertyOp29
 70
     1
102
RTVSPropertyOp30
 70
     1
102
RTVSPropertyOp31
 70
     1
102
RTVSPropertyOp32
 70
     1
102
RTVSPropertyOp33
 70
     1
102
RTVSPropertyOp34
 70
     1
102
RTVSPropertyOp35
 70
     1
102
RTVSPropertyOp36
 70
     1
102
RTVSPropertyOp37
 70
     1
102
RTVSPropertyOp38
 70
     1
102
RTVSPropertyOp39
 70
     1
102
RTVSPropertyOp40
 70
     1
102
RTVSPropertyOp41
 70
     1
102
RTVSPropertyOp42
 70
     1
102
RTVSPropertyOp43
 70
     1
102
RTVSPropertyOp44
 70
     1
102
RTVSPropertyOp45
 70
     1
102
RTVSPropertyOp46
 70
     1
102
RTVSPropertyOp47
 70
     1
102
RTVSPropertyOp48
 70
     1
102
RTVSPropertyOp49
 70
     1
102
RTVSPropertyOp50
 70
     1
102
RTVSPropertyOp51
 70
     0
102
RTVSPropertyOp52
 70
     0
102
RTVSPropertyOp53
 70
     1
102
RTVSPropertyOp54
 70
     1
102
RTVSPropertyOp55
 70
     1
102
RTVSPropertyOp56
 70
     1
102
RTVSPropertyOp57
 70
     1
102
RTVSPost2010Prop28
280
     0
102
RTVSPost2010PropOp28
 70
     1
102
RTVSPost2010Prop29
280
     1
102
RTVSPost2010PropOp29
 70
     1
102
RTVSPost2010Prop30
280
     1
102
RTVSPost2010PropOp30
 70
     1
102
RTVSPost2010Prop31
280
     0
102
RTVSPost2010PropOp31
 70
     1
102
RTVSPost2010Prop32
280
     0
102
RTVSPost2010PropOp32
 70
     1
102
RTVSPost2010Prop33
280
     0
102
RTVSPost2010PropOp33
 70
     1
102
RTVSPost2010Prop34
280
     0
102
RTVSPost2010PropOp34
 70
     1
102
RTVSPost2010Prop35
280
     0
102
RTVSPost2010PropOp35
 70
     1
102
RTVSPost2010Prop36
280
     0
102
RTVSPost2010PropOp36
 70
     1
102
RTVSPost2010Prop37
 90
       50
102
RTVSPost2010PropOp37
 70
     1
102
RTVSPost2010Prop38
140
0.0
102
RTVSPost2010PropOp38
 70
     1
102
RTVSPost2010Prop39
140
1.0
102
RTVSPost2010PropOp39
 70
     1
102
RTVSPost2010Prop40
 90
        0
102
RTVSPost2010PropOp40
 70
     1
102
RTVSPost2010Prop41ColorIndex
 90
       18
102
RTVSPost2010Prop41ColorRGB
 90
        0
102
RTVSPost2010PropOp41
 70
     1
102
RTVSPost2010Prop42
 90
       50
102
RTVSPost2010PropOp42
 70
     1
102
RTVSPost2010Prop43
 90
        3
102
RTVSPost2010PropOp43
 70
     1
102
RTVSPost2010Prop44ColorIndex
 90
        5
102
RTVSPost2010Prop44ColorRGB
 90
      255
102
RTVSPost2010PropOp44
 70
     1
102
RTVSPost2010Prop45
280
     0
102
RTVSPost2010PropOp45
 70
     1
102
RTVSPost2010Prop46
 90
       50
102
RTVSPost2010PropOp46
 70
     1
102
RTVSPost2010Prop47
 90
       50
102
RTVSPost2010PropOp47
 70
     1
102
RTVSPost2010Prop48
 90
       50
102
RTVSPost2010PropOp48
 70
     1
102
RTVSPost2010Prop49
280
     0
102
RTVSPost2010PropOp49
 70
     1
102
RTVSPost2010Prop50
 90
       50
102
RTVSPost2010PropOp50
 70
     1
102
RTVSPost2010Prop51ColorIndex
 90
      256
102
RTVSPost2010Prop51ColorRGB
 90
-16777216
102
RTVSPost2010PropOp51
 70
     0
102
RTVSPost2010Prop52
140
1.0
102
RTVSPost2010PropOp52
 70
     0
102
RTVSPost2010Prop53
 90
        2
102
RTVSPost2010PropOp53
 70
     1
102
RTVSPost2010Prop54
  1
strokes_ogs.tif
102
RTVSPost2010PropOp54
 70
     1
102
RTVSPost2010Prop55
280
     0
102
RTVSPost2010PropOp55
 70
     1
102
RTVSPost2010Prop56
140
1.0
102
RTVSPost2010PropOp56
 70
     1
102
RTVSPost2010Prop57
140
1.0
102
RTVSPost2010PropOp57
 70
     1
  0
XRECORD
  5
5F9
102
{ACAD_REACTORS
330
5F8
102
}
330
5F8
100
AcDbXrecord
280
     1
102
RTVSPropertyOp0
 70
     0
102
RTVSPropertyOp1
 70
     0
102
RTVSPropertyOp2
 70
     0
102
RTVSPropertyOp3
 70
     0
102
RTVSPropertyOp4
 70
     0
102
RTVSPropertyOp5
 70
     0
102
RTVSPropertyOp6
 70
     0
102
RTVSPropertyOp7
 70
     0
102
RTVSPropertyOp8
 70
     0
102
RTVSPropertyOp9
 70
     0
102
RTVSPropertyOp10
 70
     0
102
RTVSPropertyOp11
 70
     0
102
RTVSPropertyOp12
 70
     0
102
RTVSPropertyOp13
 70
     0
102
RTVSPropertyOp14
 70
     0
102
RTVSPropertyOp15
 70
     0
102
RTVSPropertyOp16
 70
     0
102
RTVSPropertyOp17
 70
     0
102
RTVSPropertyOp18
 70
     0
102
RTVSPropertyOp19
 70
     0
102
RTVSPropertyOp20
 70
     0
102
RTVSPropertyOp21
 70
     0
102
RTVSPropertyOp22
 70
     0
102
RTVSPropertyOp23
 70
     0
102
RTVSPropertyOp24
 70
     0
102
RTVSPropertyOp25
 70
     0
102
RTVSPropertyOp26
 70
     0
102
RTVSPropertyOp27
 70
     0
102
RTVSPropertyOp28
 70
     1
102
RTVSPropertyOp29
 70
     1
102
RTVSPropertyOp30
 70
     1
102
RTVSPropertyOp31
 70
     1
102
RTVSPropertyOp32
 70
     1
102
RTVSPropertyOp33
 70
     1
102
RTVSPropertyOp34
 70
     1
102
RTVSPropertyOp35
 70
     1
102
RTVSPropertyOp36
 70
     1
102
RTVSPropertyOp37
 70
     1
102
RTVSPropertyOp38
 70
     1
102
RTVSPropertyOp39
 70
     1
102
RTVSPropertyOp40
 70
     1
102
RTVSPropertyOp41
 70
     1
102
RTVSPropertyOp42
 70
     1
102
RTVSPropertyOp43
 70
     1
102
RTVSPropertyOp44
 70
     1
102
RTVSPropertyOp45
 70
     1
102
RTVSPropertyOp46
 70
     1
102
RTVSPropertyOp47
 70
     1
102
RTVSPropertyOp48
 70
     1
102
RTVSPropertyOp49
 70
     1
102
RTVSPropertyOp50
 70
     1
102
RTVSPropertyOp51
 70
     0
102
RTVSPropertyOp52
 70
     0
102
RTVSPropertyOp53
 70
     1
102
RTVSPropertyOp54
 70
     1
102
RTVSPropertyOp55
 70
     1
102
RTVSPropertyOp56
 70
     1
102
RTVSPropertyOp57
 70
     1
102
RTVSPost2010Prop28
280
     0
102
RTVSPost2010PropOp28
 70
     1
102
RTVSPost2010Prop29
280
     1
102
RTVSPost2010PropOp29
 70
     1
102
RTVSPost2010Prop30
280
     1
102
RTVSPost2010PropOp30
 70
     1
102
RTVSPost2010Prop31
280
     0
102
RTVSPost2010PropOp31
 70
     1
102
RTVSPost2010Prop32
280
     0
102
RTVSPost2010PropOp32
 70
     1
102
RTVSPost2010Prop33
280
     0
102
RTVSPost2010PropOp33
 70
     1
102
RTVSPost2010Prop34
280
     0
102
RTVSPost2010PropOp34
 70
     1
102
RTVSPost2010Prop35
280
     0
102
RTVSPost2010PropOp35
 70
     1
102
RTVSPost2010Prop36
280
     0
102
RTVSPost2010PropOp36
 70
     1
102
RTVSPost2010Prop37
 90
       50
102
RTVSPost2010PropOp37
 70
     1
102
RTVSPost2010Prop38
140
0.0
102
RTVSPost2010PropOp38
 70
     1
102
RTVSPost2010Prop39
140
1.0
102
RTVSPost2010PropOp39
 70
     1
102
RTVSPost2010Prop40
 90
        0
102
RTVSPost2010PropOp40
 70
     1
102
RTVSPost2010Prop41ColorIndex
 90
       18
102
RTVSPost2010Prop41ColorRGB
 90
        0
102
RTVSPost2010PropOp41
 70
     1
102
RTVSPost2010Prop42
 90
       50
102
RTVSPost2010PropOp42
 70
     1
102
RTVSPost2010Prop43
 90
        3
102
RTVSPost2010PropOp43
 70
     1
102
RTVSPost2010Prop44ColorIndex
 90
        5
102
RTVSPost2010Prop44ColorRGB
 90
      255
102
RTVSPost2010PropOp44
 70
     1
102
RTVSPost2010Prop45
280
     0
102
RTVSPost2010PropOp45
 70
     1
102
RTVSPost2010Prop46
 90
       50
102
RTVSPost2010PropOp46
 70
     1
102
RTVSPost2010Prop47
 90
       50
102
RTVSPost2010PropOp47
 70
     1
102
RTVSPost2010Prop48
 90
       50
102
RTVSPost2010PropOp48
 70
     1
102
RTVSPost2010Prop49
280
     0
102
RTVSPost2010PropOp49
 70
     1
102
RTVSPost2010Prop50
 90
       50
102
RTVSPost2010PropOp50
 70
     1
102
RTVSPost2010Prop51ColorIndex
 90
      256
102
RTVSPost2010Prop51ColorRGB
 90
-16777216
102
RTVSPost2010PropOp51
 70
     0
102
RTVSPost2010Prop52
140
1.0
102
RTVSPost2010PropOp52
 70
     0
102
RTVSPost2010Prop53
 90
        2
102
RTVSPost2010PropOp53
 70
     1
102
RTVSPost2010Prop54
  1
strokes_ogs.tif
102
RTVSPost2010PropOp54
 70
     1
102
RTVSPost2010Prop55
280
     0
102
RTVSPost2010PropOp55
 70
     1
102
RTVSPost2010Prop56
140
1.0
102
RTVSPost2010PropOp56
 70
     1
102
RTVSPost2010Prop57
140
1.0
102
RTVSPost2010PropOp57
 70
     1
  0
XRECORD
  5
5D7
102
{ACAD_REACTORS
330
5D6
102
}
330
5D6
100
AcDbXrecord
280
     1
102
RTVSPropertyOp0
 70
     1
102
RTVSPropertyOp1
 70
     1
102
RTVSPropertyOp2
 70
     1
102
RTVSPropertyOp3
 70
     1
102
RTVSPropertyOp4
 70
     1
102
RTVSPropertyOp5
 70
     1
102
RTVSPropertyOp6
 70
     1
102
RTVSPropertyOp7
 70
     1
102
RTVSPropertyOp8
 70
     1
102
RTVSPropertyOp9
 70
     1
102
RTVSPropertyOp10
 70
     1
102
RTVSPropertyOp11
 70
     1
102
RTVSPropertyOp12
 70
     1
102
RTVSPropertyOp13
 70
     1
102
RTVSPropertyOp14
 70
     1
102
RTVSPropertyOp15
 70
     1
102
RTVSPropertyOp16
 70
     1
102
RTVSPropertyOp17
 70
     1
102
RTVSPropertyOp18
 70
     1
102
RTVSPropertyOp19
 70
     1
102
RTVSPropertyOp20
 70
     1
102
RTVSPropertyOp21
 70
     1
102
RTVSPropertyOp22
 70
     1
102
RTVSPropertyOp23
 70
     1
102
RTVSPropertyOp24
 70
     1
102
RTVSPropertyOp25
 70
     1
102
RTVSPropertyOp26
 70
     1
102
RTVSPropertyOp27
 70
     1
102
RTVSPropertyOp28
 70
     1
102
RTVSPropertyOp29
 70
     1
102
RTVSPropertyOp30
 70
     1
102
RTVSPropertyOp31
 70
     1
102
RTVSPropertyOp32
 70
     1
102
RTVSPropertyOp33
 70
     1
102
RTVSPropertyOp34
 70
     1
102
RTVSPropertyOp35
 70
     1
102
RTVSPropertyOp36
 70
     1
102
RTVSPropertyOp37
 70
     1
102
RTVSPropertyOp38
 70
     1
102
RTVSPropertyOp39
 70
     1
102
RTVSPropertyOp40
 70
     1
102
RTVSPropertyOp41
 70
     1
102
RTVSPropertyOp42
 70
     1
102
RTVSPropertyOp43
 70
     1
102
RTVSPropertyOp44
 70
     1
102
RTVSPropertyOp45
 70
     1
102
RTVSPropertyOp46
 70
     1
102
RTVSPropertyOp47
 70
     1
102
RTVSPropertyOp48
 70
     1
102
RTVSPropertyOp49
 70
     1
102
RTVSPropertyOp50
 70
     1
102
RTVSPropertyOp51
 70
     0
102
RTVSPropertyOp52
 70
     0
102
RTVSPropertyOp53
 70
     1
102
RTVSPropertyOp54
 70
     1
102
RTVSPropertyOp55
 70
     1
102
RTVSPropertyOp56
 70
     1
102
RTVSPropertyOp57
 70
     1
102
RTVSPost2010Prop28
280
     0
102
RTVSPost2010PropOp28
 70
     1
102
RTVSPost2010Prop29
280
     1
102
RTVSPost2010PropOp29
 70
     1
102
RTVSPost2010Prop30
280
     1
102
RTVSPost2010PropOp30
 70
     1
102
RTVSPost2010Prop31
280
     0
102
RTVSPost2010PropOp31
 70
     1
102
RTVSPost2010Prop32
280
     0
102
RTVSPost2010PropOp32
 70
     1
102
RTVSPost2010Prop33
280
     0
102
RTVSPost2010PropOp33
 70
     1
102
RTVSPost2010Prop34
280
     0
102
RTVSPost2010PropOp34
 70
     1
102
RTVSPost2010Prop35
280
     0
102
RTVSPost2010PropOp35
 70
     1
102
RTVSPost2010Prop36
280
     0
102
RTVSPost2010PropOp36
 70
     1
102
RTVSPost2010Prop37
 90
       50
102
RTVSPost2010PropOp37
 70
     1
102
RTVSPost2010Prop38
140
0.0
102
RTVSPost2010PropOp38
 70
     1
102
RTVSPost2010Prop39
140
1.0
102
RTVSPost2010PropOp39
 70
     1
102
RTVSPost2010Prop40
 90
        0
102
RTVSPost2010PropOp40
 70
     1
102
RTVSPost2010Prop41ColorIndex
 90
       18
102
RTVSPost2010Prop41ColorRGB
 90
        0
102
RTVSPost2010PropOp41
 70
     1
102
RTVSPost2010Prop42
 90
       50
102
RTVSPost2010PropOp42
 70
     1
102
RTVSPost2010Prop43
 90
        3
102
RTVSPost2010PropOp43
 70
     1
102
RTVSPost2010Prop44ColorIndex
 90
        5
102
RTVSPost2010Prop44ColorRGB
 90
      255
102
RTVSPost2010PropOp44
 70
     1
102
RTVSPost2010Prop45
280
     0
102
RTVSPost2010PropOp45
 70
     1
102
RTVSPost2010Prop46
 90
       50
102
RTVSPost2010PropOp46
 70
     1
102
RTVSPost2010Prop47
 90
       50
102
RTVSPost2010PropOp47
 70
     1
102
RTVSPost2010Prop48
 90
       50
102
RTVSPost2010PropOp48
 70
     1
102
RTVSPost2010Prop49
280
     0
102
RTVSPost2010PropOp49
 70
     1
102
RTVSPost2010Prop50
 90
       50
102
RTVSPost2010PropOp50
 70
     1
102
RTVSPost2010Prop51ColorIndex
 90
      256
102
RTVSPost2010Prop51ColorRGB
 90
-16777216
102
RTVSPost2010PropOp51
 70
     0
102
RTVSPost2010Prop52
140
1.0
102
RTVSPost2010PropOp52
 70
     0
102
RTVSPost2010Prop53
 90
        2
102
RTVSPost2010PropOp53
 70
     1
102
RTVSPost2010Prop54
  1
strokes_ogs.tif
102
RTVSPost2010PropOp54
 70
     1
102
RTVSPost2010Prop55
280
     0
102
RTVSPost2010PropOp55
 70
     1
102
RTVSPost2010Prop56
140
1.0
102
RTVSPost2010PropOp56
 70
     1
102
RTVSPost2010Prop57
140
1.0
102
RTVSPost2010PropOp57
 70
     1
  0
XRECORD
  5
605
102
{ACAD_REACTORS
330
604
102
}
330
604
100
AcDbXrecord
280
     1
102
RTVSPropertyOp0
 70
     1
102
RTVSPropertyOp1
 70
     1
102
RTVSPropertyOp2
 70
     1
102
RTVSPropertyOp3
 70
     1
102
RTVSPropertyOp4
 70
     1
102
RTVSPropertyOp5
 70
     1
102
RTVSPropertyOp6
 70
     1
102
RTVSPropertyOp7
 70
     1
102
RTVSPropertyOp8
 70
     1
102
RTVSPropertyOp9
 70
     1
102
RTVSPropertyOp10
 70
     1
102
RTVSPropertyOp11
 70
     1
102
RTVSPropertyOp12
 70
     1
102
RTVSPropertyOp13
 70
     1
102
RTVSPropertyOp14
 70
     1
102
RTVSPropertyOp15
 70
     1
102
RTVSPropertyOp16
 70
     1
102
RTVSPropertyOp17
 70
     1
102
RTVSPropertyOp18
 70
     1
102
RTVSPropertyOp19
 70
     1
102
RTVSPropertyOp20
 70
     1
102
RTVSPropertyOp21
 70
     1
102
RTVSPropertyOp22
 70
     1
102
RTVSPropertyOp23
 70
     1
102
RTVSPropertyOp24
 70
     1
102
RTVSPropertyOp25
 70
     1
102
RTVSPropertyOp26
 70
     1
102
RTVSPropertyOp27
 70
     1
102
RTVSPropertyOp28
 70
     1
102
RTVSPropertyOp29
 70
     1
102
RTVSPropertyOp30
 70
     1
102
RTVSPropertyOp31
 70
     1
102
RTVSPropertyOp32
 70
     1
102
RTVSPropertyOp33
 70
     1
102
RTVSPropertyOp34
 70
     1
102
RTVSPropertyOp35
 70
     1
102
RTVSPropertyOp36
 70
     1
102
RTVSPropertyOp37
 70
     1
102
RTVSPropertyOp38
 70
     1
102
RTVSPropertyOp39
 70
     1
102
RTVSPropertyOp40
 70
     1
102
RTVSPropertyOp41
 70
     1
102
RTVSPropertyOp42
 70
     1
102
RTVSPropertyOp43
 70
     1
102
RTVSPropertyOp44
 70
     1
102
RTVSPropertyOp45
 70
     1
102
RTVSPropertyOp46
 70
     1
102
RTVSPropertyOp47
 70
     1
102
RTVSPropertyOp48
 70
     1
102
RTVSPropertyOp49
 70
     1
102
RTVSPropertyOp50
 70
     1
102
RTVSPropertyOp51
 70
     0
102
RTVSPropertyOp52
 70
     0
102
RTVSPropertyOp53
 70
     1
102
RTVSPropertyOp54
 70
     1
102
RTVSPropertyOp55
 70
     1
102
RTVSPropertyOp56
 70
     1
102
RTVSPropertyOp57
 70
     1
102
RTVSPost2010Prop28
280
     0
102
RTVSPost2010PropOp28
 70
     1
102
RTVSPost2010Prop29
280
     1
102
RTVSPost2010PropOp29
 70
     1
102
RTVSPost2010Prop30
280
     1
102
RTVSPost2010PropOp30
 70
     1
102
RTVSPost2010Prop31
280
     0
102
RTVSPost2010PropOp31
 70
     1
102
RTVSPost2010Prop32
280
     0
102
RTVSPost2010PropOp32
 70
     1
102
RTVSPost2010Prop33
280
     0
102
RTVSPost2010PropOp33
 70
     1
102
RTVSPost2010Prop34
280
     0
102
RTVSPost2010PropOp34
 70
     1
102
RTVSPost2010Prop35
280
     0
102
RTVSPost2010PropOp35
 70
     1
102
RTVSPost2010Prop36
280
     0
102
RTVSPost2010PropOp36
 70
     1
102
RTVSPost2010Prop37
 90
       50
102
RTVSPost2010PropOp37
 70
     1
102
RTVSPost2010Prop38
140
0.0
102
RTVSPost2010PropOp38
 70
     1
102
RTVSPost2010Prop39
140
1.0
102
RTVSPost2010PropOp39
 70
     1
102
RTVSPost2010Prop40
 90
        0
102
RTVSPost2010PropOp40
 70
     1
102
RTVSPost2010Prop41ColorIndex
 90
       18
102
RTVSPost2010Prop41ColorRGB
 90
        0
102
RTVSPost2010PropOp41
 70
     1
102
RTVSPost2010Prop42
 90
       50
102
RTVSPost2010PropOp42
 70
     1
102
RTVSPost2010Prop43
 90
        3
102
RTVSPost2010PropOp43
 70
     1
102
RTVSPost2010Prop44ColorIndex
 90
        5
102
RTVSPost2010Prop44ColorRGB
 90
      255
102
RTVSPost2010PropOp44
 70
     1
102
RTVSPost2010Prop45
280
     0
102
RTVSPost2010PropOp45
 70
     1
102
RTVSPost2010Prop46
 90
       50
102
RTVSPost2010PropOp46
 70
     1
102
RTVSPost2010Prop47
 90
       50
102
RTVSPost2010PropOp47
 70
     1
102
RTVSPost2010Prop48
 90
       50
102
RTVSPost2010PropOp48
 70
     1
102
RTVSPost2010Prop49
280
     0
102
RTVSPost2010PropOp49
 70
     1
102
RTVSPost2010Prop50
 90
       50
102
RTVSPost2010PropOp50
 70
     1
102
RTVSPost2010Prop51ColorIndex
 90
      256
102
RTVSPost2010Prop51ColorRGB
 90
-16777216
102
RTVSPost2010PropOp51
 70
     0
102
RTVSPost2010Prop52
140
1.0
102
RTVSPost2010PropOp52
 70
     0
102
RTVSPost2010Prop53
 90
        2
102
RTVSPost2010PropOp53
 70
     1
102
RTVSPost2010Prop54
  1
strokes_ogs.tif
102
RTVSPost2010PropOp54
 70
     1
102
RTVSPost2010Prop55
280
     0
102
RTVSPost2010PropOp55
 70
     1
102
RTVSPost2010Prop56
140
1.0
102
RTVSPost2010PropOp56
 70
     1
102
RTVSPost2010Prop57
140
1.0
102
RTVSPost2010PropOp57
 70
     1
  0
XRECORD
  5
603
102
{ACAD_REACTORS
330
602
102
}
330
602
100
AcDbXrecord
280
     1
102
RTVSPropertyOp0
 70
     1
102
RTVSPropertyOp1
 70
     1
102
RTVSPropertyOp2
 70
     1
102
RTVSPropertyOp3
 70
     1
102
RTVSPropertyOp4
 70
     1
102
RTVSPropertyOp5
 70
     1
102
RTVSPropertyOp6
 70
     1
102
RTVSPropertyOp7
 70
     1
102
RTVSPropertyOp8
 70
     1
102
RTVSPropertyOp9
 70
     1
102
RTVSPropertyOp10
 70
     1
102
RTVSPropertyOp11
 70
     1
102
RTVSPropertyOp12
 70
     1
102
RTVSPropertyOp13
 70
     1
102
RTVSPropertyOp14
 70
     1
102
RTVSPropertyOp15
 70
     1
102
RTVSPropertyOp16
 70
     1
102
RTVSPropertyOp17
 70
     1
102
RTVSPropertyOp18
 70
     1
102
RTVSPropertyOp19
 70
     1
102
RTVSPropertyOp20
 70
     1
102
RTVSPropertyOp21
 70
     1
102
RTVSPropertyOp22
 70
     1
102
RTVSPropertyOp23
 70
     1
102
RTVSPropertyOp24
 70
     1
102
RTVSPropertyOp25
 70
     1
102
RTVSPropertyOp26
 70
     1
102
RTVSPropertyOp27
 70
     1
102
RTVSPropertyOp28
 70
     1
102
RTVSPropertyOp29
 70
     1
102
RTVSPropertyOp30
 70
     1
102
RTVSPropertyOp31
 70
     1
102
RTVSPropertyOp32
 70
     1
102
RTVSPropertyOp33
 70
     1
102
RTVSPropertyOp34
 70
     1
102
RTVSPropertyOp35
 70
     1
102
RTVSPropertyOp36
 70
     1
102
RTVSPropertyOp37
 70
     1
102
RTVSPropertyOp38
 70
     1
102
RTVSPropertyOp39
 70
     1
102
RTVSPropertyOp40
 70
     1
102
RTVSPropertyOp41
 70
     1
102
RTVSPropertyOp42
 70
     1
102
RTVSPropertyOp43
 70
     1
102
RTVSPropertyOp44
 70
     1
102
RTVSPropertyOp45
 70
     1
102
RTVSPropertyOp46
 70
     1
102
RTVSPropertyOp47
 70
     1
102
RTVSPropertyOp48
 70
     1
102
RTVSPropertyOp49
 70
     1
102
RTVSPropertyOp50
 70
     1
102
RTVSPropertyOp51
 70
     0
102
RTVSPropertyOp52
 70
     0
102
RTVSPropertyOp53
 70
     1
102
RTVSPropertyOp54
 70
     1
102
RTVSPropertyOp55
 70
     1
102
RTVSPropertyOp56
 70
     1
102
RTVSPropertyOp57
 70
     1
102
RTVSPost2010Prop28
280
     0
102
RTVSPost2010PropOp28
 70
     1
102
RTVSPost2010Prop29
280
     1
102
RTVSPost2010PropOp29
 70
     1
102
RTVSPost2010Prop30
280
     1
102
RTVSPost2010PropOp30
 70
     1
102
RTVSPost2010Prop31
280
     0
102
RTVSPost2010PropOp31
 70
     1
102
RTVSPost2010Prop32
280
     0
102
RTVSPost2010PropOp32
 70
     1
102
RTVSPost2010Prop33
280
     0
102
RTVSPost2010PropOp33
 70
     1
102
RTVSPost2010Prop34
280
     0
102
RTVSPost2010PropOp34
 70
     1
102
RTVSPost2010Prop35
280
     0
102
RTVSPost2010PropOp35
 70
     1
102
RTVSPost2010Prop36
280
     0
102
RTVSPost2010PropOp36
 70
     1
102
RTVSPost2010Prop37
 90
       50
102
RTVSPost2010PropOp37
 70
     1
102
RTVSPost2010Prop38
140
0.0
102
RTVSPost2010PropOp38
 70
     1
102
RTVSPost2010Prop39
140
1.0
102
RTVSPost2010PropOp39
 70
     1
102
RTVSPost2010Prop40
 90
        0
102
RTVSPost2010PropOp40
 70
     1
102
RTVSPost2010Prop41ColorIndex
 90
       18
102
RTVSPost2010Prop41ColorRGB
 90
        0
102
RTVSPost2010PropOp41
 70
     1
102
RTVSPost2010Prop42
 90
       50
102
RTVSPost2010PropOp42
 70
     1
102
RTVSPost2010Prop43
 90
        3
102
RTVSPost2010PropOp43
 70
     1
102
RTVSPost2010Prop44ColorIndex
 90
        5
102
RTVSPost2010Prop44ColorRGB
 90
      255
102
RTVSPost2010PropOp44
 70
     1
102
RTVSPost2010Prop45
280
     0
102
RTVSPost2010PropOp45
 70
     1
102
RTVSPost2010Prop46
 90
       50
102
RTVSPost2010PropOp46
 70
     1
102
RTVSPost2010Prop47
 90
       50
102
RTVSPost2010PropOp47
 70
     1
102
RTVSPost2010Prop48
 90
       50
102
RTVSPost2010PropOp48
 70
     1
102
RTVSPost2010Prop49
280
     0
102
RTVSPost2010PropOp49
 70
     1
102
RTVSPost2010Prop50
 90
       50
102
RTVSPost2010PropOp50
 70
     1
102
RTVSPost2010Prop51ColorIndex
 90
      256
102
RTVSPost2010Prop51ColorRGB
 90
-16777216
102
RTVSPost2010PropOp51
 70
     0
102
RTVSPost2010Prop52
140
1.0
102
RTVSPost2010PropOp52
 70
     0
102
RTVSPost2010Prop53
 90
        2
102
RTVSPost2010PropOp53
 70
     1
102
RTVSPost2010Prop54
  1
strokes_ogs.tif
102
RTVSPost2010PropOp54
 70
     1
102
RTVSPost2010Prop55
280
     0
102
RTVSPost2010PropOp55
 70
     1
102
RTVSPost2010Prop56
140
1.0
102
RTVSPost2010PropOp56
 70
     1
102
RTVSPost2010Prop57
140
1.0
102
RTVSPost2010PropOp57
 70
     1
  0
XRECORD
  5
5FD
102
{ACAD_REACTORS
330
5FC
102
}
330
5FC
100
AcDbXrecord
280
     1
102
RTVSPropertyOp0
 70
     1
102
RTVSPropertyOp1
 70
     1
102
RTVSPropertyOp2
 70
     1
102
RTVSPropertyOp3
 70
     1
102
RTVSPropertyOp4
 70
     1
102
RTVSPropertyOp5
 70
     1
102
RTVSPropertyOp6
 70
     1
102
RTVSPropertyOp7
 70
     1
102
RTVSPropertyOp8
 70
     1
102
RTVSPropertyOp9
 70
     1
102
RTVSPropertyOp10
 70
     1
102
RTVSPropertyOp11
 70
     1
102
RTVSPropertyOp12
 70
     1
102
RTVSPropertyOp13
 70
     1
102
RTVSPropertyOp14
 70
     1
102
RTVSPropertyOp15
 70
     1
102
RTVSPropertyOp16
 70
     1
102
RTVSPropertyOp17
 70
     1
102
RTVSPropertyOp18
 70
     1
102
RTVSPropertyOp19
 70
     1
102
RTVSPropertyOp20
 70
     1
102
RTVSPropertyOp21
 70
     1
102
RTVSPropertyOp22
 70
     1
102
RTVSPropertyOp23
 70
     1
102
RTVSPropertyOp24
 70
     1
102
RTVSPropertyOp25
 70
     1
102
RTVSPropertyOp26
 70
     1
102
RTVSPropertyOp27
 70
     1
102
RTVSPropertyOp28
 70
     1
102
RTVSPropertyOp29
 70
     1
102
RTVSPropertyOp30
 70
     1
102
RTVSPropertyOp31
 70
     1
102
RTVSPropertyOp32
 70
     1
102
RTVSPropertyOp33
 70
     1
102
RTVSPropertyOp34
 70
     1
102
RTVSPropertyOp35
 70
     1
102
RTVSPropertyOp36
 70
     1
102
RTVSPropertyOp37
 70
     1
102
RTVSPropertyOp38
 70
     1
102
RTVSPropertyOp39
 70
     1
102
RTVSPropertyOp40
 70
     1
102
RTVSPropertyOp41
 70
     1
102
RTVSPropertyOp42
 70
     1
102
RTVSPropertyOp43
 70
     1
102
RTVSPropertyOp44
 70
     1
102
RTVSPropertyOp45
 70
     1
102
RTVSPropertyOp46
 70
     1
102
RTVSPropertyOp47
 70
     1
102
RTVSPropertyOp48
 70
     1
102
RTVSPropertyOp49
 70
     1
102
RTVSPropertyOp50
 70
     1
102
RTVSPropertyOp51
 70
     0
102
RTVSPropertyOp52
 70
     0
102
RTVSPropertyOp53
 70
     1
102
RTVSPropertyOp54
 70
     1
102
RTVSPropertyOp55
 70
     1
102
RTVSPropertyOp56
 70
     1
102
RTVSPropertyOp57
 70
     1
102
RTVSPost2010Prop28
280
     0
102
RTVSPost2010PropOp28
 70
     1
102
RTVSPost2010Prop29
280
     1
102
RTVSPost2010PropOp29
 70
     1
102
RTVSPost2010Prop30
280
     1
102
RTVSPost2010PropOp30
 70
     1
102
RTVSPost2010Prop31
280
     0
102
RTVSPost2010PropOp31
 70
     1
102
RTVSPost2010Prop32
280
     0
102
RTVSPost2010PropOp32
 70
     1
102
RTVSPost2010Prop33
280
     0
102
RTVSPost2010PropOp33
 70
     1
102
RTVSPost2010Prop34
280
     0
102
RTVSPost2010PropOp34
 70
     1
102
RTVSPost2010Prop35
280
     0
102
RTVSPost2010PropOp35
 70
     1
102
RTVSPost2010Prop36
280
     0
102
RTVSPost2010PropOp36
 70
     1
102
RTVSPost2010Prop37
 90
       50
102
RTVSPost2010PropOp37
 70
     1
102
RTVSPost2010Prop38
140
0.0
102
RTVSPost2010PropOp38
 70
     1
102
RTVSPost2010Prop39
140
1.0
102
RTVSPost2010PropOp39
 70
     1
102
RTVSPost2010Prop40
 90
        0
102
RTVSPost2010PropOp40
 70
     1
102
RTVSPost2010Prop41ColorIndex
 90
       18
102
RTVSPost2010Prop41ColorRGB
 90
        0
102
RTVSPost2010PropOp41
 70
     1
102
RTVSPost2010Prop42
 90
       50
102
RTVSPost2010PropOp42
 70
     1
102
RTVSPost2010Prop43
 90
        3
102
RTVSPost2010PropOp43
 70
     1
102
RTVSPost2010Prop44ColorIndex
 90
        5
102
RTVSPost2010Prop44ColorRGB
 90
      255
102
RTVSPost2010PropOp44
 70
     1
102
RTVSPost2010Prop45
280
     0
102
RTVSPost2010PropOp45
 70
     1
102
RTVSPost2010Prop46
 90
       50
102
RTVSPost2010PropOp46
 70
     1
102
RTVSPost2010Prop47
 90
       50
102
RTVSPost2010PropOp47
 70
     1
102
RTVSPost2010Prop48
 90
       50
102
RTVSPost2010PropOp48
 70
     1
102
RTVSPost2010Prop49
280
     0
102
RTVSPost2010PropOp49
 70
     1
102
RTVSPost2010Prop50
 90
       50
102
RTVSPost2010PropOp50
 70
     1
102
RTVSPost2010Prop51ColorIndex
 90
      256
102
RTVSPost2010Prop51ColorRGB
 90
-16777216
102
RTVSPost2010PropOp51
 70
     0
102
RTVSPost2010Prop52
140
1.0
102
RTVSPost2010PropOp52
 70
     0
102
RTVSPost2010Prop53
 90
        2
102
RTVSPost2010PropOp53
 70
     1
102
RTVSPost2010Prop54
  1
strokes_ogs.tif
102
RTVSPost2010PropOp54
 70
     1
102
RTVSPost2010Prop55
280
     0
102
RTVSPost2010PropOp55
 70
     1
102
RTVSPost2010Prop56
140
1.0
102
RTVSPost2010PropOp56
 70
     1
102
RTVSPost2010Prop57
140
1.0
102
RTVSPost2010PropOp57
 70
     1
  0
XRECORD
  5
5FF
102
{ACAD_REACTORS
330
5FE
102
}
330
5FE
100
AcDbXrecord
280
     1
102
RTVSPropertyOp0
 70
     1
102
RTVSPropertyOp1
 70
     1
102
RTVSPropertyOp2
 70
     1
102
RTVSPropertyOp3
 70
     1
102
RTVSPropertyOp4
 70
     1
102
RTVSPropertyOp5
 70
     1
102
RTVSPropertyOp6
 70
     1
102
RTVSPropertyOp7
 70
     1
102
RTVSPropertyOp8
 70
     1
102
RTVSPropertyOp9
 70
     1
102
RTVSPropertyOp10
 70
     1
102
RTVSPropertyOp11
 70
     1
102
RTVSPropertyOp12
 70
     1
102
RTVSPropertyOp13
 70
     1
102
RTVSPropertyOp14
 70
     1
102
RTVSPropertyOp15
 70
     1
102
RTVSPropertyOp16
 70
     1
102
RTVSPropertyOp17
 70
     1
102
RTVSPropertyOp18
 70
     1
102
RTVSPropertyOp19
 70
     1
102
RTVSPropertyOp20
 70
     1
102
RTVSPropertyOp21
 70
     1
102
RTVSPropertyOp22
 70
     1
102
RTVSPropertyOp23
 70
     1
102
RTVSPropertyOp24
 70
     1
102
RTVSPropertyOp25
 70
     1
102
RTVSPropertyOp26
 70
     1
102
RTVSPropertyOp27
 70
     1
102
RTVSPropertyOp28
 70
     1
102
RTVSPropertyOp29
 70
     1
102
RTVSPropertyOp30
 70
     1
102
RTVSPropertyOp31
 70
     1
102
RTVSPropertyOp32
 70
     1
102
RTVSPropertyOp33
 70
     1
102
RTVSPropertyOp34
 70
     1
102
RTVSPropertyOp35
 70
     1
102
RTVSPropertyOp36
 70
     1
102
RTVSPropertyOp37
 70
     1
102
RTVSPropertyOp38
 70
     1
102
RTVSPropertyOp39
 70
     1
102
RTVSPropertyOp40
 70
     1
102
RTVSPropertyOp41
 70
     1
102
RTVSPropertyOp42
 70
     1
102
RTVSPropertyOp43
 70
     1
102
RTVSPropertyOp44
 70
     1
102
RTVSPropertyOp45
 70
     1
102
RTVSPropertyOp46
 70
     1
102
RTVSPropertyOp47
 70
     1
102
RTVSPropertyOp48
 70
     1
102
RTVSPropertyOp49
 70
     1
102
RTVSPropertyOp50
 70
     1
102
RTVSPropertyOp51
 70
     0
102
RTVSPropertyOp52
 70
     0
102
RTVSPropertyOp53
 70
     1
102
RTVSPropertyOp54
 70
     1
102
RTVSPropertyOp55
 70
     1
102
RTVSPropertyOp56
 70
     1
102
RTVSPropertyOp57
 70
     1
102
RTVSPost2010Prop28
280
     0
102
RTVSPost2010PropOp28
 70
     1
102
RTVSPost2010Prop29
280
     1
102
RTVSPost2010PropOp29
 70
     1
102
RTVSPost2010Prop30
280
     1
102
RTVSPost2010PropOp30
 70
     1
102
RTVSPost2010Prop31
280
     0
102
RTVSPost2010PropOp31
 70
     1
102
RTVSPost2010Prop32
280
     0
102
RTVSPost2010PropOp32
 70
     1
102
RTVSPost2010Prop33
280
     0
102
RTVSPost2010PropOp33
 70
     1
102
RTVSPost2010Prop34
280
     0
102
RTVSPost2010PropOp34
 70
     1
102
RTVSPost2010Prop35
280
     0
102
RTVSPost2010PropOp35
 70
     1
102
RTVSPost2010Prop36
280
     0
102
RTVSPost2010PropOp36
 70
     1
102
RTVSPost2010Prop37
 90
       50
102
RTVSPost2010PropOp37
 70
     1
102
RTVSPost2010Prop38
140
0.0
102
RTVSPost2010PropOp38
 70
     1
102
RTVSPost2010Prop39
140
1.0
102
RTVSPost2010PropOp39
 70
     1
102
RTVSPost2010Prop40
 90
        0
102
RTVSPost2010PropOp40
 70
     1
102
RTVSPost2010Prop41ColorIndex
 90
       18
102
RTVSPost2010Prop41ColorRGB
 90
        0
102
RTVSPost2010PropOp41
 70
     1
102
RTVSPost2010Prop42
 90
       50
102
RTVSPost2010PropOp42
 70
     1
102
RTVSPost2010Prop43
 90
        3
102
RTVSPost2010PropOp43
 70
     1
102
RTVSPost2010Prop44ColorIndex
 90
        5
102
RTVSPost2010Prop44ColorRGB
 90
      255
102
RTVSPost2010PropOp44
 70
     1
102
RTVSPost2010Prop45
280
     0
102
RTVSPost2010PropOp45
 70
     1
102
RTVSPost2010Prop46
 90
       50
102
RTVSPost2010PropOp46
 70
     1
102
RTVSPost2010Prop47
 90
       50
102
RTVSPost2010PropOp47
 70
     1
102
RTVSPost2010Prop48
 90
       50
102
RTVSPost2010PropOp48
 70
     1
102
RTVSPost2010Prop49
280
     0
102
RTVSPost2010PropOp49
 70
     1
102
RTVSPost2010Prop50
 90
       50
102
RTVSPost2010PropOp50
 70
     1
102
RTVSPost2010Prop51ColorIndex
 90
      256
102
RTVSPost2010Prop51ColorRGB
 90
-16777216
102
RTVSPost2010PropOp51
 70
     0
102
RTVSPost2010Prop52
140
1.0
102
RTVSPost2010PropOp52
 70
     0
102
RTVSPost2010Prop53
 90
        2
102
RTVSPost2010PropOp53
 70
     1
102
RTVSPost2010Prop54
  1
strokes_ogs.tif
102
RTVSPost2010PropOp54
 70
     1
102
RTVSPost2010Prop55
280
     0
102
RTVSPost2010PropOp55
 70
     1
102
RTVSPost2010Prop56
140
1.0
102
RTVSPost2010PropOp56
 70
     1
102
RTVSPost2010Prop57
140
1.0
102
RTVSPost2010PropOp57
 70
     1
  0
XRECORD
  5
5EF
102
{ACAD_REACTORS
330
5EE
102
}
330
5EE
100
AcDbXrecord
280
     1
102
RTVSPropertyOp0
 70
     1
102
RTVSPropertyOp1
 70
     1
102
RTVSPropertyOp2
 70
     1
102
RTVSPropertyOp3
 70
     1
102
RTVSPropertyOp4
 70
     1
102
RTVSPropertyOp5
 70
     1
102
RTVSPropertyOp6
 70
     1
102
RTVSPropertyOp7
 70
     1
102
RTVSPropertyOp8
 70
     1
102
RTVSPropertyOp9
 70
     1
102
RTVSPropertyOp10
 70
     1
102
RTVSPropertyOp11
 70
     1
102
RTVSPropertyOp12
 70
     1
102
RTVSPropertyOp13
 70
     1
102
RTVSPropertyOp14
 70
     1
102
RTVSPropertyOp15
 70
     1
102
RTVSPropertyOp16
 70
     1
102
RTVSPropertyOp17
 70
     1
102
RTVSPropertyOp18
 70
     1
102
RTVSPropertyOp19
 70
     1
102
RTVSPropertyOp20
 70
     1
102
RTVSPropertyOp21
 70
     1
102
RTVSPropertyOp22
 70
     1
102
RTVSPropertyOp23
 70
     1
102
RTVSPropertyOp24
 70
     1
102
RTVSPropertyOp25
 70
     1
102
RTVSPropertyOp26
 70
     1
102
RTVSPropertyOp27
 70
     1
102
RTVSPropertyOp28
 70
     1
102
RTVSPropertyOp29
 70
     1
102
RTVSPropertyOp30
 70
     1
102
RTVSPropertyOp31
 70
     1
102
RTVSPropertyOp32
 70
     1
102
RTVSPropertyOp33
 70
     1
102
RTVSPropertyOp34
 70
     1
102
RTVSPropertyOp35
 70
     1
102
RTVSPropertyOp36
 70
     1
102
RTVSPropertyOp37
 70
     1
102
RTVSPropertyOp38
 70
     1
102
RTVSPropertyOp39
 70
     1
102
RTVSPropertyOp40
 70
     1
102
RTVSPropertyOp41
 70
     1
102
RTVSPropertyOp42
 70
     1
102
RTVSPropertyOp43
 70
     1
102
RTVSPropertyOp44
 70
     1
102
RTVSPropertyOp45
 70
     1
102
RTVSPropertyOp46
 70
     1
102
RTVSPropertyOp47
 70
     1
102
RTVSPropertyOp48
 70
     1
102
RTVSPropertyOp49
 70
     1
102
RTVSPropertyOp50
 70
     1
102
RTVSPropertyOp51
 70
     0
102
RTVSPropertyOp52
 70
     0
102
RTVSPropertyOp53
 70
     1
102
RTVSPropertyOp54
 70
     1
102
RTVSPropertyOp55
 70
     1
102
RTVSPropertyOp56
 70
     1
102
RTVSPropertyOp57
 70
     1
102
RTVSPost2010Prop28
280
     0
102
RTVSPost2010PropOp28
 70
     1
102
RTVSPost2010Prop29
280
     1
102
RTVSPost2010PropOp29
 70
     1
102
RTVSPost2010Prop30
280
     1
102
RTVSPost2010PropOp30
 70
     1
102
RTVSPost2010Prop31
280
     0
102
RTVSPost2010PropOp31
 70
     1
102
RTVSPost2010Prop32
280
     0
102
RTVSPost2010PropOp32
 70
     1
102
RTVSPost2010Prop33
280
     0
102
RTVSPost2010PropOp33
 70
     1
102
RTVSPost2010Prop34
280
     0
102
RTVSPost2010PropOp34
 70
     1
102
RTVSPost2010Prop35
280
     0
102
RTVSPost2010PropOp35
 70
     1
102
RTVSPost2010Prop36
280
     0
102
RTVSPost2010PropOp36
 70
     1
102
RTVSPost2010Prop37
 90
       50
102
RTVSPost2010PropOp37
 70
     1
102
RTVSPost2010Prop38
140
0.0
102
RTVSPost2010PropOp38
 70
     1
102
RTVSPost2010Prop39
140
1.0
102
RTVSPost2010PropOp39
 70
     1
102
RTVSPost2010Prop40
 90
        0
102
RTVSPost2010PropOp40
 70
     1
102
RTVSPost2010Prop41ColorIndex
 90
       18
102
RTVSPost2010Prop41ColorRGB
 90
        0
102
RTVSPost2010PropOp41
 70
     1
102
RTVSPost2010Prop42
 90
       50
102
RTVSPost2010PropOp42
 70
     1
102
RTVSPost2010Prop43
 90
        3
102
RTVSPost2010PropOp43
 70
     1
102
RTVSPost2010Prop44ColorIndex
 90
        5
102
RTVSPost2010Prop44ColorRGB
 90
      255
102
RTVSPost2010PropOp44
 70
     1
102
RTVSPost2010Prop45
280
     0
102
RTVSPost2010PropOp45
 70
     1
102
RTVSPost2010Prop46
 90
       50
102
RTVSPost2010PropOp46
 70
     1
102
RTVSPost2010Prop47
 90
       50
102
RTVSPost2010PropOp47
 70
     1
102
RTVSPost2010Prop48
 90
       50
102
RTVSPost2010PropOp48
 70
     1
102
RTVSPost2010Prop49
280
     0
102
RTVSPost2010PropOp49
 70
     1
102
RTVSPost2010Prop50
 90
       50
102
RTVSPost2010PropOp50
 70
     1
102
RTVSPost2010Prop51ColorIndex
 90
      256
102
RTVSPost2010Prop51ColorRGB
 90
-16777216
102
RTVSPost2010PropOp51
 70
     0
102
RTVSPost2010Prop52
140
1.0
102
RTVSPost2010PropOp52
 70
     0
102
RTVSPost2010Prop53
 90
        2
102
RTVSPost2010PropOp53
 70
     1
102
RTVSPost2010Prop54
  1
strokes_ogs.tif
102
RTVSPost2010PropOp54
 70
     1
102
RTVSPost2010Prop55
280
     0
102
RTVSPost2010PropOp55
 70
     1
102
RTVSPost2010Prop56
140
1.0
102
RTVSPost2010PropOp56
 70
     1
102
RTVSPost2010Prop57
140
1.0
102
RTVSPost2010PropOp57
 70
     1
  0
XRECORD
  5
5D9
102
{ACAD_REACTORS
330
5D8
102
}
330
5D8
100
AcDbXrecord
280
     1
102
RTVSPropertyOp0
 70
     1
102
RTVSPropertyOp1
 70
     1
102
RTVSPropertyOp2
 70
     1
102
RTVSPropertyOp3
 70
     1
102
RTVSPropertyOp4
 70
     1
102
RTVSPropertyOp5
 70
     1
102
RTVSPropertyOp6
 70
     1
102
RTVSPropertyOp7
 70
     1
102
RTVSPropertyOp8
 70
     1
102
RTVSPropertyOp9
 70
     1
102
RTVSPropertyOp10
 70
     1
102
RTVSPropertyOp11
 70
     1
102
RTVSPropertyOp12
 70
     1
102
RTVSPropertyOp13
 70
     1
102
RTVSPropertyOp14
 70
     1
102
RTVSPropertyOp15
 70
     1
102
RTVSPropertyOp16
 70
     1
102
RTVSPropertyOp17
 70
     1
102
RTVSPropertyOp18
 70
     1
102
RTVSPropertyOp19
 70
     1
102
RTVSPropertyOp20
 70
     1
102
RTVSPropertyOp21
 70
     1
102
RTVSPropertyOp22
 70
     1
102
RTVSPropertyOp23
 70
     1
102
RTVSPropertyOp24
 70
     1
102
RTVSPropertyOp25
 70
     1
102
RTVSPropertyOp26
 70
     1
102
RTVSPropertyOp27
 70
     1
102
RTVSPropertyOp28
 70
     1
102
RTVSPropertyOp29
 70
     1
102
RTVSPropertyOp30
 70
     1
102
RTVSPropertyOp31
 70
     1
102
RTVSPropertyOp32
 70
     1
102
RTVSPropertyOp33
 70
     1
102
RTVSPropertyOp34
 70
     1
102
RTVSPropertyOp35
 70
     1
102
RTVSPropertyOp36
 70
     1
102
RTVSPropertyOp37
 70
     1
102
RTVSPropertyOp38
 70
     1
102
RTVSPropertyOp39
 70
     1
102
RTVSPropertyOp40
 70
     1
102
RTVSPropertyOp41
 70
     1
102
RTVSPropertyOp42
 70
     1
102
RTVSPropertyOp43
 70
     1
102
RTVSPropertyOp44
 70
     1
102
RTVSPropertyOp45
 70
     1
102
RTVSPropertyOp46
 70
     1
102
RTVSPropertyOp47
 70
     1
102
RTVSPropertyOp48
 70
     1
102
RTVSPropertyOp49
 70
     1
102
RTVSPropertyOp50
 70
     1
102
RTVSPropertyOp51
 70
     0
102
RTVSPropertyOp52
 70
     0
102
RTVSPropertyOp53
 70
     1
102
RTVSPropertyOp54
 70
     1
102
RTVSPropertyOp55
 70
     1
102
RTVSPropertyOp56
 70
     1
102
RTVSPropertyOp57
 70
     1
102
RTVSPost2010Prop28
280
     0
102
RTVSPost2010PropOp28
 70
     1
102
RTVSPost2010Prop29
280
     1
102
RTVSPost2010PropOp29
 70
     1
102
RTVSPost2010Prop30
280
     1
102
RTVSPost2010PropOp30
 70
     1
102
RTVSPost2010Prop31
280
     0
102
RTVSPost2010PropOp31
 70
     1
102
RTVSPost2010Prop32
280
     0
102
RTVSPost2010PropOp32
 70
     1
102
RTVSPost2010Prop33
280
     0
102
RTVSPost2010PropOp33
 70
     1
102
RTVSPost2010Prop34
280
     0
102
RTVSPost2010PropOp34
 70
     1
102
RTVSPost2010Prop35
280
     0
102
RTVSPost2010PropOp35
 70
     1
102
RTVSPost2010Prop36
280
     0
102
RTVSPost2010PropOp36
 70
     1
102
RTVSPost2010Prop37
 90
       50
102
RTVSPost2010PropOp37
 70
     1
102
RTVSPost2010Prop38
140
0.0
102
RTVSPost2010PropOp38
 70
     1
102
RTVSPost2010Prop39
140
1.0
102
RTVSPost2010PropOp39
 70
     1
102
RTVSPost2010Prop40
 90
        0
102
RTVSPost2010PropOp40
 70
     1
102
RTVSPost2010Prop41ColorIndex
 90
       18
102
RTVSPost2010Prop41ColorRGB
 90
        0
102
RTVSPost2010PropOp41
 70
     1
102
RTVSPost2010Prop42
 90
       50
102
RTVSPost2010PropOp42
 70
     1
102
RTVSPost2010Prop43
 90
        3
102
RTVSPost2010PropOp43
 70
     1
102
RTVSPost2010Prop44ColorIndex
 90
        5
102
RTVSPost2010Prop44ColorRGB
 90
      255
102
RTVSPost2010PropOp44
 70
     1
102
RTVSPost2010Prop45
280
     0
102
RTVSPost2010PropOp45
 70
     1
102
RTVSPost2010Prop46
 90
       50
102
RTVSPost2010PropOp46
 70
     1
102
RTVSPost2010Prop47
 90
       50
102
RTVSPost2010PropOp47
 70
     1
102
RTVSPost2010Prop48
 90
       50
102
RTVSPost2010PropOp48
 70
     1
102
RTVSPost2010Prop49
280
     0
102
RTVSPost2010PropOp49
 70
     1
102
RTVSPost2010Prop50
 90
       50
102
RTVSPost2010PropOp50
 70
     1
102
RTVSPost2010Prop51ColorIndex
 90
      256
102
RTVSPost2010Prop51ColorRGB
 90
-16777216
102
RTVSPost2010PropOp51
 70
     0
102
RTVSPost2010Prop52
140
1.0
102
RTVSPost2010PropOp52
 70
     0
102
RTVSPost2010Prop53
 90
        2
102
RTVSPost2010PropOp53
 70
     1
102
RTVSPost2010Prop54
  1
strokes_ogs.tif
102
RTVSPost2010PropOp54
 70
     1
102
RTVSPost2010Prop55
280
     0
102
RTVSPost2010PropOp55
 70
     1
102
RTVSPost2010Prop56
140
1.0
102
RTVSPost2010PropOp56
 70
     1
102
RTVSPost2010Prop57
140
1.0
102
RTVSPost2010PropOp57
 70
     1
  0
XRECORD
  5
601
102
{ACAD_REACTORS
330
600
102
}
330
600
100
AcDbXrecord
280
     1
102
RTVSPropertyOp0
 70
     1
102
RTVSPropertyOp1
 70
     1
102
RTVSPropertyOp2
 70
     1
102
RTVSPropertyOp3
 70
     1
102
RTVSPropertyOp4
 70
     1
102
RTVSPropertyOp5
 70
     1
102
RTVSPropertyOp6
 70
     1
102
RTVSPropertyOp7
 70
     1
102
RTVSPropertyOp8
 70
     1
102
RTVSPropertyOp9
 70
     1
102
RTVSPropertyOp10
 70
     1
102
RTVSPropertyOp11
 70
     1
102
RTVSPropertyOp12
 70
     1
102
RTVSPropertyOp13
 70
     1
102
RTVSPropertyOp14
 70
     1
102
RTVSPropertyOp15
 70
     1
102
RTVSPropertyOp16
 70
     1
102
RTVSPropertyOp17
 70
     1
102
RTVSPropertyOp18
 70
     1
102
RTVSPropertyOp19
 70
     1
102
RTVSPropertyOp20
 70
     1
102
RTVSPropertyOp21
 70
     1
102
RTVSPropertyOp22
 70
     1
102
RTVSPropertyOp23
 70
     1
102
RTVSPropertyOp24
 70
     1
102
RTVSPropertyOp25
 70
     1
102
RTVSPropertyOp26
 70
     1
102
RTVSPropertyOp27
 70
     1
102
RTVSPropertyOp28
 70
     1
102
RTVSPropertyOp29
 70
     1
102
RTVSPropertyOp30
 70
     1
102
RTVSPropertyOp31
 70
     1
102
RTVSPropertyOp32
 70
     1
102
RTVSPropertyOp33
 70
     1
102
RTVSPropertyOp34
 70
     1
102
RTVSPropertyOp35
 70
     1
102
RTVSPropertyOp36
 70
     1
102
RTVSPropertyOp37
 70
     1
102
RTVSPropertyOp38
 70
     1
102
RTVSPropertyOp39
 70
     1
102
RTVSPropertyOp40
 70
     1
102
RTVSPropertyOp41
 70
     1
102
RTVSPropertyOp42
 70
     1
102
RTVSPropertyOp43
 70
     1
102
RTVSPropertyOp44
 70
     1
102
RTVSPropertyOp45
 70
     1
102
RTVSPropertyOp46
 70
     1
102
RTVSPropertyOp47
 70
     1
102
RTVSPropertyOp48
 70
     1
102
RTVSPropertyOp49
 70
     1
102
RTVSPropertyOp50
 70
     1
102
RTVSPropertyOp51
 70
     0
102
RTVSPropertyOp52
 70
     0
102
RTVSPropertyOp53
 70
     1
102
RTVSPropertyOp54
 70
     1
102
RTVSPropertyOp55
 70
     1
102
RTVSPropertyOp56
 70
     1
102
RTVSPropertyOp57
 70
     1
102
RTVSPost2010Prop28
280
     0
102
RTVSPost2010PropOp28
 70
     1
102
RTVSPost2010Prop29
280
     1
102
RTVSPost2010PropOp29
 70
     1
102
RTVSPost2010Prop30
280
     1
102
RTVSPost2010PropOp30
 70
     1
102
RTVSPost2010Prop31
280
     0
102
RTVSPost2010PropOp31
 70
     1
102
RTVSPost2010Prop32
280
     0
102
RTVSPost2010PropOp32
 70
     1
102
RTVSPost2010Prop33
280
     0
102
RTVSPost2010PropOp33
 70
     1
102
RTVSPost2010Prop34
280
     0
102
RTVSPost2010PropOp34
 70
     1
102
RTVSPost2010Prop35
280
     0
102
RTVSPost2010PropOp35
 70
     1
102
RTVSPost2010Prop36
280
     0
102
RTVSPost2010PropOp36
 70
     1
102
RTVSPost2010Prop37
 90
       50
102
RTVSPost2010PropOp37
 70
     1
102
RTVSPost2010Prop38
140
0.0
102
RTVSPost2010PropOp38
 70
     1
102
RTVSPost2010Prop39
140
1.0
102
RTVSPost2010PropOp39
 70
     1
102
RTVSPost2010Prop40
 90
        0
102
RTVSPost2010PropOp40
 70
     1
102
RTVSPost2010Prop41ColorIndex
 90
       18
102
RTVSPost2010Prop41ColorRGB
 90
        0
102
RTVSPost2010PropOp41
 70
     1
102
RTVSPost2010Prop42
 90
       50
102
RTVSPost2010PropOp42
 70
     1
102
RTVSPost2010Prop43
 90
        3
102
RTVSPost2010PropOp43
 70
     1
102
RTVSPost2010Prop44ColorIndex
 90
        5
102
RTVSPost2010Prop44ColorRGB
 90
      255
102
RTVSPost2010PropOp44
 70
     1
102
RTVSPost2010Prop45
280
     0
102
RTVSPost2010PropOp45
 70
     1
102
RTVSPost2010Prop46
 90
       50
102
RTVSPost2010PropOp46
 70
     1
102
RTVSPost2010Prop47
 90
       50
102
RTVSPost2010PropOp47
 70
     1
102
RTVSPost2010Prop48
 90
       50
102
RTVSPost2010PropOp48
 70
     1
102
RTVSPost2010Prop49
280
     0
102
RTVSPost2010PropOp49
 70
     1
102
RTVSPost2010Prop50
 90
       50
102
RTVSPost2010PropOp50
 70
     1
102
RTVSPost2010Prop51ColorIndex
 90
      256
102
RTVSPost2010Prop51ColorRGB
 90
-16777216
102
RTVSPost2010PropOp51
 70
     0
102
RTVSPost2010Prop52
140
1.0
102
RTVSPost2010PropOp52
 70
     0
102
RTVSPost2010Prop53
 90
        2
102
RTVSPost2010PropOp53
 70
     1
102
RTVSPost2010Prop54
  1
strokes_ogs.tif
102
RTVSPost2010PropOp54
 70
     1
102
RTVSPost2010Prop55
280
     0
102
RTVSPost2010PropOp55
 70
     1
102
RTVSPost2010Prop56
140
1.0
102
RTVSPost2010PropOp56
 70
     1
102
RTVSPost2010Prop57
140
1.0
102
RTVSPost2010PropOp57
 70
     1
  0
ENDSEC
  0
SECTION
  2
THUMBNAILIMAGE
 90
    16364
310
28000000B4000000550000000100080000000000C43B000000000000000000000001000000010000FFFFFF000000FF0000FFFF0000FF0000FFFF0000FF000000FF00FF000000000080808000C0C0C0000000FF007F7FFF000000A5005252A50000007F003F3F7F0000004C0026264C000000260013132600003FFF007F9FFF
310
000029A5005267A500001F7F003F4F7F0000134C00262F4C000009260013172600007FFF007FBFFF000052A500527CA500003F7F003F5F7F0000264C0026394C0000132600131C260000BFFF007FDFFF00007CA5005291A500005F7F003F6F7F0000394C0026424C00001C26001321260000FFFF007FFFFF0000A5A50052A5
310
A500007F7F003F7F7F00004C4C00264C4C00002626001326260000FFBF007FFFDF0000A57C0052A59100007F5F003F7F6F00004C3900264C420000261C001326210000FF7F007FFFBF0000A5520052A57C00007F3F003F7F5F00004C2600264C39000026130013261C0000FF3F007FFF9F0000A5290052A56700007F1F003F
310
7F4F00004C1300264C2F00002609001326170000FF00007FFF7F0000A5000052A55200007F00003F7F3F00004C0000264C260000260000132613003FFF00009FFF7F0029A5000067A552001F7F00004F7F3F00134C00002F4C260009260000172613007FFF0000BFFF7F0052A500007CA552003F7F00005F7F3F00264C0000
310
394C2600132600001C261300BFFF0000DFFF7F007CA5000091A552005F7F00006F7F3F00394C0000424C26001C26000021261300FFFF0000FFFF7F00A5A50000A5A552007F7F00007F7F3F004C4C00004C4C26002626000026261300FFBF0000FFDF7F00A57C0000A59152007F5F00007F6F3F004C3900004C422600261C00
310
0026211300FF7F0000FFBF7F00A5520000A57C52007F3F00007F5F3F004C2600004C39260026130000261C1300FF3F0000FF9F7F00A5290000A56752007F1F00007F4F3F004C1300004C2F26002609000026171300FF000000FF7F7F00A5000000A55252007F0000007F3F3F004C0000004C2626002600000026131300FF00
310
3F00FF7F9F00A5002900A55267007F001F007F3F4F004C0013004C262F002600090026131700FF007F00FF7FBF00A5005200A5527C007F003F007F3F5F004C0026004C2639002600130026131C00FF00BF00FF7FDF00A5007C00A55291007F005F007F3F6F004C0039004C26420026001C0026132100FF00FF00FF7FFF00A5
310
00A500A552A5007F007F007F3F7F004C004C004C264C002600260026132600BF00FF00DF7FFF007C00A5009152A5005F007F006F3F7F0039004C0042264C001C002600211326007F00FF00BF7FFF005200A5007C52A5003F007F005F3F7F0026004C0039264C00130026001C1326003F00FF009F7FFF002900A5006752A500
310
1F007F004F3F7F0013004C002F264C000900260017132600000000002D2D2D005B5B5B0089898900B7B7B700B3B3B30000000000000000000000000000000000000000000000000000000000000000000000000000000000000000000000000000000000000000000000000000000000000000000000000000000000000000
310
00000000000000000000000000000000000000000000000000000000000000000000000000000000000000000000000000000000000000000000000000000000000000000000000000000000000000000000000000000000000000000000000000000000000000000000000000000000000000000000000000000000000000
310
00000000000000000000000000000000000000000000000000000000000000000000000000000000000000000000000000000000000000000000000000000000000000000000000000000000000000000000000000000000000000000000000000000000000000000000000000000000000000000000000000000000000000
310
00000000000000000000000000000000000000000000000000000000000000000000000000000000000000000000000000000000000000000000000000000000000000000000000000000000000000000000000000000000000000000000000000000000000000000000000000000000000000000000000000000000000000
310
00000000000000000000000000000000000000000000000000000000000000000000000000000000000000000000000000000000000000000000000000000000000000000000000000000000000000000000000000000000000000000000000000000000000000000000000000000000000000000000000000000000000000
310
00000000000000000000000000000000000000000000000000000000000000000000000000000000000000000000000000000000000000000000000000000000000000000000000000000000000000000000000000000000000000000000000000000000000000000000000000000000000000000000000000000000000000
310
00000000000000000000000000000000000000000000000000000000000000000000000000000000000000000000000000000000000000000000000000000000000000000000000000000000000000000000000000000000000000000000000000000000000000000000000000000000000000000000000000000000000000
310
00000000000000000000000000000000000000000000000000000000000000000000000000000000000000000000000000000000000000000000000000000000000000000000000000000000000000000000000000000000000000000000000000000000000000000000000000000000000000000000000000000000000000
310
00000000000000000000000000000000000000000000000000000000000000000000000000000000000000000000000000000000000000000000000000000000000000000000000000000000000000000000000000000000000000000000000000000000000000000000000000000000000000000000000000000000000000
310
00000000000000000000000000000000000000000000000000000000000000000000000000000000000000000000000000000000000000000000000000000000000000000000000000000000000000000000000000000000000000000000000000000000000000000000000000000000000000000000000000000000000000
310
00000000000000000000000000000000000000000000000000000000000000000000000000000000000000000000000000000000000000000000000000000000000000000000000000000000000000000000000000000000000000000000000000000000000000000000000000000000000000000000000000000000000000
310
00000000000000000000000000000000000000000000000000000000000000000000000000000000000000000000000000000000000000000000000000000000000000000000000000000000000000000000000000000000000000000000000000000000000000000000000000000000000000000000000000000000000000
310
00000000000000000000000000000000000000000000000000000000000000000000000000000000000000000000000000000000000000000000000000000000000000000000000000000000000000000000000000000000000000000000000000000000000000000000000000000000000000000000000000000000000000
310
00000000000000000000000000000000000000000000000000000000000000000000000000000000000000000000000000000000000000000000000000000000000000000000000000000000000000000000000000000000000000000000000000000000000000000000000000000000000000000000000000000000000000
310
00000000000000000000000000000000000000000000000000000000000000000000000000000000000000000000000000000000000000000000000000000000000000000000000000000000000000000000000000000000000000000000000000000000000000000000000000000000000000000000000000000000000000
310
00000000000000000000000000000000000000000000000000000000000000000000000000000000000000000000000000000000000000000000000000000000000000000000000000000000000000000000000000000000000000000000000000000000000000000000000000000000000000000000000000000000000000
310
00000000000000000000000000000000000000000000000000000000000000000000000000000000000000000000000000000000000000000000000000000000000000000000000000000000000000000000000000000000000000000000000000000000000000000000000000000000000000000000000000000000000000
310
00000000000000000000000000000000000000000000000000000000000000000000000000000000000000000000000000000000000000000000000000000000000000000000000000000000000000000000000000000000000000000000000000000000000000000000000000000000000000000000000000000000000000
310
00000000000000000000000000000000000000000000000000000000000000000000000000000000000000000000000000000000000000000000000000000000000000000000000000000000000000000000000000000000000000000000000000000000000000000000000000000000000000000000000000000000000000
310
00000000000000000000000000000000000000000000000000000000000000000000000000000000000000000000000000000000000000000000000000000000000000000000000000000000000000000000000000000000000000000000000000000000000000000000000000000000000000000000000000000000000000
310
00000000000000000000000000000000000000000000000000000000000000000000000000000000000000000000000000000000000000000000000000000000000000000000000000000000000000000000000000000000000000000000000000000000000000000000000000000000000000000000000000000000000000
310
00000000000000000000000000000000000000000000000000000000000000000000000000000000000000000000000000000000000000000000000000000000000000000000000000000000000000000000000000000000000000000000000000000000000000000000000000000000000000000000000000000000000000
310
00000000000000000000000000000000000000000000000000000000000000000000000000000000000000000000000000000000000000000000000000000000000000000000000000000000000000000000000000000000000000000000000000000000000000000000000000000000000000000000000000000000000000
310
00000000000000000000000000000000000000000000000000000000000000000000000000000000000000000000000000000000000000000000000000000000000000000000000000000000000000000000000000000000000000000000000000000000000000000000000000000000000000000000000000000000000000
310
00000000000000000000000000000000000000000000000000000000000000000000000000000000000000000000000000000000000000000000000000000000000000000000000000000000000000000000000000000000000000000000000000000000000000000000000000000000000000000000000000000000000000
310
00000000000000000000000000000000000000000000000000000000000000000000000000000000000000000000000000000000000000000000000000000000000000000000000000000000000000000000000000000000000000000000000000000000000000000000000000000000000000000000000000000000000000
310
00000000000000000000000000000000000000000000000000000707070707070707070707070707070707070707070707070707070707070707070707070707070707070707070707070707070707070707070707070700000000000000000000000000000000000000000000000000000000000000000000000000000000
310
00000000000000000000000000000000000000000000000000000000000000000000000000000000000000000000000000000000000000000000000000000000000000000000000000000000000000070000000000000000000000000100000000000000000000000000000000000000000000000000000000010000000000
310
00000000000000000000000007000000000000000000000000000000000000000000000000000000000000000000000000000000000000000000000000000000000000000000000000000000000000000000000000000000000000000000000000000000000000000000000000000000000000000000000000000000000000
310
00000000000700000000000000000000000303030000000000000000000000000202020000000000000000000000030303000000000000000000000000000000000700000000000000000000000000000000000000000000000000000000000000000000000000000000000000000000000000000000000000000000000000
310
00000000000000000000000000000000000000000000000000000000000000000000000000000000000000000000000000000000000000000000070000000000000000000000030303000000000000000000000000020202020000000000000000000003010300000000000000000000000000000000070000000000000000
310
00000000000000000000000000000000000000000000000000000000000000000000000000000000000000000000000000000000000000000000000000000000000000000000000000000000000000000000000000000000000000000000000000000000000000000000000000000007000000000000000000000003030300
310
00000000000000000000000000000000000000000000000000030103000000000000000000000000000000000700000000000000000000000000000000000000000000000000000000000000000000000000000000000000000000000000000000000000000000000000000000000000000000000000000000000000000000
310
00000000000000000000000000000000000000000000000000000000000000000000000000070000000000000003030103030303000000000303010303000000000000000000000301030303000003030300000303030103000000000000000000070000000000000000000000000000000000000000000000000000000000
310
00000000000000000000000000000000000000000000000000000000000000000000000000000000000000000000000000000000000000000000000000000000000000000000000000000000000000000000000000000000000007000000000000000303010303030303010303010301030300000000000000000000030103
310
03030303030103030303030301030000000000000000000700000000000000000000000000000000000000000000000000000000000000000000000000000000000000000000000000000000000000000000000000000000000000000000000000000000000000000000000000000000000000000000000000000000000000
310
00000000000000000000000000000000070000000000000303000100000100000100000100010000030000000000000000000301000000000000010303030303030101000000000000000000070000000000000000000000000000000000000000000000000000000000000000000000000000000000000000000000000000
310
00000000000000000000000000000000000000000000000000000000000000000000000000000000000000000000000000000000000000000000000000000000000000000007000100030303030000000000010000010000010000000003000000000000000000030000000000000001000003030303000300000000000000
310
00000700000000000000000000000000000000000000000000000000000000000000000000000000000000000000000000000000000000000000000000000000000000000000000000000000000000000000000000000000000000000000000000000000000000000000000000000000000000000000000000000703010103
310
03030301010101010101010101010101010101030000000000000000000300000000000000010001030101030103000000000000000000070000000000000000000000000000000000000000000000000000000000000000000000000000000000000000000000000000000000000000000000000000000000000000000000
310
00000000000000000000000000000000000000000000000000000000000000000000000000000000000000000000000007000100030303030000000000010000010000010000000003000000000000000000030000000000000001000003030303000300000000000000000007000000000000000000000000000000000000
310
00000000000000000000000000000000000000000000000000000000000000000000000000000000000000000000000000000000000000000000000000000000000000000000000000000000000000000000000000000000000000000000000000000000000700000000000003000000000001000001000001000000000300
310
00000000000000000300000000000000010303030301030003030000000000000000070000000000000000000000000000000000000000000000000000000000000000000000000000000000000000000000000000000000000000000000000000000000000000000000000000000000000000000000000000000000000000
310
00000000000000000000000000000000000000000000000000000007000000000000030103030301010303010303010303030103000000000000000000030301030103030301030303030301030303000000000000000007000000000000000000000000000000000000000000000000000000000000000000000000000000
310
00000000000000000000000000000000000000000000000000000000000000000000000000000000000000000000000000000000000000000000000000000000000000000000000000000000000000000700000000000000030303030303030303030303030303010000000000000000000003030303010303030303030303
310
03010303000000000000000000070000000000000000000000000000000000000000000000000000000000000000000000000000000000000000000000000000000000000000000000000000000000000000000000000000000000000000000000000000000000000000000000000000000000000000000000000000000000
310
00000000000007000000000000000303000303030303030103010303030100000000000000000000000303000303030303030303000301030000000000000000000007000000000000000000000000000000000000000000000000000000000000000000000000000000000000000000000000000000000000000000000000
310
00000000000000000000000000000000000000000000000000000000000000000000000000000000000000000000000000000000000000000000000700000000000000000000000303030303000000000000000000000000000000000000000300000000030303000000000300000000000000000000000700000000000000
310
00000000000000000000000000000000000000000000000000000000000000000000000000000000000000000000000000000000000000000000000000000000000000000000000000000000000000000000000000000000000000000000000000000000000000000000000000000000070000000000000000000000030303
310
00000000000000000000000000000000000000000000000000000301030000000000000000000000000000000007000000000000000000000000000000000000000000000000000000000000000000000000000000000000000000000000000000000000000000000000000000000000000000000000000000000000000000
310
00000000000000000000000000000000000000000000000000000000000000000000000000000700000000000000000000000303030000000000000000000000000000000000000000000000000000030103000000000000000000000000000000000700000000000000000000000000000000000000000000000000000000
310
00000000000000000000000000000000000000000000000000000000000000000000000000000000000000000000000000000000000000000000000000000000000000000000000000000000000000000000000000000000000000070000000000000000000000030303000000000000000000000000000000000000000000
310
00000000000301030000000000000000000000000000000007000000000000000000000000000000000000000000000000000000000000000000000000000000000000000000000000000000000000000000000000000000000000000000000000000000000000000000000000000000000000000000000000000000000000
310
00000000000000000000000000000000000700000000000000000000000303030000000000000000000000000000000000000000000000000000030303000000000000000000000000000000000700000000000000000000000000000000000000000000000000000000000000000000000000000000000000000000000000
310
00000000000000000000000000000000000000000000000000000000000000000000000000000000000000000000000000000000000000000000000000000000000000000000070000000000000000000000000000000000000000000000000000000000000000000000000000000000000000000000000000000000000000
310
00000007000000000000000000000000000000000000000000000000000000000000000000000000000000000000000000000000000000000000000000000000000000000000000000000000000000000000000000000000000000000000000000000000000000000000000000000000000000000000000000000007000000
310
00000000000000000000000000000000000000000000000000000000000000000000000000000000000000000000000000000000000000000700000000000000000000000000000000000000000000000000000000000000000000000000000000000000000000000000000000000000000000000000000000000000000000
310
00000000000000000000000000000000000000000000000000000000000000000000000000000000000000000000000000070000000000000000000000000000000000000000000000000000000000000000000000000000000000000000000000000000000000000000000000070000000000000000000000000000000000
310
00000000000000000000000000000000000000000000000000000000000000000000000000000000000000000000000000000000000000000000000000000000000000000000000000000000000000000000000000000000000000000000000000000000000007000000000000000000000000000000000000000000000000
310
00000000000000000000000000000000000000000000000000000000000000000000000700000000000000000000000000000000000000000000000000000000000000000000000000000000000000000000000000000000000000000000000000000000000000000000000000000000000000000000000000000000000000
310
00000000000000000000000000000000000000000000000000000000070000000000000000000000000000000100000000000000000000000000000000000000000000000000000000000000000000000000000000000000070000000000000000000000000000000000000000000000000000000000000000000000000000
310
00000000000000000000000000000000000000000000000000000000000000000000000000000000000000000000000000000000000000000000000000000000000000000000000000000000000000000007000000000000000303010303030301010303030301030300000000000000000000000000000000000000000000
310
00000000000000000000000000000700000000000000000000000000000000000000000000000000000000000000000000000000000000000000000000000000000000000000000000000000000000000000000000000000000000000000000000000000000000000000000000000000000000000000000000000000000000
310
00000000000000070000000000000003010103030101030301010303010103000000000000000000000000000000000000000000000000000000000000000000000000070000000000000000000000000000000000000000000000000000000000000000000000000000000000000000000000000000000000000000000000
310
00000000000000000000000000000000000000000000000000000000000000000000000000000000000000000000000000000000000000000000000007000000000000000300030103030003030103030101000300000000000000000000000000000000000000000000000000000000000000000000000007000000000000
310
00000000000000000000000000000000000000000000000000000000000000000000000000000000000000000000000000000000000000000000000000000000000000000000000000000000000000000000000000000000000000000000000000000000000000000000000000000000000700000000000000030301030000
310
00000300000003010303000000000000000000000000000000000000000000000000000000000000000000000000070000000000000000000000000000000000000000000000000000000000000000000000000000000000000000000000000000000000000000000000000000000000000000000000000000000000000000
310
00000000000000000000000000000000000000000000000000000000000000000000000000000007000000000000000301010000030103030103000001010300000000000000000000000000000000000000000000000000000000000000000000000007000000000000000000000000000000000000000000000000000000
310
00000000000000000000000000000000000000000000000000000000000000000000000000000000000000000000000000000000000000000000000000000000000000000000000000000000000000000000000000000000000000000700000000000000030303030303030303000301030303030000000000000000000000
310
00000000000000000000000000000000000000000000000000070000000000000000000000000000000000000000000000000000000000000000000000000000000000000000000000000000000000000000000000000000000000000000000000000000000000000000000000000000000000000000000000000000000000
310
00000000000000000000000000000000000007000000000000000101000303030303010303010300010100000000000000000000000000000000000000000000000000000000000000000000000007000000000000000000000000000000000000000000000000000000000000000000000000000000000000000000000000
310
00000000000000000000000000000000000000000000000000000000000000000000000000000000000000000000000000000000000000000000000000000000000000000000000700000000000003030300030303030303030101030303030300000000000000000000000000000000000000000000000000000000000000
310
00000000070000000000000000000000000000000000000000000000000000000000000000000000000000000000000000000000000000000000000000000000000000000000000000000000000000000000000000000000000000000000000000000000000000000000000000000000000000000000000000000000070000
310
00000000030303010303010303030101010303030303000000000000000000000000000000000000000000000000000000000000000000000007000000000000000000000000000000000000000000000000000000000000000000000000000000000000000000000000000000000000000000000000000000000000000000
310
00000000000000000000000000000000000000000000000000000000000000000000000000000000000000000000000000000700000000000003010300030303030303030301030003010300000000000000000000000000000000000000000000000000000000000000000000000700000000000000000000000000000000
310
00000000000000000000000000000000000000000000000000000000000000000000000000000000000000000000000000000000000000000000000000000000000000000000000000000000000000000000000000000000000000000000000000000000000000070000000000000303030303030303030100030100030301
310
03000000000000000000000000000000000000000000000000000000000000000000000007000000000000000000000000000000000000000000000000000000000000000000000000000000000000000000000000000000000000000000000000000000000000000000000000000000000000000000000000000000000000
310
00000000000000000000000000000000000000000000000000000000000700000000000003030103030303030303030303030301030300000000000000000000000000000000000000000000000000000000000000000000000700000000000000000000000000000000000000000000000000000000000000000000000000
310
00000000000000000000000000000000000000000000000000000000000000000000000000000000000000000000000000000000000000000000000000000000000000000000000000000000000000000000070000000303030301010101010101030301010101010101030000000000000000000000000000000000000000
310
00000000000000000000000000000007000000000000000000000000000000000000000000000000000000000000000000000000000000000000000000000000000000000000000000000000000000000000000000000000000000000000000000000000000000000000000000000000000000000000000000000000000000
310
00000000000000000700000003030303000301010100000303000001010103000300000000000000000000000000000000000000000000000000000000000000000000000700000000000000000000000000000000000000000000000000000000000000000000000000000000000000000000000000000000000000000000
310
00000000000000000000000000000000000000000000000000000000000000000000000000000000000000000000000000000000000000000000000000070000000000000303030101030103030301010301010303030000000000000000000000000000000000000000000000000000000000000000000000070000000000
310
00000000000000000000000000000000000000000000000000000000000000000000000000000000000000000000000000000000000000000000000000000000000000000000000000000000000000000000000000000000000000000000000000000000000000000000000000000000000007000000000000000301010301
310
01010101010101030101030000000000000000000000000000000000000000000000000000000000000000000000000700000000000000000000000000000000000000000000000000000000000000000000000000000000000000000000000000000000000000000000000000000000000000000000000000000000000000
310
00000000000000000000000000000000000000000000000000000000000000000000000000000000070000000000000003030103030303030303030303010303000000000000000000000000000000000000000000000000000000000000000000000000070000000000000000000000000000000000000000000000000000
310
00000000000000000000000000000000000000000000000000000000000000000000000000000000000000000000000000000000000000000000000000000000000000000000000000000000000000000000000000000000000000000007000000000000000000000000000000010000000000000000000000000000000000
310
00000000000000000000000000000000000000000000000000000700000000000000000000000000000000000000000000000000000000000000000000000000000000000000000000000000000000000000000000000000000000000000000000000000000000000000000000000000000000000000000000000000000000
310
00000000000000000000000000000000000000070707070707070707070707070707070707070707070707070707070707070707070707070707070707070707070707070707070707070707070707070000000000000000000000000000000000000000000000000000000000000000000000000000000000000000000000
310
00000000000000000000000000000000000000000000000000000000000000000000000000000000000000000000000000000000000000000000000000000000000000000000000000000000000000000000000000000000000000000000000000000000000000000000000000000000000000000000000000000000000000
310
00000000000000000000000000000000000000000000000000000000000000000000000000000000000000000000000000000000000000000000000000000000000000000000000000000000000000000000000000000000000000000000000000000000000000000000000000000000000000000000000000000000000000
310
00000000000000000000000000000000000000000000000000000000000000000000000000000000000000000000000000000000000000000000000000000000000000000000000000000000000000000000000000000000000000000000000000000000000000000000000000000000000000000000000000000000000000
310
00000000000000000000000000000000000000000000000000000000000000000000000000000000000000000000000000000000000000000000000000000000000000000000000000000000000000000000000000000000000000000000000000000000000000000000000000000000000000000000000000000000000000
310
00000000000000000000000000000000000000000000000000000000000000000000000000000000000000000000000000000000000000000000000000000000000000000000000000000000000000000000000000000000000000000000000000000000000000000000000000000000000000000000000000000000000000
310
00000000000000000000000000000000000000000000000000000000000000000000000000000000000000000000000000000000000000000000000000000000000000000000000000000000000000000000000000000000000000000000000000000000000000000000000000000000000000000000000000000000000000
310
00000000000000000000000000000000000000000000000000000000000000000000000000000000000000000000000000000000000000000000000000000000000000000000000000000000000000000000000000000000000000000000000000000000000000000000000000000000000000000000000000000000000000
310
00000000000000000000000000000000000000000000000000000000000000000000000000000000000000000000000000000000000000000000000000000000000000000000000000000000000000000000000000000000000000000000000000000000000000000000000000000000000000000000000000000000000000
310
00000000000000000000000000000000000000000000000000000000000000000000000000000000000000000000000000000000000000000000000000000000000000000000000000000000000000000000000000000000000000000000000000000000000000000000000000000000000000000000000000000000000000
310
00000000000000000000000000000000000000000000000000000000000000000000000000000000000000000000000000000000000000000000000000000000000000000000000000000000000000000000000000000000000000000000000000000000000000000000000000000000000000000000000000000000000000
310
00000000000000000000000000000000000000000000000000000000000000000000000000000000000000000000000000000000000000000000000000000000000000000000000000000000000000000000000000000000000000000000000000000000000000000000000000000000000000000000000000000000000000
310
00000000000000000000000000000000000000000000000000000000000000000000000000000000000000000000000000000000000000000000000000000000000000000000000000000000000000000000000000000000000000000000000000000000000000000000000000000000000000000000000000000000000000
310
00000000000000000000000000000000000000000000000000000000000000000000000000000000000000000000000000000000000000000000000000000000000000000000000000000000000000000000000000000000000000000000000000000000000000000000000000000000000000000000000000000000000000
310
00000000000000000000000000000000000000000000000000000000000000000000000000000000000000000000000000000000000000000000000000000000000000000000000000000000000000000000000000000000000000000000000000000000000000000000000000000000000000000000000000000000000000
310
00000000000000000000000000000000000000000000000000000000000000000000000000000000000000000000000000000000000000000000000000000000000000000000000000000000000000000000000000000000000000000000000000000000000000000000000000000000000000000000000000000000000000
310
00000000000000000000000000000000000000000000000000000000000000000000000000000000000000000000000000000000000000000000000000000000000000000000000000000000000000000000000000000000000000000000000000000000000000000000000000000000000000000000000000000000000000
310
00000000000000000000000000000000000000000000000000000000000000000000000000000000000000000000000000000000000000000000000000000000000000000000000000000000000000000000000000000000000000000000000000000000000000000000000000000000000000000000000000000000000000
310
00000000000000000000000000000000000000000000000000000000000000000000000000000000000000000000000000000000000000000000000000000000000000000000000000000000000000000000000000000000000000000000000000000000000000000000000000000000000000000000000000000000000000
310
00000000000000000000000000000000000000000000000000000000000000000000000000000000000000000000000000000000000000000000000000000000000000000000000000000000000000000000000000000000000000000000000000000000000000000000000000000000000000000000000000000000000000
310
00000000000000000000000000000000000000000000000000000000000000000000000000000000000000000000000000000000000000000000000000000000000000000000000000000000000000000000000000000000000000000000000000000000000000000000000000000000000000000000000000000000000000
310
00000000000000000000000000000000000000000000000000000000000000000000000000000000000000000000000000000000000000000000000000000000000000000000000000000000000000000000000000000000000000000000000000000000000000000000000000000000000000000000000000000000000000
310
00000000000000000000000000000000000000000000000000000000000000000000000000000000000000000000000000000000000000000000000000000000000000000000000000000000000000000000000000000000000000000000000000000000000000000000000000000000000000000000000000000000000000
310
00000000000000000000000000000000000000000000000000000000000000000000000000000000000000000000000000000000000000000000000000000000000000000000000000000000000000000000000000000000000000000000000000000000000000000000000000000000000000000000000000000000000000
310
00000000000000000000000000000000000000000000000000000000000000000000000000000000000000000000000000000000000000000000000000000000000000000000000000000000000000000000000000000000000000000000000000000000000000000000000000000000000000000000000000000000000000
310
00000000000000000000000000000000000000000000000000000000000000000000000000000000000000000000000000000000000000000000000000000000000000000000000000000000000000000000000000000000000000000000000000000000000000000000000000000000000000000000000000000000000000
310
00000000000000000000000000000000000000000000000000000000000000000000000000000000000000000000000000000000000000000000000000000000000000000000000000000000000000000000000000000000000000000000000000000000000000000000000000000000000000000000000000000000000000
310
00000000000000000000000000000000000000000000000000000000000000000000000000000000000000000000000000000000000000000000000000000000000000000000000000000000000000000000000000000000000000000000000000000000000000000000000000000000000000000000000000000000000000
310
00000000000000000000000000000000000000000000000000000000000000000000000000000000000000000000000000000000000000000000000000000000000000000000000000000000000000000000000000000000000000000000000000000000000000000000000000000000000000000000000000000000000000
310
00000000000000000000000000000000000000000000000000000000000000000000000000000000000000000000000000000000000000000000000000000000000000000000000000000000000000000000000000000000000000000000000000000000000000000000000000000000000000000000000000000000000000
310
00000000000000000000000000000000000000000000000000000000000000000000000000000000000000000000000000000000000000000000000000000000000000000000000000000000000000000000000000000000000000000000000000000000000000000000000000000000000000000000000000000000000000
310
00000000000000000000000000000000000000000000000000000000000000000000000000000000000000000000000000000000000000000000000000000000000000000000000000000000000000000000000000000000000000000000000000000000000000000000000000000000000000000000000000000000000000
310
00000000000000000000000000000000000000000000000000000000000000000000000000000000000000000000000000000000000000000000000000000000000000000000000000000000000000000000000000000000000000000000000000000000000000000000000000000000000000000000000000000000000000
310
000000000000000000000000000000000000000000000000000000000000000000000000000000000000000000000000000000000000000000000000000000000000000000000000000000000000000000000000000000000000000000000000000000000000000000000000
  0
ENDSEC
  0
EOF
