  0
SECTION
  2
HEADER
  9
$ACADVER
  1
AC1015
  9
$ACADMAINTVER
 70
     6
  9
$DWGCODEPAGE
  3
ANSI_932
  9
$INSBASE
 10
2009.999995391667
 20
1362.499996820833
 30
0.0
  9
$EXTMIN
 10
302.1764969137571
 20
21.57659708924916
 30
0.0
  9
$EXTMAX
 10
1716.577064743997
 20
1325.281792136276
 30
0.0
  9
$LIMMIN
 10
0.0
 20
0.0
  9
$LIMMAX
 10
816.5000000000001
 20
565.0
  9
$ORTHOMODE
 70
     1
  9
$REGENMODE
 70
     1
  9
$FILLMODE
 70
     1
  9
$QTEXTMODE
 70
     0
  9
$MIRRTEXT
 70
     1
  9
$LTSCALE
 40
8.0
  9
$ATTMODE
 70
     1
  9
$TEXTSIZE
 40
15.0
  9
$TRACEWID
 40
0.05
  9
$TEXTSTYLE
  7
KANJI
  9
$CLAYER
  8
2
  9
$CELTYPE
  6
BYLAYER
  9
$CECOLOR
 62
   256
  9
$CELTSCALE
 40
1.0
  9
$DISPSILH
 70
     0
  9
$DIMSCALE
 40
5.0
  9
$DIMASZ
 40
2.0
  9
$DIMEXO
 40
0.5
  9
$DIMDLI
 40
0.0
  9
$DIMRND
 40
0.0
  9
$DIMDLE
 40
0.0
  9
$DIMEXE
 40
1.0
  9
$DIMTP
 40
0.0
  9
$DIMTM
 40
0.0
  9
$DIMTXT
 40
3.0
  9
$DIMCEN
 40
0.09
  9
$DIMTSZ
 40
0.0
  9
$DIMTOL
 70
     0
  9
$DIMLIM
 70
     0
  9
$DIMTIH
 70
     0
  9
$DIMTOH
 70
     0
  9
$DIMSE1
 70
     0
  9
$DIMSE2
 70
     0
  9
$DIMTAD
 70
     0
  9
$DIMZIN
 70
     8
  9
$DIMBLK
  1

  9
$DIMASO
 70
     0
  9
$DIMSHO
 70
     0
  9
$DIMPOST
  1

  9
$DIMAPOST
  1

  9
$DIMALT
 70
     0
  9
$DIMALTD
 70
     2
  9
$DIMALTF
 40
25.4
  9
$DIMLFAC
 40
1.0
  9
$DIMTOFL
 70
     1
  9
$DIMTVP
 40
1.0
  9
$DIMTIX
 70
     1
  9
$DIMSOXD
 70
     1
  9
$DIMSAH
 70
     0
  9
$DIMBLK1
  1

  9
$DIMBLK2
  1

  9
$DIMSTYLE
  2
STANDARD
  9
$DIMCLRD
 70
   256
  9
$DIMCLRE
 70
   256
  9
$DIMCLRT
 70
   256
  9
$DIMTFAC
 40
1.0
  9
$DIMGAP
 40
0.09
  9
$DIMJUST
 70
     0
  9
$DIMSD1
 70
     0
  9
$DIMSD2
 70
     0
  9
$DIMTOLJ
 70
     1
  9
$DIMTZIN
 70
     0
  9
$DIMALTZ
 70
     0
  9
$DIMALTTZ
 70
     0
  9
$DIMUPT
 70
     0
  9
$DIMDEC
 70
     1
  9
$DIMTDEC
 70
     4
  9
$DIMALTU
 70
     2
  9
$DIMALTTD
 70
     2
  9
$DIMTXSTY
  7
STANDARD
  9
$DIMAUNIT
 70
     0
  9
$DIMADEC
 70
     0
  9
$DIMALTRND
 40
0.0
  9
$DIMAZIN
 70
     0
  9
$DIMDSEP
 70
    46
  9
$DIMATFIT
 70
     3
  9
$DIMFRAC
 70
     0
  9
$DIMLDRBLK
  1

  9
$DIMLUNIT
 70
     2
  9
$DIMLWD
 70
    -2
  9
$DIMLWE
 70
    -2
  9
$DIMTMOVE
 70
     0
  9
$LUNITS
 70
     2
  9
$LUPREC
 70
     3
  9
$SKETCHINC
 40
0.1
  9
$FILLETRAD
 40
3.0
  9
$AUNITS
 70
     0
  9
$AUPREC
 70
     3
  9
$MENU
  1
C:\R13\WIN\SUPPORT\ACADFULL
  9
$ELEVATION
 40
0.0
  9
$PELEVATION
 40
0.0
  9
$THICKNESS
 40
0.0
  9
$LIMCHECK
 70
     0
  9
$CHAMFERA
 40
0.0
  9
$CHAMFERB
 40
0.0
  9
$CHAMFERC
 40
0.0
  9
$CHAMFERD
 40
0.0
  9
$SKPOLY
 70
     0
  9
$TDCREATE
 40
2449812.756805555
  9
$TDUCREATE
 40
2449812.381805555
  9
$TDUPDATE
 40
2458115.623063252
  9
$TDUUPDATE
 40
2458115.248063252
  9
$TDINDWG
 40
1.3577121181
  9
$TDUSRTIMER
 40
1.357711794
  9
$USRTIMER
 70
     1
  9
$ANGBASE
 50
0.0
  9
$ANGDIR
 70
     0
  9
$PDMODE
 70
     0
  9
$PDSIZE
 40
0.0
  9
$PLINEWID
 40
0.0
  9
$SPLFRAME
 70
     0
  9
$SPLINETYPE
 70
     6
  9
$SPLINESEGS
 70
     8
  9
$HANDSEED
  5
673
  9
$SURFTAB1
 70
     6
  9
$SURFTAB2
 70
     6
  9
$SURFTYPE
 70
     6
  9
$SURFU
 70
     6
  9
$SURFV
 70
     6
  9
$UCSBASE
  2

  9
$UCSNAME
  2

  9
$UCSORG
 10
0.0
 20
0.0
 30
0.0
  9
$UCSXDIR
 10
1.0
 20
0.0
 30
0.0
  9
$UCSYDIR
 10
0.0
 20
1.0
 30
0.0
  9
$UCSORTHOREF
  2

  9
$UCSORTHOVIEW
 70
     0
  9
$UCSORGTOP
 10
0.0
 20
0.0
 30
0.0
  9
$UCSORGBOTTOM
 10
0.0
 20
0.0
 30
0.0
  9
$UCSORGLEFT
 10
0.0
 20
0.0
 30
0.0
  9
$UCSORGRIGHT
 10
0.0
 20
0.0
 30
0.0
  9
$UCSORGFRONT
 10
0.0
 20
0.0
 30
0.0
  9
$UCSORGBACK
 10
0.0
 20
0.0
 30
0.0
  9
$PUCSBASE
  2

  9
$PUCSNAME
  2

  9
$PUCSORG
 10
0.0
 20
0.0
 30
0.0
  9
$PUCSXDIR
 10
1.0
 20
0.0
 30
0.0
  9
$PUCSYDIR
 10
0.0
 20
1.0
 30
0.0
  9
$PUCSORTHOREF
  2

  9
$PUCSORTHOVIEW
 70
     0
  9
$PUCSORGTOP
 10
0.0
 20
0.0
 30
0.0
  9
$PUCSORGBOTTOM
 10
0.0
 20
0.0
 30
0.0
  9
$PUCSORGLEFT
 10
0.0
 20
0.0
 30
0.0
  9
$PUCSORGRIGHT
 10
0.0
 20
0.0
 30
0.0
  9
$PUCSORGFRONT
 10
0.0
 20
0.0
 30
0.0
  9
$PUCSORGBACK
 10
0.0
 20
0.0
 30
0.0
  9
$USERI1
 70
     0
  9
$USERI2
 70
     0
  9
$USERI3
 70
     0
  9
$USERI4
 70
     0
  9
$USERI5
 70
     0
  9
$USERR1
 40
0.0
  9
$USERR2
 40
0.0
  9
$USERR3
 40
0.0
  9
$USERR4
 40
2448925.372986111
  9
$USERR5
 40
0.04166667
  9
$WORLDVIEW
 70
     1
  9
$SHADEDGE
 70
     3
  9
$SHADEDIF
 70
    70
  9
$TILEMODE
 70
     1
  9
$MAXACTVP
 70
    16
  9
$PINSBASE
 10
0.0
 20
0.0
 30
0.0
  9
$PLIMCHECK
 70
     0
  9
$PEXTMIN
 10
1000000000000000E+20
 20
1000000000000000E+20
 30
1000000000000000E+20
  9
$PEXTMAX
 10
-1000000000000000E+20
 20
-1000000000000000E+20
 30
-1000000000000000E+20
  9
$PLIMMIN
 10
0.0
 20
0.0
  9
$PLIMMAX
 10
12.0
 20
9.0
  9
$UNITMODE
 70
     0
  9
$VISRETAIN
 70
     0
  9
$PLINEGEN
 70
     0
  9
$PSLTSCALE
 70
     0
  9
$TREEDEPTH
 70
  3020
  9
$CMLSTYLE
  2
STANDARD
  9
$CMLJUST
 70
     0
  9
$CMLSCALE
 40
1.0
  9
$PROXYGRAPHICS
 70
     1
  9
$MEASUREMENT
 70
     0
  9
$CELWEIGHT
370
    -1
  9
$ENDCAPS
280
     0
  9
$JOINSTYLE
280
     0
  9
$LWDISPLAY
290
     0
  9
$INSUNITS
 70
     0
  9
$HYPERLINKBASE
  1

  9
$STYLESHEET
  1
monochrome.ctb
  9
$XEDIT
290
     1
  9
$CEPSNTYPE
380
     0
  9
$PSTYLEMODE
290
     1
  9
$FINGERPRINTGUID
  2
{E450C090-53B1-4595-A258-441EF603B90A}
  9
$VERSIONGUID
  2
{2F574718-BD4A-4461-8DDA-5718352B0E49}
  9
$EXTNAMES
290
     1
  9
$PSVPSCALE
 40
0.0
  9
$OLESTARTUP
290
     0
  0
ENDSEC
  0
SECTION
  2
CLASSES
  0
CLASS
  1
ACDBDICTIONARYWDFLT
  2
AcDbDictionaryWithDefault
  3
ObjectDBX Classes
 90
        0
280
     0
281
     0
  0
CLASS
  1
MATERIAL
  2
AcDbMaterial
  3
ObjectDBX Classes
 90
     1153
280
     0
281
     0
  0
CLASS
  1
SORTENTSTABLE
  2
AcDbSortentsTable
  3
ObjectDBX Classes
 90
        0
280
     0
281
     0
  0
CLASS
  1
VISUALSTYLE
  2
AcDbVisualStyle
  3
ObjectDBX Classes
 90
     4095
280
     0
281
     0
  0
CLASS
  1
SCALE
  2
AcDbScale
  3
ObjectDBX Classes
 90
     1153
280
     0
281
     0
  0
CLASS
  1
DICTIONARYVAR
  2
AcDbDictionaryVar
  3
ObjectDBX Classes
 90
        0
280
     0
281
     0
  0
CLASS
  1
MLEADERSTYLE
  2
AcDbMLeaderStyle
  3
ACDB_MLEADERSTYLE_CLASS
 90
     4095
280
     0
281
     0
  0
CLASS
  1
TABLESTYLE
  2
AcDbTableStyle
  3
ObjectDBX Classes
 90
     4095
280
     0
281
     0
  0
CLASS
  1
ACDBPLACEHOLDER
  2
AcDbPlaceHolder
  3
ObjectDBX Classes
 90
        0
280
     0
281
     0
  0
CLASS
  1
LAYOUT
  2
AcDbLayout
  3
ObjectDBX Classes
 90
        0
280
     0
281
     0
  0
ENDSEC
  0
SECTION
  2
TABLES
  0
TABLE
  2
VPORT
  5
2C
102
{ACAD_XDICTIONARY
360
638
102
}
330
0
100
AcDbSymbolTable
 70
     1
  0
VPORT
  5
32
330
2C
100
AcDbSymbolTableRecord
100
AcDbViewportTableRecord
  2
*ACTIVE
 70
     0
 10
0.0
 20
0.0
 11
1.0
 21
1.0
 12
1384.047558247446
 22
632.2695601459567
 13
0.0
 23
0.0
 14
1.0
 24
1.0
 15
50.0
 25
50.0
 16
0.0
 26
0.0
 36
1.0
 17
0.0
 27
0.0
 37
0.0
 40
1431.175365955453
 41
1.827160493827161
 42
50.0
 43
0.0
 44
0.0
 50
0.0
 51
0.0
 71
     0
 72
  5000
 73
     1
 74
     0
 75
     0
 76
     0
 77
     0
 78
     0
281
     0
 65
     1
110
0.0
120
0.0
130
0.0
111
1.0
121
0.0
131
0.0
112
0.0
122
1.0
132
0.0
 79
     0
146
0.0
1001
ACAD_NAV_VCDISPLAY
1070
     3
  0
ENDTAB
  0
TABLE
  2
LTYPE
  5
D
330
0
100
AcDbSymbolTable
 70
     2
  0
LTYPE
  5
E
330
D
100
AcDbSymbolTableRecord
100
AcDbLinetypeTableRecord
  2
BYBLOCK
 70
     0
  3

 72
    65
 73
     0
 40
0.0
  0
LTYPE
  5
F
330
D
100
AcDbSymbolTableRecord
100
AcDbLinetypeTableRecord
  2
BYLAYER
 70
     0
  3

 72
    65
 73
     0
 40
0.0
  0
LTYPE
  5
C
330
D
100
AcDbSymbolTableRecord
100
AcDbLinetypeTableRecord
  2
CONTINUOUS
 70
     0
  3
Solid line
 72
    65
 73
     0
 40
0.0
  0
LTYPE
  5
147
330
D
100
AcDbSymbolTableRecord
100
AcDbLinetypeTableRecord
  2
CENTER
 70
     0
  3
____ _ ____ _ ____ _ ____ _ ____ _ ____ _ ____
 72
    65
 73
     4
 40
2.0
 49
1.25
 74
     0
 49
-0.25
 74
     0
 49
0.25
 74
     0
 49
-0.25
 74
     0
  0
ENDTAB
  0
TABLE
  2
LAYER
  5
2
102
{ACAD_XDICTIONARY
360
3
102
}
330
0
100
AcDbSymbolTable
 70
     9
  0
LAYER
  5
1D
102
{ACAD_XDICTIONARY
360
1E
102
}
330
2
100
AcDbSymbolTableRecord
100
AcDbLayerTableRecord
  2
0
 70
     0
 62
     7
  6
CONTINUOUS
370
    -3
390
7
  0
LAYER
  5
458
102
{ACAD_XDICTIONARY
360
459
102
}
330
2
100
AcDbSymbolTableRecord
100
AcDbLayerTableRecord
  2
1
 70
     0
 62
     9
  6
CONTINUOUS
370
    -3
390
7
  0
LAYER
  5
1
102
{ACAD_XDICTIONARY
360
5
102
}
330
2
100
AcDbSymbolTableRecord
100
AcDbLayerTableRecord
  2
2
 70
     0
 62
     4
  6
CONTINUOUS
370
    -3
390
7
  0
LAYER
  5
6B
102
{ACAD_XDICTIONARY
360
6C
102
}
330
2
100
AcDbSymbolTableRecord
100
AcDbLayerTableRecord
  2
4
 70
     0
 62
     3
  6
CONTINUOUS
370
    -3
390
7
  0
LAYER
  5
144
102
{ACAD_XDICTIONARY
360
145
102
}
330
2
100
AcDbSymbolTableRecord
100
AcDbLayerTableRecord
  2
L-CENTER
 70
     0
 62
     1
  6
CENTER
370
    -3
390
7
  0
LAYER
  5
1A0
102
{ACAD_XDICTIONARY
360
1A1
102
}
330
2
100
AcDbSymbolTableRecord
100
AcDbLayerTableRecord
  2
3
 70
     0
 62
     2
  6
CONTINUOUS
370
    -3
390
7
  0
LAYER
  5
452
330
2
100
AcDbSymbolTableRecord
100
AcDbLayerTableRecord
  2
5
 70
     0
 62
     6
  6
CONTINUOUS
370
    -3
390
7
  0
LAYER
  5
5B6
330
2
100
AcDbSymbolTableRecord
100
AcDbLayerTableRecord
  2
Defpoints
 70
     0
 62
     7
  6
CONTINUOUS
290
     0
370
    -3
390
7
  0
ENDTAB
  0
TABLE
  2
STYLE
  5
11
330
0
100
AcDbSymbolTable
 70
     2
  0
STYLE
  5
15
330
11
100
AcDbSymbolTableRecord
100
AcDbTextStyleTableRecord
  2
STANDARD
 70
     0
 40
0.0
 41
1.0
 50
0.0
 71
     0
 42
9.0
  3
TXT
  4

  0
STYLE
  5
10
330
11
100
AcDbSymbolTableRecord
100
AcDbTextStyleTableRecord
  2
KANJI
 70
     0
 40
0.0
 41
1.0
 50
0.0
 71
     0
 42
15.0
  3
TXT
  4
BIGFONT
  0
ENDTAB
  0
TABLE
  2
VIEW
  5
2A
330
0
100
AcDbSymbolTable
 70
     0
  0
ENDTAB
  0
TABLE
  2
UCS
  5
2B
330
0
100
AcDbSymbolTable
 70
     0
  0
ENDTAB
  0
TABLE
  2
APPID
  5
25
330
0
100
AcDbSymbolTable
 70
     4
  0
APPID
  5
31
330
25
100
AcDbSymbolTableRecord
100
AcDbRegAppTableRecord
  2
ACAD
 70
     0
  0
APPID
  5
24
330
25
100
AcDbSymbolTableRecord
100
AcDbRegAppTableRecord
  2
ACAD_PSEXT
 70
     0
  0
APPID
  5
34
330
25
100
AcDbSymbolTableRecord
100
AcDbRegAppTableRecord
  2
ACAD_NAV_VCDISPLAY
 70
     0
  0
APPID
  5
58B
330
25
100
AcDbSymbolTableRecord
100
AcDbRegAppTableRecord
  2
ACAD_MLEADERVER
 70
     0
  0
ENDTAB
  0
TABLE
  2
DIMSTYLE
  5
14
330
0
100
AcDbSymbolTable
 70
     1
100
AcDbDimStyleTable
  0
DIMSTYLE
105
13
330
14
100
AcDbSymbolTableRecord
100
AcDbDimStyleTableRecord
  2
STANDARD
 70
     0
178
     0
340
15
  0
ENDTAB
  0
TABLE
  2
BLOCK_RECORD
  5
18
330
0
100
AcDbSymbolTable
 70
     0
  0
BLOCK_RECORD
  5
19
102
{ACAD_XDICTIONARY
360
1A
102
}
330
18
100
AcDbSymbolTableRecord
100
AcDbBlockTableRecord
  2
*MODEL_SPACE
340
21
  0
BLOCK_RECORD
  5
26
330
18
100
AcDbSymbolTableRecord
100
AcDbBlockTableRecord
  2
*PAPER_SPACE
340
29
  0
ENDTAB
  0
ENDSEC
  0
SECTION
  2
BLOCKS
  0
BLOCK
  5
1C
330
19
100
AcDbEntity
  8
0
100
AcDbBlockBegin
  2
*MODEL_SPACE
 70
     0
 10
0.0
 20
0.0
 30
0.0
  3
*MODEL_SPACE
  1

  0
ENDBLK
  5
20
330
19
100
AcDbEntity
  8
0
100
AcDbBlockEnd
  0
BLOCK
  5
27
330
26
100
AcDbEntity
 67
     1
  8
0
100
AcDbBlockBegin
  2
*PAPER_SPACE
 70
     0
 10
0.0
 20
0.0
 30
0.0
  3
*PAPER_SPACE
  1

  0
ENDBLK
  5
28
330
26
100
AcDbEntity
 67
     1
  8
0
100
AcDbBlockEnd
  0
ENDSEC
  0
SECTION
  2
ENTITIES
  0
LINE
  5
6A
330
19
100
AcDbEntity
  8
4
100
AcDbLine
 10
309.367379743996
 20
425.2060116383078
 30
0.0
 11
309.367379743996
 21
321.2060116383069
 31
0.0
  0
LINE
  5
6E
330
19
100
AcDbEntity
  8
4
100
AcDbLine
 10
843.367379743996
 20
425.2060116383078
 30
0.0
 11
843.367379743996
 21
321.2060116383069
 31
0.0
  0
LINE
  5
6F
330
19
100
AcDbEntity
  8
4
100
AcDbLine
 10
685.7835797439961
 20
303.2060116383074
 30
0.0
 11
613.3673797439965
 21
303.2060116383074
 31
0.0
  0
LINE
  5
70
330
19
100
AcDbEntity
  8
4
100
AcDbLine
 10
613.3673797439965
 20
303.2060116383074
 30
0.0
 11
613.3673797439965
 21
308.2060116383074
 31
0.0
  0
LINE
  5
71
330
19
100
AcDbEntity
  8
4
100
AcDbLine
 10
466.367379743996
 20
293.8060116383068
 30
0.0
 11
586.8624997439961
 21
293.8060116383068
 31
0.0
  0
LINE
  5
72
330
19
100
AcDbEntity
  8
4
100
AcDbLine
 10
587.8624997439961
 20
294.8060116383068
 30
0.0
 11
587.8624997439961
 21
308.2060116383074
 31
0.0
  0
LINE
  5
74
330
19
100
AcDbEntity
  8
4
100
AcDbLine
 10
559.3673797439961
 20
509.2060116383075
 30
0.0
 11
469.8370348585991
 21
509.2060116383075
 31
0.0
  0
LINE
  5
75
330
19
100
AcDbEntity
  8
4
100
AcDbLine
 10
587.8624997439961
 20
514.196001638308
 30
0.0
 11
587.8624997439961
 21
520.2060116383079
 31
0.0
  0
LINE
  5
76
330
19
100
AcDbEntity
  8
4
100
AcDbLine
 10
581.367379743996
 20
520.2060116383079
 30
0.0
 11
587.8624997439961
 21
520.2060116383079
 31
0.0
  0
LINE
  5
77
330
19
100
AcDbEntity
  8
4
100
AcDbLine
 10
417.8624997439961
 20
520.2060116383079
 30
0.0
 11
571.367379743996
 21
520.2060116383079
 31
0.0
  0
LINE
  5
78
330
19
100
AcDbEntity
  8
4
100
AcDbLine
 10
417.8624997439961
 20
520.2060116383079
 30
0.0
 11
417.8624997439961
 21
504.2060116383075
 31
0.0
  0
LINE
  5
79
330
19
100
AcDbEntity
  8
4
100
AcDbLine
 10
613.3673797439965
 20
511.206011638307
 30
0.0
 11
682.897724629393
 21
511.206011638307
 31
0.0
  0
LINE
  5
7A
330
19
100
AcDbEntity
  8
4
100
AcDbLine
 10
326.367379743996
 20
484.2060116383072
 30
0.0
 11
326.367379743996
 21
502.2060116383075
 31
0.0
  0
LINE
  5
7B
330
19
100
AcDbEntity
  8
4
100
AcDbLine
 10
824.367379743996
 20
504.2060116383075
 30
0.0
 11
328.3673797439965
 21
504.2060116383075
 31
0.0
  0
LINE
  5
7C
330
19
100
AcDbEntity
  8
4
100
AcDbLine
 10
826.367379743996
 20
484.2060116383072
 30
0.0
 11
326.367379743996
 21
484.2060116383072
 31
0.0
  0
LINE
  5
7D
330
19
100
AcDbEntity
  8
4
100
AcDbLine
 10
826.367379743996
 20
484.2060116383072
 30
0.0
 11
826.367379743996
 21
502.2060116383075
 31
0.0
  0
LINE
  5
7E
330
19
100
AcDbEntity
  8
4
100
AcDbLine
 10
613.3673797439965
 20
511.206011638307
 30
0.0
 11
613.3673797439965
 21
504.0158266383075
 31
0.0
  0
LINE
  5
7F
330
19
100
AcDbEntity
  8
4
100
AcDbLine
 10
733.367379743996
 20
511.206011638307
 30
0.0
 11
704.837034858599
 21
511.206011638307
 31
0.0
  0
LINE
  5
80
330
19
100
AcDbEntity
  8
4
100
AcDbLine
 10
733.367379743996
 20
504.2060116383075
 30
0.0
 11
733.367379743996
 21
511.206011638307
 31
0.0
  0
LINE
  5
81
330
19
100
AcDbEntity
  8
4
100
AcDbLine
 10
593.867379743996
 20
505.0351116383074
 30
0.0
 11
558.867379743996
 21
505.0351116383074
 31
0.0
  0
LINE
  5
82
330
19
100
AcDbEntity
  8
4
100
AcDbLine
 10
593.867379743996
 20
504.2060116383075
 30
0.0
 11
593.867379743996
 21
505.0351116383074
 31
0.0
  0
LINE
  5
83
330
19
100
AcDbEntity
  8
4
100
AcDbLine
 10
558.867379743996
 20
504.2060116383075
 30
0.0
 11
558.867379743996
 21
505.0351116383074
 31
0.0
  0
LINE
  5
84
330
19
100
AcDbEntity
  8
4
100
AcDbLine
 10
581.367379743996
 20
515.2350666383079
 30
0.0
 11
588.867379743996
 21
514.0351116383074
 31
0.0
  0
LINE
  5
85
330
19
100
AcDbEntity
  8
4
100
AcDbLine
 10
571.367379743996
 20
515.2350666383079
 30
0.0
 11
563.867379743996
 21
514.0351116383074
 31
0.0
  0
LINE
  5
86
330
19
100
AcDbEntity
  8
4
100
AcDbLine
 10
581.367379743996
 20
514.0351116383074
 30
0.0
 11
588.867379743996
 21
514.0351116383074
 31
0.0
  0
LINE
  5
87
330
19
100
AcDbEntity
  8
4
100
AcDbLine
 10
563.867379743996
 20
514.0351116383074
 30
0.0
 11
571.367379743996
 21
514.0351116383074
 31
0.0
  0
ARC
  5
88
330
19
100
AcDbEntity
  8
4
100
AcDbCircle
 10
576.367379743996
 20
551.0351116383074
 30
0.0
 40
5.0
100
AcDbArc
 50
0.0
 51
180.0
  0
LINE
  5
89
330
19
100
AcDbEntity
  8
4
100
AcDbLine
 10
581.367379743996
 20
508.5912666383076
 30
0.0
 11
581.367379743996
 21
551.0351116383074
 31
0.0
  0
LINE
  5
8A
330
19
100
AcDbEntity
  8
4
100
AcDbLine
 10
571.367379743996
 20
508.5912666383076
 30
0.0
 11
571.367379743996
 21
551.0351116383074
 31
0.0
  0
LINE
  5
8B
330
19
100
AcDbEntity
  8
4
100
AcDbLine
 10
563.867379743996
 20
505.0351116383074
 30
0.0
 11
563.867379743996
 21
514.0351116383074
 31
0.0
  0
LINE
  5
8C
330
19
100
AcDbEntity
  8
4
100
AcDbLine
 10
563.867379743996
 20
505.0351116383074
 30
0.0
 11
588.867379743996
 21
505.0351116383074
 31
0.0
  0
LINE
  5
8D
330
19
100
AcDbEntity
  8
4
100
AcDbLine
 10
588.867379743996
 20
505.0351116383074
 30
0.0
 11
588.867379743996
 21
514.0351116383074
 31
0.0
  0
LINE
  5
8E
330
19
100
AcDbEntity
  8
4
100
AcDbLine
 10
559.3673797439961
 20
509.2060116383075
 30
0.0
 11
469.8370348585991
 21
509.2060116383075
 31
0.0
  0
ARC
  5
8F
330
19
100
AcDbEntity
  8
4
100
AcDbCircle
 10
734.4979947439961
 20
290.7897516383074
 30
0.0
 40
4.15458
100
AcDbArc
 50
300.3909439999998
 51
35.56271599999915
  0
ARC
  5
90
330
19
100
AcDbEntity
  8
4
100
AcDbCircle
 10
738.701609743996
 20
283.6222716383069
 30
0.0
 40
4.15458
100
AcDbArc
 50
120.390950999996
 51
215.5627279999995
  0
ARC
  5
91
330
19
100
AcDbEntity
  8
4
100
AcDbCircle
 10
731.9425747439959
 20
278.7897516383069
 30
0.0
 40
4.15458
100
AcDbArc
 50
300.3909440000068
 51
35.56271599999915
  0
ARC
  5
92
330
19
100
AcDbEntity
  8
4
100
AcDbCircle
 10
736.1461897439963
 20
271.6222716383073
 30
0.0
 40
4.15458
100
AcDbArc
 50
120.390950999996
 51
215.5627279999995
  0
ARC
  5
93
330
19
100
AcDbEntity
  8
4
100
AcDbCircle
 10
729.3869097439961
 20
266.7897516383074
 30
0.0
 40
4.15458
100
AcDbArc
 50
300.3909440000068
 51
35.56271599999915
  0
ARC
  5
94
330
19
100
AcDbEntity
  8
4
100
AcDbCircle
 10
729.3869097439961
 20
266.7897516383074
 30
0.0
 40
4.15458
100
AcDbArc
 50
300.3909440000068
 51
35.56271599999915
  0
ARC
  5
95
330
19
100
AcDbEntity
  8
4
100
AcDbCircle
 10
736.1461897439963
 20
271.6222716383073
 30
0.0
 40
4.15458
100
AcDbArc
 50
120.390950999996
 51
215.5627279999995
  0
ARC
  5
96
330
19
100
AcDbEntity
  8
4
100
AcDbCircle
 10
731.9425747439959
 20
278.7897516383069
 30
0.0
 40
4.15458
100
AcDbArc
 50
300.3909440000068
 51
35.56271599999915
  0
ARC
  5
97
330
19
100
AcDbEntity
  8
4
100
AcDbCircle
 10
738.701609743996
 20
283.6222716383069
 30
0.0
 40
4.15458
100
AcDbArc
 50
120.390950999996
 51
215.5627279999995
  0
ARC
  5
98
330
19
100
AcDbEntity
  8
4
100
AcDbCircle
 10
734.4979947439961
 20
290.7897516383074
 30
0.0
 40
4.15458
100
AcDbArc
 50
300.3909439999998
 51
35.56271599999915
  0
LINE
  5
99
330
19
100
AcDbEntity
  8
4
100
AcDbLine
 10
777.3673797439965
 20
263.2060116383074
 30
0.0
 11
777.3673797439965
 21
293.2060116383074
 31
0.0
  0
LINE
  5
9A
330
19
100
AcDbEntity
  8
4
100
AcDbLine
 10
755.367379743996
 20
263.2060116383074
 30
0.0
 11
755.367379743996
 21
293.2060116383074
 31
0.0
  0
LINE
  5
9B
330
19
100
AcDbEntity
  8
4
100
AcDbLine
 10
832.3673797439965
 20
481.2060116383068
 30
0.0
 11
832.3673797439965
 21
318.2060116383074
 31
0.0
  0
LINE
  5
9C
330
19
100
AcDbEntity
  8
4
100
AcDbLine
 10
826.367379743996
 20
481.2060116383068
 30
0.0
 11
826.367379743996
 21
484.2060116383072
 31
0.0
  0
LINE
  5
9D
330
19
100
AcDbEntity
  8
4
100
AcDbLine
 10
832.3673797439965
 20
481.2060116383068
 30
0.0
 11
320.367379743996
 21
481.2060116383068
 31
0.0
  0
LINE
  5
9E
330
19
100
AcDbEntity
  8
4
100
AcDbLine
 10
826.367379743996
 20
484.2060116383072
 30
0.0
 11
326.367379743996
 21
484.2060116383072
 31
0.0
  0
LINE
  5
9F
330
19
100
AcDbEntity
  8
4
100
AcDbLine
 10
326.367379743996
 20
481.2060116383068
 30
0.0
 11
326.367379743996
 21
484.2060116383072
 31
0.0
  0
LINE
  5
A0
330
19
100
AcDbEntity
  8
4
100
AcDbLine
 10
320.367379743996
 20
481.2060116383068
 30
0.0
 11
320.367379743996
 21
318.2060116383074
 31
0.0
  0
LINE
  5
A1
330
19
100
AcDbEntity
  8
4
100
AcDbLine
 10
834.367379743996
 20
427.2060116383074
 30
0.0
 11
838.367379743996
 21
427.2060116383074
 31
0.0
  0
LINE
  5
A2
330
19
100
AcDbEntity
  8
4
100
AcDbLine
 10
314.367379743996
 20
427.2060116383074
 30
0.0
 11
318.3673797439965
 21
427.2060116383074
 31
0.0
  0
LINE
  5
A3
330
19
100
AcDbEntity
  8
4
100
AcDbLine
 10
834.3256397439959
 20
319.2060116383074
 30
0.0
 11
838.367379743996
 21
319.2060116383074
 31
0.0
  0
LINE
  5
A4
330
19
100
AcDbEntity
  8
4
100
AcDbLine
 10
314.367379743996
 20
319.2060116383074
 30
0.0
 11
318.4091197439961
 21
319.2060116383074
 31
0.0
  0
LINE
  5
A5
330
19
100
AcDbEntity
  8
4
100
AcDbLine
 10
446.367379743996
 20
293.2060116383074
 30
0.0
 11
446.367379743996
 21
263.2060116383074
 31
0.0
  0
LINE
  5
A6
330
19
100
AcDbEntity
  8
4
100
AcDbLine
 10
706.367379743996
 20
293.2060116383074
 30
0.0
 11
706.367379743996
 21
263.2060116383074
 31
0.0
  0
LINE
  5
A7
330
19
100
AcDbEntity
  8
4
100
AcDbLine
 10
816.367379743996
 20
308.2060116383074
 30
0.0
 11
822.3673797439965
 21
308.2060116383074
 31
0.0
  0
LINE
  5
A8
330
19
100
AcDbEntity
  8
4
100
AcDbLine
 10
330.367379743996
 20
308.2060116383074
 30
0.0
 11
336.367379743996
 21
308.2060116383074
 31
0.0
  0
LINE
  5
A9
330
19
100
AcDbEntity
  8
4
100
AcDbLine
 10
811.367379743996
 20
303.2060116383074
 30
0.0
 11
811.367379743996
 21
298.2060116383074
 31
0.0
  0
ARC
  5
AA
330
19
100
AcDbEntity
  8
4
100
AcDbCircle
 10
816.367379743996
 20
303.2060116383074
 30
0.0
 40
5.0
100
AcDbArc
 50
90.0
 51
180.0
  0
LINE
  5
AB
330
19
100
AcDbEntity
  8
4
100
AcDbLine
 10
341.367379743996
 20
303.2060116383074
 30
0.0
 11
341.367379743996
 21
298.2060116383074
 31
0.0
  0
LINE
  5
AC
330
19
100
AcDbEntity
  8
4
100
AcDbLine
 10
314.367379743996
 20
319.2060116383074
 30
0.0
 11
314.367379743996
 21
427.2060116383074
 31
0.0
  0
LINE
  5
AD
330
19
100
AcDbEntity
  8
4
100
AcDbLine
 10
313.3673797439965
 20
321.2060116383069
 30
0.0
 11
309.367379743996
 21
321.2060116383069
 31
0.0
  0
LINE
  5
AE
330
19
100
AcDbEntity
  8
4
100
AcDbLine
 10
313.3673797439965
 20
425.2060116383078
 30
0.0
 11
309.367379743996
 21
425.2060116383078
 31
0.0
  0
LINE
  5
AF
330
19
100
AcDbEntity
  8
4
100
AcDbLine
 10
838.367379743996
 20
319.2060116383074
 30
0.0
 11
838.367379743996
 21
427.2060116383074
 31
0.0
  0
LINE
  5
B0
330
19
100
AcDbEntity
  8
4
100
AcDbLine
 10
843.367379743996
 20
321.2060116383069
 30
0.0
 11
843.367379743996
 21
425.2060116383078
 31
0.0
  0
LINE
  5
B1
330
19
100
AcDbEntity
  8
4
100
AcDbLine
 10
843.367379743996
 20
321.2060116383069
 30
0.0
 11
839.367379743996
 21
321.2060116383069
 31
0.0
  0
LINE
  5
B2
330
19
100
AcDbEntity
  8
4
100
AcDbLine
 10
843.367379743996
 20
425.2060116383078
 30
0.0
 11
839.367379743996
 21
425.2060116383078
 31
0.0
  0
LINE
  5
B3
330
19
100
AcDbEntity
  8
4
100
AcDbLine
 10
468.122384743996
 20
305.2060116383078
 30
0.0
 11
587.8624997439961
 21
305.2060116383078
 31
0.0
  0
LINE
  5
B4
330
19
100
AcDbEntity
  8
4
100
AcDbLine
 10
686.367379743996
 20
300.2060116383078
 30
0.0
 11
686.367379743996
 21
263.2060116383074
 31
0.0
  0
LINE
  5
B5
330
19
100
AcDbEntity
  8
4
100
AcDbLine
 10
466.367379743996
 20
300.2060116383078
 30
0.0
 11
466.367379743996
 21
263.2060116383074
 31
0.0
  0
LINE
  5
B6
330
19
100
AcDbEntity
  8
4
100
AcDbLine
 10
678.367379743996
 20
308.2060116383074
 30
0.0
 11
474.367379743996
 21
308.2060116383074
 31
0.0
  0
LINE
  5
B7
330
19
100
AcDbEntity
  8
4
100
AcDbLine
 10
826.367379743996
 20
263.2060116383074
 30
0.0
 11
686.367379743996
 21
263.2060116383074
 31
0.0
  0
LINE
  5
B8
330
19
100
AcDbEntity
  8
4
100
AcDbLine
 10
326.367379743996
 20
263.2060116383074
 30
0.0
 11
466.367379743996
 21
263.2060116383074
 31
0.0
  0
LINE
  5
B9
330
19
100
AcDbEntity
  8
4
100
AcDbLine
 10
826.367379743996
 20
288.2060116383074
 30
0.0
 11
826.367379743996
 21
263.2060116383074
 31
0.0
  0
LINE
  5
BA
330
19
100
AcDbEntity
  8
4
100
AcDbLine
 10
821.367379743996
 20
293.2060116383074
 30
0.0
 11
686.367379743996
 21
293.2060116383074
 31
0.0
  0
ARC
  5
BB
330
19
100
AcDbEntity
  8
4
100
AcDbCircle
 10
821.367379743996
 20
288.2060116383074
 30
0.0
 40
5.0
100
AcDbArc
 50
0.0
 51
90.0
  0
LINE
  5
BC
330
19
100
AcDbEntity
  8
4
100
AcDbLine
 10
326.367379743996
 20
288.2060116383074
 30
0.0
 11
326.367379743996
 21
263.2060116383074
 31
0.0
  0
LINE
  5
BD
330
19
100
AcDbEntity
  8
4
100
AcDbLine
 10
331.367379743996
 20
293.2060116383074
 30
0.0
 11
466.367379743996
 21
293.2060116383074
 31
0.0
  0
ARC
  5
BE
330
19
100
AcDbEntity
  8
4
100
AcDbCircle
 10
331.367379743996
 20
288.2060116383074
 30
0.0
 40
5.0
100
AcDbArc
 50
90.0
 51
180.0
  0
ARC
  5
BF
330
19
100
AcDbEntity
  8
4
100
AcDbCircle
 10
1202.802194743997
 20
288.2060116383074
 30
0.0
 40
5.0
100
AcDbArc
 50
90.0
 51
180.0
  0
LINE
  5
C0
330
19
100
AcDbEntity
  8
4
100
AcDbLine
 10
1202.802194743997
 20
293.2060116383074
 30
0.0
 11
1347.802194743997
 21
293.2060116383074
 31
0.0
  0
ARC
  5
C1
330
19
100
AcDbEntity
  8
4
100
AcDbCircle
 10
1707.802194743997
 20
288.2060116383074
 30
0.0
 40
5.0
100
AcDbArc
 50
0.0
 51
90.0
  0
LINE
  5
C2
330
19
100
AcDbEntity
  8
4
100
AcDbLine
 10
1707.802194743997
 20
293.2060116383074
 30
0.0
 11
1562.802194743997
 21
293.2060116383074
 31
0.0
  0
LINE
  5
C3
330
19
100
AcDbEntity
  8
4
100
AcDbLine
 10
1197.802194743997
 20
263.2060116383074
 30
0.0
 11
1197.802194743997
 21
288.2060116383074
 31
0.0
  0
LINE
  5
C4
330
19
100
AcDbEntity
  8
4
100
AcDbLine
 10
1712.802194743997
 20
263.2060116383074
 30
0.0
 11
1712.802194743997
 21
288.2060116383074
 31
0.0
  0
LINE
  5
C5
330
19
100
AcDbEntity
  8
4
100
AcDbLine
 10
1712.802194743997
 20
263.2060116383074
 30
0.0
 11
1562.802194743997
 21
263.2060116383074
 31
0.0
  0
LINE
  5
C6
330
19
100
AcDbEntity
  8
4
100
AcDbLine
 10
1197.802194743997
 20
263.2060116383074
 30
0.0
 11
1347.802194743997
 21
263.2060116383074
 31
0.0
  0
LINE
  5
C7
330
19
100
AcDbEntity
  8
4
100
AcDbLine
 10
1514.802194743997
 20
303.2060116383074
 30
0.0
 11
1394.802194743997
 21
303.2060116383074
 31
0.0
  0
LINE
  5
C8
330
19
100
AcDbEntity
  8
4
100
AcDbLine
 10
1382.802194743997
 20
308.2060116383074
 30
0.0
 11
1382.802194743997
 21
293.8060116383068
 31
0.0
  0
LINE
  5
C9
330
19
100
AcDbEntity
  8
4
100
AcDbLine
 10
1552.802194743997
 20
308.2060116383074
 30
0.0
 11
1552.802194743997
 21
293.8060116383068
 31
0.0
  0
LINE
  5
CA
330
19
100
AcDbEntity
  8
4
100
AcDbLine
 10
1197.802194743997
 20
484.2060116383072
 30
0.0
 11
1197.802194743997
 21
481.2060116383068
 31
0.0
  0
LINE
  5
CB
330
19
100
AcDbEntity
  8
4
100
AcDbLine
 10
1703.802194743997
 20
481.2060116383068
 30
0.0
 11
1191.802194743997
 21
481.2060116383068
 31
0.0
  0
LINE
  5
CC
330
19
100
AcDbEntity
  8
4
100
AcDbLine
 10
1697.802194743997
 20
484.2060116383072
 30
0.0
 11
1197.802194743997
 21
484.2060116383072
 31
0.0
  0
LINE
  5
CD
330
19
100
AcDbEntity
  8
4
100
AcDbLine
 10
1697.802194743997
 20
481.2060116383068
 30
0.0
 11
1697.802194743997
 21
484.2060116383072
 31
0.0
  0
LINE
  5
CE
330
19
100
AcDbEntity
  8
4
100
AcDbLine
 10
1347.802194743997
 20
300.2060116383078
 30
0.0
 11
1347.802194743997
 21
263.2060116383074
 31
0.0
  0
LINE
  5
CF
330
19
100
AcDbEntity
  8
4
100
AcDbLine
 10
1554.802194743997
 20
308.2060116383074
 30
0.0
 11
1355.802194743997
 21
308.2060116383074
 31
0.0
  0
LINE
  5
D0
330
19
100
AcDbEntity
  8
4
100
AcDbLine
 10
1217.802194743997
 20
303.2060116383074
 30
0.0
 11
1217.802194743997
 21
298.2060116383074
 31
0.0
  0
LINE
  5
D1
330
19
100
AcDbEntity
  8
4
100
AcDbLine
 10
1677.802194743997
 20
303.2060116383074
 30
0.0
 11
1677.802194743997
 21
298.2060116383074
 31
0.0
  0
ARC
  5
D2
330
19
100
AcDbEntity
  8
4
100
AcDbCircle
 10
1693.802194743997
 20
318.2060116383074
 30
0.0
 40
10.0
100
AcDbArc
 50
270.0014040000008
 51
0.0
  0
LINE
  5
D3
330
19
100
AcDbEntity
  8
4
100
AcDbLine
 10
1703.802194743997
 20
318.2060116383074
 30
0.0
 11
1703.802194743997
 21
481.2060116383068
 31
0.0
  0
ARC
  5
D4
330
19
100
AcDbEntity
  8
4
100
AcDbCircle
 10
1201.802194743997
 20
318.2060116383074
 30
0.0
 40
10.0
100
AcDbArc
 50
180.0
 51
270.0014039999981
  0
LINE
  5
D5
330
19
100
AcDbEntity
  8
4
100
AcDbLine
 10
1201.802194743997
 20
308.2060116383074
 30
0.0
 11
1212.802194743997
 21
308.2060116383074
 31
0.0
  0
LINE
  5
D6
330
19
100
AcDbEntity
  8
4
100
AcDbLine
 10
1191.802194743997
 20
318.2060116383074
 30
0.0
 11
1191.802194743997
 21
481.2060116383068
 31
0.0
  0
LINE
  5
D7
330
19
100
AcDbEntity
  8
4
100
AcDbLine
 10
1562.802194743997
 20
321.0268116383069
 30
0.0
 11
1562.802194743997
 21
263.2060116383074
 31
0.0
  0
LINE
  5
D8
330
19
100
AcDbEntity
  8
4
100
AcDbLine
 10
1642.047069743997
 20
322.7919516383068
 30
0.0
 11
1642.047069743997
 21
293.2060116383074
 31
0.0
  0
LINE
  5
D9
330
19
100
AcDbEntity
  8
4
100
AcDbLine
 10
1704.802194743997
 20
308.2060116383074
 30
0.0
 11
1682.802194743997
 21
308.2060116383074
 31
0.0
  0
LINE
  5
DA
330
19
100
AcDbEntity
  8
4
100
AcDbLine
 10
1705.802194743997
 20
309.2060116383074
 30
0.0
 11
1705.802194743997
 21
373.2060116383074
 31
0.0
  0
LINE
  5
DB
330
19
100
AcDbEntity
  8
4
100
AcDbLine
 10
1704.802194743997
 20
463.2060116383074
 30
0.0
 11
1703.802194743997
 21
463.2060116383074
 31
0.0
  0
LINE
  5
DC
330
19
100
AcDbEntity
  8
4
100
AcDbLine
 10
1704.802194743997
 20
424.2060116383074
 30
0.0
 11
1704.802194743997
 21
463.2060116383074
 31
0.0
  0
LINE
  5
DD
330
19
100
AcDbEntity
  8
4
100
AcDbLine
 10
1707.802194743997
 20
424.2060116383074
 30
0.0
 11
1707.802194743997
 21
373.2060116383074
 31
0.0
  0
LINE
  5
DE
330
19
100
AcDbEntity
  8
4
100
AcDbLine
 10
1707.802194743997
 20
424.2060116383074
 30
0.0
 11
1704.802194743997
 21
424.2060116383074
 31
0.0
  0
LINE
  5
DF
330
19
100
AcDbEntity
  8
4
100
AcDbLine
 10
1705.802194743997
 20
373.2060116383074
 30
0.0
 11
1707.802194743997
 21
373.2060116383074
 31
0.0
  0
LINE
  5
E0
330
19
100
AcDbEntity
  8
4
100
AcDbLine
 10
1708.301974743998
 20
436.7060116383074
 30
0.0
 11
1713.301974743998
 21
436.7060116383074
 31
0.0
  0
LINE
  5
E1
330
19
100
AcDbEntity
  8
4
100
AcDbLine
 10
1708.301974743998
 20
451.7060116383074
 30
0.0
 11
1713.301974743998
 21
451.7060116383074
 31
0.0
  0
LINE
  5
E2
330
19
100
AcDbEntity
  8
4
100
AcDbLine
 10
1704.800974743997
 20
458.2060116383074
 30
0.0
 11
1704.800974743997
 21
430.2060116383078
 31
0.0
  0
LINE
  5
E3
330
19
100
AcDbEntity
  8
4
100
AcDbLine
 10
1706.301974743998
 20
459.2060116383074
 30
0.0
 11
1706.301974743998
 21
429.2060116383074
 31
0.0
  0
LINE
  5
E4
330
19
100
AcDbEntity
  8
4
100
AcDbLine
 10
1708.301974743998
 20
459.2060116383074
 30
0.0
 11
1708.301974743998
 21
429.2060116383074
 31
0.0
  0
LINE
  5
E5
330
19
100
AcDbEntity
  8
4
100
AcDbLine
 10
1713.301974743998
 20
459.2060116383074
 30
0.0
 11
1713.301974743998
 21
429.2060116383074
 31
0.0
  0
LINE
  5
E6
330
19
100
AcDbEntity
  8
4
100
AcDbLine
 10
1713.301974743998
 20
429.2060116383074
 30
0.0
 11
1706.301974743998
 21
429.2060116383074
 31
0.0
  0
LINE
  5
E7
330
19
100
AcDbEntity
  8
4
100
AcDbLine
 10
1706.301974743998
 20
430.2060116383078
 30
0.0
 11
1704.800974743997
 21
430.2060116383078
 31
0.0
  0
LINE
  5
E8
330
19
100
AcDbEntity
  8
4
100
AcDbLine
 10
1706.301974743998
 20
459.2060116383074
 30
0.0
 11
1713.301974743998
 21
459.2060116383074
 31
0.0
  0
LINE
  5
E9
330
19
100
AcDbEntity
  8
4
100
AcDbLine
 10
1706.301974743998
 20
458.2060116383074
 30
0.0
 11
1704.800974743997
 21
458.2060116383074
 31
0.0
  0
LINE
  5
EA
330
19
100
AcDbEntity
  8
4
100
AcDbLine
 10
1707.802099743998
 20
335.9440466383072
 30
0.0
 11
1707.802099743998
 21
329.2060116383074
 31
0.0
  0
LINE
  5
EB
330
19
100
AcDbEntity
  8
4
100
AcDbLine
 10
1705.802194743997
 20
335.7816966383081
 30
0.0
 11
1707.802099743998
 21
335.9440466383072
 31
0.0
  0
LINE
  5
EC
330
19
100
AcDbEntity
  8
4
100
AcDbLine
 10
1705.802194743997
 20
322.6303266383076
 30
0.0
 11
1707.802099743998
 21
322.4679766383071
 31
0.0
  0
LINE
  5
ED
330
19
100
AcDbEntity
  8
4
100
AcDbLine
 10
1707.802099743998
 20
322.4679766383071
 30
0.0
 11
1707.802099743998
 21
329.2060116383074
 31
0.0
  0
LINE
  5
EE
330
19
100
AcDbEntity
  8
4
100
AcDbLine
 10
1645.802194743997
 20
516.0351116383074
 30
0.0
 11
1650.984069743997
 21
515.2060116383075
 31
0.0
  0
LINE
  5
EF
330
19
100
AcDbEntity
  8
4
100
AcDbLine
 10
1633.302194743997
 20
514.0351116383074
 30
0.0
 11
1645.802194743997
 21
516.0351116383074
 31
0.0
  0
ARC
  5
F0
330
19
100
AcDbEntity
  8
4
100
AcDbCircle
 10
1645.802194743997
 20
531.0351116383074
 30
0.0
 40
25.00002
100
AcDbArc
 50
311.2559945623342
 51
238.2460640000005
  0
ARC
  5
F1
330
19
100
AcDbEntity
  8
4
100
AcDbCircle
 10
1631.902294743998
 20
508.5907766383073
 30
0.0
 40
1.399915
100
AcDbArc
 50
0.0
 51
58.23080399999532
  0
LINE
  5
F2
330
19
100
AcDbEntity
  8
4
100
AcDbLine
 10
1633.302194743997
 20
505.0351116383074
 30
0.0
 11
1640.348509518738
 21
505.0351116383074
 31
0.0
  0
LINE
  5
F3
330
19
100
AcDbEntity
  8
4
100
AcDbLine
 10
1633.302194743997
 20
505.0351116383074
 30
0.0
 11
1633.302194743997
 21
514.0351116383074
 31
0.0
  0
LINE
  5
F4
330
19
100
AcDbEntity
  8
4
100
AcDbLine
 10
1640.348509518738
 20
514.0351116383074
 30
0.0
 11
1633.302194743997
 21
514.0351116383074
 31
0.0
  0
CIRCLE
  5
F5
330
19
100
AcDbEntity
  8
4
100
AcDbCircle
 10
1645.802194743997
 20
531.0351116383074
 30
0.0
 40
15.0
  0
LINE
  5
F6
330
19
100
AcDbEntity
  8
4
100
AcDbLine
 10
1249.802194743997
 20
516.0351116383074
 30
0.0
 11
1262.302194743997
 21
514.0351116383074
 31
0.0
  0
LINE
  5
F7
330
19
100
AcDbEntity
  8
4
100
AcDbLine
 10
1244.620319743998
 20
515.2060116383075
 30
0.0
 11
1249.802194743997
 21
516.0351116383074
 31
0.0
  0
ARC
  5
F8
330
19
100
AcDbEntity
  8
4
100
AcDbCircle
 10
1249.802194743997
 20
531.0351116383074
 30
0.0
 40
25.00002
100
AcDbArc
 50
301.7714660000003
 51
228.7440054376658
  0
ARC
  5
F9
330
19
100
AcDbEntity
  8
4
100
AcDbCircle
 10
1263.702339743998
 20
508.5907766383073
 30
0.0
 40
1.399915
100
AcDbArc
 50
121.7691960000047
 51
180.0
  0
LINE
  5
FA
330
19
100
AcDbEntity
  8
4
100
AcDbLine
 10
1255.255879969257
 20
505.0351116383074
 30
0.0
 11
1262.302194743997
 21
505.0351116383074
 31
0.0
  0
LINE
  5
FB
330
19
100
AcDbEntity
  8
4
100
AcDbLine
 10
1262.302194743997
 20
505.0351116383074
 30
0.0
 11
1262.302194743997
 21
514.0351116383074
 31
0.0
  0
LINE
  5
FC
330
19
100
AcDbEntity
  8
4
100
AcDbLine
 10
1262.302194743997
 20
514.0351116383074
 30
0.0
 11
1255.255879969257
 21
514.0351116383074
 31
0.0
  0
CIRCLE
  5
FD
330
19
100
AcDbEntity
  8
4
100
AcDbCircle
 10
1249.802194743997
 20
531.0351116383074
 30
0.0
 40
15.0
  0
LINE
  5
FE
330
19
100
AcDbEntity
  8
4
100
AcDbLine
 10
1267.302194743997
 20
505.0351116383074
 30
0.0
 11
1255.255879969257
 21
505.0351116383074
 31
0.0
  0
LINE
  5
FF
330
19
100
AcDbEntity
  8
4
100
AcDbLine
 10
1267.302194743997
 20
505.0351116383074
 30
0.0
 11
1267.302194743997
 21
504.2060116383075
 31
0.0
  0
LINE
  5
100
330
19
100
AcDbEntity
  8
4
100
AcDbLine
 10
1232.302194743997
 20
504.2060116383075
 30
0.0
 11
1232.302194743997
 21
505.0351116383074
 31
0.0
  0
LINE
  5
101
330
19
100
AcDbEntity
  8
4
100
AcDbLine
 10
1663.302194743997
 20
505.0351116383074
 30
0.0
 11
1662.287819747943
 21
505.0351116383074
 31
0.0
  0
LINE
  5
102
330
19
100
AcDbEntity
  8
4
100
AcDbLine
 10
1663.302194743997
 20
504.2060116383075
 30
0.0
 11
1663.302194743997
 21
505.0351116383074
 31
0.0
  0
LINE
  5
103
330
19
100
AcDbEntity
  8
4
100
AcDbLine
 10
1628.302194743997
 20
504.2060116383075
 30
0.0
 11
1628.302194743997
 21
505.0351116383074
 31
0.0
  0
LINE
  5
104
330
19
100
AcDbEntity
  8
4
100
AcDbLine
 10
1612.802194743997
 20
504.2060116383075
 30
0.0
 11
1612.802194743997
 21
506.0351116383074
 31
0.0
  0
LINE
  5
105
330
19
100
AcDbEntity
  8
4
100
AcDbLine
 10
1572.802194743997
 20
504.2060116383075
 30
0.0
 11
1572.802194743997
 21
506.0351116383074
 31
0.0
  0
LINE
  5
106
330
19
100
AcDbEntity
  8
4
100
AcDbLine
 10
1572.802194743997
 20
506.0351116383074
 30
0.0
 11
1612.802194743997
 21
506.0351116383074
 31
0.0
  0
LINE
  5
107
330
19
100
AcDbEntity
  8
4
100
AcDbLine
 10
1197.802194743997
 20
484.2060116383072
 30
0.0
 11
1197.802194743997
 21
502.2060116383075
 31
0.0
  0
LINE
  5
108
330
19
100
AcDbEntity
  8
4
100
AcDbLine
 10
1695.802194743997
 20
504.2060116383075
 30
0.0
 11
1199.802194743997
 21
504.2060116383075
 31
0.0
  0
LINE
  5
109
330
19
100
AcDbEntity
  8
4
100
AcDbLine
 10
1697.802194743997
 20
484.2060116383072
 30
0.0
 11
1197.802194743997
 21
484.2060116383072
 31
0.0
  0
LINE
  5
10A
330
19
100
AcDbEntity
  8
4
100
AcDbLine
 10
1697.802194743997
 20
484.2060116383072
 30
0.0
 11
1697.802194743997
 21
502.2060116383075
 31
0.0
  0
LINE
  5
10B
330
19
100
AcDbEntity
  8
4
100
AcDbLine
 10
1552.802194743997
 20
293.8060116383068
 30
0.0
 11
1382.802194743997
 21
293.8060116383068
 31
0.0
  0
ARC
  5
10C
330
19
100
AcDbEntity
  8
4
100
AcDbCircle
 10
1602.802194743997
 20
125.2057666383081
 30
0.0
 40
299.99997
100
AcDbArc
 50
81.47332399999996
 51
98.52691300000001
  0
ARC
  5
10D
330
19
100
AcDbEntity
  8
4
100
AcDbCircle
 10
1850.802194743997
 20
373.2060116383074
 30
0.0
 40
299.99995
100
AcDbArc
 50
171.474267
 51
188.5268669999998
  0
ARC
  5
10E
330
19
100
AcDbEntity
  8
4
100
AcDbCircle
 10
1559.062694743997
 20
416.9450266383075
 30
0.0
 40
5.000084999999999
100
AcDbArc
 50
98.52495700000094
 51
171.4722800000001
  0
ARC
  5
10F
330
19
100
AcDbEntity
  8
4
100
AcDbCircle
 10
1848.802194743997
 20
373.2060116383074
 30
0.0
 40
300.00001
100
AcDbArc
 50
171.133374
 51
188.867622
  0
ARC
  5
110
330
19
100
AcDbEntity
  8
4
100
AcDbCircle
 10
1602.802194743997
 20
127.2057666383072
 30
0.0
 40
300.000005
100
AcDbArc
 50
81.13252299999999
 51
98.86766800000004
  0
ARC
  5
111
330
19
100
AcDbEntity
  8
4
100
AcDbCircle
 10
1557.328074743998
 20
418.6798866383075
 30
0.0
 40
4.99995
100
AcDbArc
 50
98.86761599999633
 51
171.1323830000003
  0
ARC
  5
112
330
19
100
AcDbEntity
  8
4
100
AcDbCircle
 10
1356.802194743997
 20
373.2060116383074
 30
0.0
 40
299.999955
100
AcDbArc
 50
351.134126
 51
8.867337999999943
  0
ARC
  5
113
330
19
100
AcDbEntity
  8
4
100
AcDbCircle
 10
1648.276314743997
 20
418.6798866383075
 30
0.0
 40
4.99995
100
AcDbArc
 50
8.86761699999971
 51
81.13238400000368
  0
ARC
  5
114
330
19
100
AcDbEntity
  8
4
100
AcDbCircle
 10
1354.802194743997
 20
373.2060116383074
 30
0.0
 40
299.99995
100
AcDbArc
 50
351.474927
 51
8.526583000000004
  0
ARC
  5
115
330
19
100
AcDbEntity
  8
4
100
AcDbCircle
 10
1646.541694743997
 20
416.9450266383075
 30
0.0
 40
5.000084999999999
100
AcDbArc
 50
8.527719999999922
 51
81.47504299999909
  0
ARC
  5
116
330
19
100
AcDbEntity
  8
4
100
AcDbCircle
 10
1602.802194743997
 20
619.2062566383077
 30
0.0
 40
299.99992
100
AcDbArc
 50
261.133275
 51
278.8685189999999
  0
ARC
  5
117
330
19
100
AcDbEntity
  8
4
100
AcDbCircle
 10
1648.276314743997
 20
327.7321366383072
 30
0.0
 40
4.99993
100
AcDbArc
 50
278.8676169999979
 51
351.1351570000003
  0
ARC
  5
118
330
19
100
AcDbEntity
  8
4
100
AcDbCircle
 10
1602.802194743997
 20
621.2062566383067
 30
0.0
 40
300.000005
100
AcDbArc
 50
261.474221
 51
278.527902
  0
ARC
  5
119
330
19
100
AcDbEntity
  8
4
100
AcDbCircle
 10
1646.541694743997
 20
329.4669966383073
 30
0.0
 40
5.000084999999999
100
AcDbArc
 50
278.5249550000004
 51
351.4722800000001
  0
ARC
  5
11A
330
19
100
AcDbEntity
  8
4
100
AcDbCircle
 10
1557.328074743998
 20
327.7321366383072
 30
0.0
 40
4.99995
100
AcDbArc
 50
188.8676169999997
 51
261.1323830000001
  0
ARC
  5
11B
330
19
100
AcDbEntity
  8
4
100
AcDbCircle
 10
1559.062694743997
 20
329.4669966383073
 30
0.0
 40
5.000084999999999
100
AcDbArc
 50
188.5277199999999
 51
261.4750449999996
  0
LINE
  5
11C
330
19
100
AcDbEntity
  8
4
100
AcDbLine
 10
1447.802194743997
 20
326.9613816383072
 30
0.0
 11
1552.387889743998
 21
326.9613816383072
 31
0.0
  0
LINE
  5
11D
330
19
100
AcDbEntity
  8
4
100
AcDbLine
 10
1447.802194743997
 20
419.4506416383075
 30
0.0
 11
1552.387889743998
 21
419.4506416383075
 31
0.0
  0
LINE
  5
134
330
19
100
AcDbEntity
  8
4
100
AcDbLine
 10
864.367379743996
 20
353.2060116383074
 30
0.0
 11
864.367379743996
 21
393.2060116383074
 31
0.0
  0
LINE
  5
135
330
19
100
AcDbEntity
  8
4
100
AcDbLine
 10
943.367379743996
 20
389.2060116383074
 30
0.0
 11
944.367379743996
 21
388.2060116383074
 31
0.0
  0
LINE
  5
136
330
19
100
AcDbEntity
  8
4
100
AcDbLine
 10
943.367379743996
 20
389.2060116383074
 30
0.0
 11
864.367379743996
 21
389.2060116383074
 31
0.0
  0
LINE
  5
137
330
19
100
AcDbEntity
  8
4
100
AcDbLine
 10
944.367379743996
 20
358.2060116383074
 30
0.0
 11
943.367379743996
 21
357.2060116383074
 31
0.0
  0
LINE
  5
138
330
19
100
AcDbEntity
  8
4
100
AcDbLine
 10
944.367379743996
 20
358.2060116383074
 30
0.0
 11
944.367379743996
 21
392.7060116383078
 31
0.0
  0
LINE
  5
139
330
19
100
AcDbEntity
  8
4
100
AcDbLine
 10
943.367379743996
 20
357.2060116383074
 30
0.0
 11
864.367379743996
 21
357.2060116383074
 31
0.0
  0
LINE
  5
13A
330
19
100
AcDbEntity
  8
4
100
AcDbLine
 10
943.367379743996
 20
357.2060116383074
 30
0.0
 11
943.367379743996
 21
389.2060116383074
 31
0.0
  0
LINE
  5
13B
330
19
100
AcDbEntity
  8
4
100
AcDbLine
 10
1597.802194743997
 20
392.7060116383078
 30
0.0
 11
1607.802194743997
 21
392.7060116383078
 31
0.0
  0
LINE
  5
13C
330
19
100
AcDbEntity
  8
4
100
AcDbLine
 10
1597.802194743997
 20
384.7060116383074
 30
0.0
 11
1607.802194743997
 21
384.7060116383074
 31
0.0
  0
LINE
  5
13D
330
19
100
AcDbEntity
  8
4
100
AcDbLine
 10
1597.802194743997
 20
392.7060116383078
 30
0.0
 11
1597.802194743997
 21
384.7060116383074
 31
0.0
  0
LINE
  5
13E
330
19
100
AcDbEntity
  8
4
100
AcDbLine
 10
1607.802194743997
 20
392.7060116383078
 30
0.0
 11
1607.802194743997
 21
384.7060116383074
 31
0.0
  0
ARC
  5
13F
330
19
100
AcDbEntity
  8
4
100
AcDbCircle
 10
1602.802194743997
 20
373.2060116383074
 30
0.0
 40
16.000005
100
AcDbArc
 50
108.209906000001
 51
71.79092399999939
  0
LINE
  5
143
330
19
100
AcDbEntity
  8
L-CENTER
 48
3.0
100
AcDbLine
 10
673.367379743996
 20
292.2060116383074
 30
0.0
 11
673.367379743996
 21
522.2060116383075
 31
0.0
  0
LINE
  5
148
330
19
100
AcDbEntity
  8
L-CENTER
 48
3.0
100
AcDbLine
 10
576.367379743996
 20
283.8060116383068
 30
0.0
 11
576.367379743996
 21
561.9193585769046
 31
0.0
  0
LINE
  5
149
330
19
100
AcDbEntity
  8
L-CENTER
 48
3.0
100
AcDbLine
 10
586.9142683497214
 20
531.0351116383074
 30
0.0
 11
565.8204911382707
 21
531.0351116383074
 31
0.0
  0
LINE
  5
14A
330
19
100
AcDbEntity
  8
L-CENTER
 48
3.0
100
AcDbLine
 10
766.367379743996
 20
303.2060116383074
 30
0.0
 11
766.367379743996
 21
253.2060116383074
 31
0.0
  0
LINE
  5
14B
330
19
100
AcDbEntity
  8
L-CENTER
 48
3.0
100
AcDbLine
 10
386.367379743996
 20
253.2060116383074
 30
0.0
 11
386.367379743996
 21
303.2060116383074
 31
0.0
  0
LINE
  5
14C
330
19
100
AcDbEntity
  8
L-CENTER
 48
3.0
100
AcDbLine
 10
1682.802194743997
 20
303.2060116383074
 30
0.0
 11
1682.802194743997
 21
253.2060116383074
 31
0.0
  0
LINE
  5
14D
330
19
100
AcDbEntity
  8
L-CENTER
 48
3.0
100
AcDbLine
 10
1227.802194743997
 20
303.2060116383074
 30
0.0
 11
1227.802194743997
 21
253.2060116383074
 31
0.0
  0
LINE
  5
14E
330
19
100
AcDbEntity
  8
L-CENTER
 48
3.0
100
AcDbLine
 10
1538.489526831434
 20
373.2060116383074
 30
0.0
 11
1667.11486265656
 21
373.2060116383074
 31
0.0
  0
LINE
  5
14F
330
19
100
AcDbEntity
  8
L-CENTER
 48
3.0
100
AcDbLine
 10
1716.577064743997
 20
444.2060116383074
 30
0.0
 11
1694.019479743998
 21
444.2060116383074
 31
0.0
  0
LINE
  5
150
330
19
100
AcDbEntity
  8
L-CENTER
 48
3.0
100
AcDbLine
 10
1710.953904743997
 20
329.2060116383074
 30
0.0
 11
1693.079049743998
 21
329.2060116383074
 31
0.0
  0
LINE
  5
151
330
19
100
AcDbEntity
  8
L-CENTER
 48
3.0
100
AcDbLine
 10
1678.828319743998
 20
531.0351116383074
 30
0.0
 11
1612.776069743997
 21
531.0351116383074
 31
0.0
  0
LINE
  5
152
330
19
100
AcDbEntity
  8
L-CENTER
 48
3.0
100
AcDbLine
 10
1282.828319743997
 20
531.0351116383074
 30
0.0
 11
1216.776069743997
 21
531.0351116383074
 31
0.0
  0
LINE
  5
153
330
19
100
AcDbEntity
  8
L-CENTER
 48
3.0
100
AcDbLine
 10
1249.802194743997
 20
564.0612366383077
 30
0.0
 11
1249.802194743997
 21
498.0089866383069
 31
0.0
  0
LINE
  5
154
330
19
100
AcDbEntity
  8
L-CENTER
 48
3.0
100
AcDbLine
 10
1645.802194743997
 20
564.0612366383077
 30
0.0
 11
1645.802194743997
 21
498.0089866383069
 31
0.0
  0
LINE
  5
155
330
19
100
AcDbEntity
  8
L-CENTER
 48
3.0
100
AcDbLine
 10
1602.802194743997
 20
437.5186795508705
 30
0.0
 11
1602.802194743997
 21
308.8933437257442
 31
0.0
  0
LINE
  5
156
330
19
100
AcDbEntity
  8
L-CENTER
 48
3.0
100
AcDbLine
 10
502.8624997439961
 20
527.3746397089703
 30
0.0
 11
502.8624997439961
 21
151.2060116383075
 31
0.0
  0
LINE
  5
157
330
19
100
AcDbEntity
  8
L-CENTER
 48
3.0
100
AcDbLine
 10
1467.802194743997
 20
527.3746397089703
 30
0.0
 11
1467.802194743997
 21
151.2060116383075
 31
0.0
  0
LINE
  5
158
330
19
100
AcDbEntity
  8
4
100
AcDbLine
 10
869.367379743996
 20
389.2060116383074
 30
0.0
 11
869.367379743996
 21
392.7060116383078
 31
0.0
  0
LINE
  5
159
330
19
100
AcDbEntity
  8
4
100
AcDbLine
 10
944.367379743996
 20
392.7060116383078
 30
0.0
 11
869.367379743996
 21
392.7060116383078
 31
0.0
  0
LINE
  5
15A
330
19
100
AcDbEntity
  8
L-CENTER
 48
3.0
100
AcDbLine
 10
302.1764969137571
 20
373.2060116383074
 30
0.0
 11
948.8082776402837
 21
373.2060116383074
 31
0.0
  0
LINE
  5
15B
330
19
100
AcDbEntity
  8
4
100
AcDbLine
 10
864.367379743996
 20
393.2060116383074
 30
0.0
 11
844.367379743996
 21
393.2060116383074
 31
0.0
  0
LINE
  5
15C
330
19
100
AcDbEntity
  8
4
100
AcDbLine
 10
864.367379743996
 20
353.2060116383074
 30
0.0
 11
844.367379743996
 21
353.2060116383074
 31
0.0
  0
LINE
  5
15D
330
19
100
AcDbEntity
  8
4
100
AcDbLine
 10
843.367379743996
 20
333.2060116383074
 30
0.0
 11
844.367379743996
 21
333.2060116383074
 31
0.0
  0
LINE
  5
15E
330
19
100
AcDbEntity
  8
4
100
AcDbLine
 10
843.367379743996
 20
413.2060116383074
 30
0.0
 11
844.367379743996
 21
413.2060116383074
 31
0.0
  0
LINE
  5
15F
330
19
100
AcDbEntity
  8
4
100
AcDbLine
 10
844.367379743996
 20
413.2060116383074
 30
0.0
 11
844.367379743996
 21
333.2060116383074
 31
0.0
  0
LINE
  5
160
330
19
100
AcDbEntity
  8
4
100
AcDbLine
 10
309.367379743996
 20
333.2060116383074
 30
0.0
 11
308.3673797439965
 21
333.2060116383074
 31
0.0
  0
LINE
  5
161
330
19
100
AcDbEntity
  8
4
100
AcDbLine
 10
309.367379743996
 20
413.2060116383074
 30
0.0
 11
308.3673797439965
 21
413.2060116383074
 31
0.0
  0
LINE
  5
162
330
19
100
AcDbEntity
  8
4
100
AcDbLine
 10
308.3673797439965
 20
413.2060116383074
 30
0.0
 11
308.3673797439965
 21
333.2060116383074
 31
0.0
  0
CIRCLE
  5
163
330
19
100
AcDbEntity
  8
4
100
AcDbCircle
 10
1602.802194743997
 20
373.2060116383074
 30
0.0
 40
40.0
  0
ARC
  5
164
330
19
100
AcDbEntity
  8
4
100
AcDbCircle
 10
1602.802194743997
 20
373.2060116383074
 30
0.0
 40
20.0
100
AcDbArc
 50
77.16143199999975
 51
102.8385680000003
  0
ARC
  5
165
330
19
100
AcDbEntity
  8
4
100
AcDbCircle
 10
1602.802194743997
 20
373.2060116383074
 30
0.0
 40
20.0
100
AcDbArc
 50
104.4775120000008
 51
75.52248799999923
  0
LINE
  5
166
330
19
100
AcDbEntity
  8
4
100
AcDbLine
 10
633.3673797439965
 20
512.2060116383075
 30
0.0
 11
682.897724629393
 21
512.2060116383075
 31
0.0
  0
LINE
  5
167
330
19
100
AcDbEntity
  8
4
100
AcDbLine
 10
713.367379743996
 20
511.206011638307
 30
0.0
 11
713.367379743996
 21
512.2060116383075
 31
0.0
  0
LINE
  5
168
330
19
100
AcDbEntity
  8
4
100
AcDbLine
 10
633.3673797439965
 20
511.206011638307
 30
0.0
 11
633.3673797439965
 21
512.2060116383075
 31
0.0
  0
ARC
  5
169
330
19
100
AcDbEntity
  8
4
100
AcDbCircle
 10
336.367379743996
 20
303.2060116383074
 30
0.0
 40
5.0
100
AcDbArc
 50
0.0
 51
90.0
  0
ARC
  5
16A
330
19
100
AcDbEntity
  8
4
100
AcDbCircle
 10
336.367379743996
 20
298.2060116383074
 30
0.0
 40
5.0
100
AcDbArc
 50
270.0
 51
0.0
  0
ARC
  5
16B
330
19
100
AcDbEntity
  8
4
100
AcDbCircle
 10
816.367379743996
 20
298.2060116383074
 30
0.0
 40
5.0
100
AcDbArc
 50
180.0
 51
270.0
  0
ARC
  5
16C
330
19
100
AcDbEntity
  8
4
100
AcDbCircle
 10
822.3673797439965
 20
318.2060116383074
 30
0.0
 40
10.0
100
AcDbArc
 50
270.0
 51
0.0
  0
ARC
  5
16D
330
19
100
AcDbEntity
  8
4
100
AcDbCircle
 10
330.367379743996
 20
318.2060116383074
 30
0.0
 40
10.0
100
AcDbArc
 50
180.0
 51
270.0
  0
ARC
  5
16E
330
19
100
AcDbEntity
  8
4
100
AcDbCircle
 10
318.3673797439965
 20
429.2060116383074
 30
0.0
 40
2.0
100
AcDbArc
 50
270.0
 51
0.0
  0
ARC
  5
16F
330
19
100
AcDbEntity
  8
4
100
AcDbCircle
 10
318.4091197439961
 20
317.2060116383074
 30
0.0
 40
2.0
100
AcDbArc
 50
4.780191999998789
 51
90.0
  0
ARC
  5
170
330
19
100
AcDbEntity
  8
4
100
AcDbCircle
 10
834.3256397439959
 20
317.2060116383074
 30
0.0
 40
2.0
100
AcDbArc
 50
90.0
 51
175.2198080000012
  0
ARC
  5
171
330
19
100
AcDbEntity
  8
4
100
AcDbCircle
 10
834.367379743996
 20
429.2060116383074
 30
0.0
 40
2.0
100
AcDbArc
 50
180.0
 51
270.0
  0
ARC
  5
172
330
19
100
AcDbEntity
  8
4
100
AcDbCircle
 10
839.367379743996
 20
426.2060116383069
 30
0.0
 40
1.0
100
AcDbArc
 50
180.0
 51
270.0
  0
ARC
  5
173
330
19
100
AcDbEntity
  8
4
100
AcDbCircle
 10
839.367379743996
 20
320.2060116383078
 30
0.0
 40
1.0
100
AcDbArc
 50
90.0
 51
180.0
  0
ARC
  5
174
330
19
100
AcDbEntity
  8
4
100
AcDbCircle
 10
313.3673797439965
 20
426.2060116383069
 30
0.0
 40
1.0
100
AcDbArc
 50
270.0
 51
0.0
  0
ARC
  5
175
330
19
100
AcDbEntity
  8
4
100
AcDbCircle
 10
313.3673797439965
 20
320.2060116383078
 30
0.0
 40
1.0
100
AcDbArc
 50
0.0
 51
90.0
  0
ARC
  5
176
330
19
100
AcDbEntity
  8
4
100
AcDbCircle
 10
474.367379743996
 20
300.2060116383078
 30
0.0
 40
8.0
100
AcDbArc
 50
90.0
 51
180.0
  0
ARC
  5
177
330
19
100
AcDbEntity
  8
4
100
AcDbCircle
 10
678.367379743996
 20
300.2060116383078
 30
0.0
 40
8.0
100
AcDbArc
 50
0.0
 51
90.0
  0
LINE
  5
178
330
19
100
AcDbEntity
  8
4
100
AcDbLine
 10
685.7835797439961
 20
302.2060116383074
 30
0.0
 11
633.3673797439965
 21
302.2060116383074
 31
0.0
  0
LINE
  5
179
330
19
100
AcDbEntity
  8
4
100
AcDbLine
 10
633.3673797439965
 20
302.2060116383074
 30
0.0
 11
633.3673797439965
 21
303.2060116383074
 31
0.0
  0
ARC
  5
17A
330
19
100
AcDbEntity
  8
4
100
AcDbCircle
 10
586.8624997439961
 20
294.8060116383068
 30
0.0
 40
1.0
100
AcDbArc
 50
270.0
 51
0.0
  0
ARC
  5
17B
330
19
100
AcDbEntity
  8
4
100
AcDbCircle
 10
1212.802194743997
 20
303.2060116383074
 30
0.0
 40
5.0
100
AcDbArc
 50
0.0
 51
90.0
  0
ARC
  5
17C
330
19
100
AcDbEntity
  8
4
100
AcDbCircle
 10
1212.802194743997
 20
298.2060116383074
 30
0.0
 40
5.0
100
AcDbArc
 50
270.0
 51
0.0
  0
ARC
  5
17D
330
19
100
AcDbEntity
  8
4
100
AcDbCircle
 10
1682.802194743997
 20
298.2060116383074
 30
0.0
 40
5.0
100
AcDbArc
 50
180.0
 51
270.0
  0
ARC
  5
17E
330
19
100
AcDbEntity
  8
4
100
AcDbCircle
 10
1682.802194743997
 20
303.2060116383074
 30
0.0
 40
5.0
100
AcDbArc
 50
90.0
 51
180.0
  0
LINE
  5
17F
330
19
100
AcDbEntity
  8
4
100
AcDbLine
 10
1514.802194743997
 20
308.2060116383074
 30
0.0
 11
1514.802194743997
 21
303.2060116383074
 31
0.0
  0
LINE
  5
180
330
19
100
AcDbEntity
  8
4
100
AcDbLine
 10
1394.802194743997
 20
308.2060116383074
 30
0.0
 11
1394.802194743997
 21
303.2060116383074
 31
0.0
  0
LINE
  5
181
330
19
100
AcDbEntity
  8
4
100
AcDbLine
 10
1494.802194743997
 20
303.2060116383074
 30
0.0
 11
1494.802194743997
 21
302.2060116383074
 31
0.0
  0
LINE
  5
182
330
19
100
AcDbEntity
  8
4
100
AcDbLine
 10
1414.802194743997
 20
303.2060116383074
 30
0.0
 11
1414.802194743997
 21
302.2060116383074
 31
0.0
  0
LINE
  5
183
330
19
100
AcDbEntity
  8
4
100
AcDbLine
 10
1494.802194743997
 20
302.2060116383074
 30
0.0
 11
1414.802194743997
 21
302.2060116383074
 31
0.0
  0
LINE
  5
184
330
19
100
AcDbEntity
  8
4
100
AcDbLine
 10
1382.802194743997
 20
305.2060116383078
 30
0.0
 11
1394.802194743997
 21
305.2060116383078
 31
0.0
  0
LINE
  5
185
330
19
100
AcDbEntity
  8
4
100
AcDbLine
 10
1514.802194743997
 20
305.2060116383078
 30
0.0
 11
1552.802194743997
 21
305.2060116383078
 31
0.0
  0
LINE
  5
186
330
19
100
AcDbEntity
  8
L-CENTER
 48
3.0
100
AcDbLine
 10
451.597254743996
 20
533.518381638308
 30
0.0
 11
451.597254743996
 21
492.7329442216596
 31
0.0
  0
LINE
  5
187
330
19
100
AcDbEntity
  8
4
100
AcDbLine
 10
1514.802194743997
 20
511.206011638307
 30
0.0
 11
1458.7718498586
 21
511.206011638307
 31
0.0
  0
LINE
  5
188
330
19
100
AcDbEntity
  8
4
100
AcDbLine
 10
1382.802194743997
 20
504.2060116383075
 30
0.0
 11
1382.802194743997
 21
520.2060116383079
 31
0.0
  0
LINE
  5
189
330
19
100
AcDbEntity
  8
4
100
AcDbLine
 10
1552.802194743997
 20
504.2060116383075
 30
0.0
 11
1552.802194743997
 21
520.2060116383079
 31
0.0
  0
LINE
  5
18A
330
19
100
AcDbEntity
  8
4
100
AcDbLine
 10
1552.802194743997
 20
520.2060116383079
 30
0.0
 11
1382.802194743997
 21
520.2060116383079
 31
0.0
  0
LINE
  5
18B
330
19
100
AcDbEntity
  8
L-CENTER
 48
3.0
100
AcDbLine
 10
1454.802194743997
 20
292.2060116383074
 30
0.0
 11
1454.802194743997
 21
522.2060116383075
 31
0.0
  0
LINE
  5
18C
330
19
100
AcDbEntity
  8
4
100
AcDbLine
 10
1514.802194743997
 20
504.2060116383075
 30
0.0
 11
1514.802194743997
 21
511.206011638307
 31
0.0
  0
LINE
  5
18D
330
19
100
AcDbEntity
  8
4
100
AcDbLine
 10
1394.802194743997
 20
504.2060116383075
 30
0.0
 11
1394.802194743997
 21
511.206011638307
 31
0.0
  0
LINE
  5
18E
330
19
100
AcDbEntity
  8
4
100
AcDbLine
 10
1494.802194743997
 20
511.206011638307
 30
0.0
 11
1494.802194743997
 21
512.2060116383075
 31
0.0
  0
LINE
  5
18F
330
19
100
AcDbEntity
  8
4
100
AcDbLine
 10
1414.802194743997
 20
511.206011638307
 30
0.0
 11
1414.802194743997
 21
512.2060116383075
 31
0.0
  0
LINE
  5
190
330
19
100
AcDbEntity
  8
4
100
AcDbLine
 10
1494.802194743997
 20
512.2060116383075
 30
0.0
 11
1458.7718498586
 21
512.2060116383075
 31
0.0
  0
LINE
  5
191
330
19
100
AcDbEntity
  8
4
100
AcDbLine
 10
1382.802194743997
 20
509.2060116383075
 30
0.0
 11
1394.802194743997
 21
509.2060116383075
 31
0.0
  0
LINE
  5
192
330
19
100
AcDbEntity
  8
4
100
AcDbLine
 10
1514.802194743997
 20
509.2060116383075
 30
0.0
 11
1552.802194743997
 21
509.2060116383075
 31
0.0
  0
ARC
  5
193
330
19
100
AcDbEntity
  8
4
100
AcDbCircle
 10
1554.802194743997
 20
300.2060116383078
 30
0.0
 40
8.0
100
AcDbArc
 50
0.0
 51
90.0
  0
ARC
  5
194
330
19
100
AcDbEntity
  8
4
100
AcDbCircle
 10
1355.802194743997
 20
300.2060116383078
 30
0.0
 40
8.0
100
AcDbArc
 50
90.0
 51
180.0
  0
ARC
  5
195
330
19
100
AcDbEntity
  8
4
100
AcDbCircle
 10
1704.802194743997
 20
309.2060116383074
 30
0.0
 40
1.0
100
AcDbArc
 50
270.0
 51
0.0
  0
ARC
  5
196
330
19
100
AcDbEntity
  8
4
100
AcDbCircle
 10
328.3673797439965
 20
502.2060116383075
 30
0.0
 40
2.0
100
AcDbArc
 50
90.0
 51
180.0
  0
ARC
  5
197
330
19
100
AcDbEntity
  8
4
100
AcDbCircle
 10
824.367379743996
 20
502.2060116383075
 30
0.0
 40
2.0
100
AcDbArc
 50
0.0
 51
90.0
  0
ARC
  5
198
330
19
100
AcDbEntity
  8
4
100
AcDbCircle
 10
1199.802194743997
 20
502.2060116383075
 30
0.0
 40
2.0
100
AcDbArc
 50
90.0
 51
180.0
  0
ARC
  5
199
330
19
100
AcDbEntity
  8
4
100
AcDbCircle
 10
1695.802194743997
 20
502.2060116383075
 30
0.0
 40
2.0
100
AcDbArc
 50
0.0
 51
90.0
  0
LINE
  5
227
330
19
100
AcDbEntity
  8
4
 48
3.0
100
AcDbLine
 10
314.3673797439956
 20
1255.00220174683
 30
0.0
 11
396.3673797439956
 21
1255.00220174683
 31
0.0
  0
LINE
  5
228
330
19
100
AcDbEntity
  8
4
 48
3.0
100
AcDbLine
 10
314.3673797439956
 20
1147.00220174683
 30
0.0
 11
336.6237666903839
 21
1147.00220174683
 31
0.0
  0
LINE
  5
229
330
19
100
AcDbEntity
  8
L-CENTER
 48
3.0
100
AcDbLine
 10
302.1764969137571
 20
1201.00220174683
 30
0.0
 11
948.8082776402834
 21
1201.00220174683
 31
0.0
  0
LINE
  5
22A
330
19
100
AcDbEntity
  8
L-CENTER
 48
3.0
100
AcDbLine
 10
309.2418863922686
 20
1046.00220174683
 30
0.0
 11
843.4928730957234
 21
1046.00220174683
 31
0.0
  0
CIRCLE
  5
22B
330
19
100
AcDbEntity
  8
4
100
AcDbCircle
 10
576.367379743996
 20
1046.00220174683
 30
0.0
 40
256.0
  0
LINE
  5
22C
330
19
100
AcDbEntity
  8
4
 48
3.0
100
AcDbLine
 10
314.3673797439956
 20
1255.00220174683
 30
0.0
 11
314.3673797439956
 21
1147.00220174683
 31
0.0
  0
LINE
  5
22D
330
19
100
AcDbEntity
  8
4
 48
3.0
100
AcDbLine
 10
320.3673797439956
 20
1147.00220174683
 30
0.0
 11
320.3673797439956
 21
1046.00220174683
 31
0.0
  0
LINE
  5
22E
330
19
100
AcDbEntity
  8
4
 48
3.0
100
AcDbLine
 10
309.3673797439956
 20
1253.00220174683
 30
0.0
 11
309.3673797439956
 21
1149.00220174683
 31
0.0
  0
LINE
  5
22F
330
19
100
AcDbEntity
  8
4
 48
3.0
100
AcDbLine
 10
309.3673797439956
 20
1149.00220174683
 30
0.0
 11
314.3673797439956
 21
1149.00220174683
 31
0.0
  0
LINE
  5
230
330
19
100
AcDbEntity
  8
4
 48
3.0
100
AcDbLine
 10
309.3673797439956
 20
1253.00220174683
 30
0.0
 11
314.3673797439956
 21
1253.00220174683
 31
0.0
  0
LINE
  5
231
330
19
100
AcDbEntity
  8
L-CENTER
 48
3.0
100
AcDbLine
 10
576.3673797439956
 20
1325.281792136276
 30
0.0
 11
576.3673797439965
 21
778.8767083951029
 31
0.0
  0
CIRCLE
  5
232
330
19
100
AcDbEntity
  8
4
100
AcDbCircle
 10
386.3673797439965
 20
826.0022017468305
 30
0.0
 40
11.0
  0
LINE
  5
233
330
19
100
AcDbEntity
  8
L-CENTER
 48
3.0
100
AcDbLine
 10
386.3673797439965
 20
847.3202042352768
 30
0.0
 11
386.3673797439965
 21
804.6841992583841
 31
0.0
  0
LINE
  5
234
330
19
100
AcDbEntity
  8
4
 48
3.0
100
AcDbLine
 10
326.3673797439956
 20
941.0022017468305
 30
0.0
 11
326.3673797439969
 21
801.0022017468305
 31
0.0
  0
LINE
  5
235
330
19
100
AcDbEntity
  8
4
100
AcDbLine
 10
444.3834055942016
 20
796.0022017468305
 30
0.0
 11
331.3673797439969
 21
796.0022017468305
 31
0.0
  0
ARC
  5
236
330
19
100
AcDbEntity
  8
4
100
AcDbCircle
 10
331.3673797439969
 20
801.0022017468305
 30
0.0
 40
5.0
100
AcDbArc
 50
180.0
 51
270.0
  0
LINE
  5
237
330
19
100
AcDbEntity
  8
4
100
AcDbLine
 10
447.8115982093605
 20
797.362490852629
 30
0.0
 11
462.4295228599162
 21
811.1309089475449
 31
0.0
  0
ARC
  5
238
330
19
100
AcDbEntity
  8
4
100
AcDbCircle
 10
444.3834055942016
 20
801.0022017468305
 30
0.0
 40
5.0
100
AcDbArc
 50
270.0
 51
313.2858440773871
  0
ARC
  5
239
330
19
100
AcDbEntity
  8
4
100
AcDbCircle
 10
467.9146310441711
 20
805.3073715168221
 30
0.0
 40
8.0
100
AcDbArc
 50
65.7445318809049
 51
133.2858440773849
  0
LINE
  5
23A
330
19
100
AcDbEntity
  8
L-CENTER
 48
3.0
100
AcDbLine
 10
407.6853822324429
 20
826.0022017468305
 30
0.0
 11
365.0493772555501
 21
826.0022017468305
 31
0.0
  0
LINE
  5
23B
330
19
100
AcDbEntity
  8
4
100
AcDbLine
 10
331.3673797439956
 20
946.0022017468305
 30
0.0
 11
340.7066065975091
 21
946.0022017468305
 31
0.0
  0
ARC
  5
23C
330
19
100
AcDbEntity
  8
4
100
AcDbCircle
 10
331.3673797439956
 20
941.0022017468305
 30
0.0
 40
5.0
100
AcDbArc
 50
90.0
 51
180.0
  0
LINE
  5
23D
330
19
100
AcDbEntity
  8
4
100
AcDbLine
 10
493.531773649443
 20
1288.229909416593
 30
0.0
 11
396.3673797439956
 21
1255.00220174683
 31
0.0
  0
LINE
  5
23E
330
19
100
AcDbEntity
  8
L-CENTER
 48
3.0
100
AcDbLine
 10
386.367379743996
 20
1255.00220174683
 30
0.0
 11
386.367379743996
 21
1301.732961441441
 31
0.0
  0
LINE
  5
23F
330
19
100
AcDbEntity
  8
4
100
AcDbLine
 10
326.367379743996
 20
1255.00220174683
 30
0.0
 11
326.367379743996
 21
1306.00220174683
 31
0.0
  0
ARC
  5
240
330
19
100
AcDbEntity
  8
4
100
AcDbCircle
 10
336.6237666903839
 20
1144.00220174683
 30
0.0
 40
3.0
100
AcDbArc
 50
337.7667282017033
 51
90.0
  0
LINE
  5
241
330
19
100
AcDbEntity
  8
4
100
AcDbLine
 10
443.514590447413
 20
1311.00220174683
 30
0.0
 11
331.367379743996
 21
1311.00220174683
 31
0.0
  0
LINE
  5
242
330
19
100
AcDbEntity
  8
L-CENTER
 48
3.0
100
AcDbLine
 10
407.0981394386063
 20
1281.00220174683
 30
0.0
 11
365.6366200493858
 21
1281.00220174683
 31
0.0
  0
ARC
  5
243
330
19
100
AcDbEntity
  8
4
100
AcDbCircle
 10
331.367379743996
 20
1306.00220174683
 30
0.0
 40
5.0
100
AcDbArc
 50
90.0
 51
180.0
  0
CIRCLE
  5
244
330
19
100
AcDbEntity
  8
4
100
AcDbCircle
 10
386.367379743996
 20
1281.00220174683
 30
0.0
 40
11.0
  0
LINE
  5
245
330
19
100
AcDbEntity
  8
4
100
AcDbLine
 10
447.8189453856603
 20
1308.546318207527
 30
0.0
 11
462.6982511656838
 21
1283.372229559711
 31
0.0
  0
ARC
  5
246
330
19
100
AcDbEntity
  8
4
100
AcDbCircle
 10
443.514590447413
 20
1306.00220174683
 30
0.0
 40
5.0
100
AcDbArc
 50
30.58548156623509
 51
90.0
  0
ARC
  5
247
330
19
100
AcDbEntity
  8
4
100
AcDbCircle
 10
469.5852190668797
 20
1287.442815896825
 30
0.0
 40
8.0
100
AcDbArc
 50
210.5854815662336
 51
259.9805267995794
  0
LINE
  5
248
330
19
100
AcDbEntity
  8
4
100
AcDbLine
 10
561.3673797439956
 20
1309.502201746829
 30
0.0
 11
591.3673797439956
 21
1309.502201746829
 31
0.0
  0
LINE
  5
249
330
19
100
AcDbEntity
  8
4
100
AcDbLine
 10
561.3673797439956
 20
1311.002201746829
 30
0.0
 11
591.3673797439956
 21
1311.002201746829
 31
0.0
  0
ARC
  5
24A
330
19
100
AcDbEntity
  8
4
100
AcDbCircle
 10
558.3673797439956
 20
1304.375962024456
 30
0.0
 40
3.0
100
AcDbArc
 50
273.9851585080801
 51
0.0
  0
LINE
  5
24B
330
19
100
AcDbEntity
  8
4
 48
3.0
100
AcDbLine
 10
561.3673797439956
 20
1311.002201746829
 30
0.0
 11
561.3673797439956
 21
1304.375962024456
 31
0.0
  0
LINE
  5
24C
330
19
100
AcDbEntity
  8
4
 48
3.0
100
AcDbLine
 10
591.3673797439956
 20
1311.002201746829
 30
0.0
 11
591.3673797439956
 21
1304.375962024456
 31
0.0
  0
ARC
  5
24D
330
19
100
AcDbEntity
  8
4
100
AcDbCircle
 10
594.3673797439956
 20
1304.375962024456
 30
0.0
 40
3.0
100
AcDbArc
 50
180.0
 51
266.0148414919199
  0
LINE
  5
24E
330
19
100
AcDbEntity
  8
4
100
AcDbLine
 10
708.3513538937909
 20
796.0022017468305
 30
0.0
 11
821.3673797439965
 21
796.0022017468305
 31
0.0
  0
LINE
  5
24F
330
19
100
AcDbEntity
  8
L-CENTER
 48
3.0
100
AcDbLine
 10
745.0493772555501
 20
826.0022017468305
 30
0.0
 11
787.6853822324429
 21
826.0022017468305
 31
0.0
  0
CIRCLE
  5
250
330
19
100
AcDbEntity
  8
4
100
AcDbCircle
 10
766.3673797439965
 20
826.0022017468305
 30
0.0
 40
11.0
  0
LINE
  5
251
330
19
100
AcDbEntity
  8
L-CENTER
 48
3.0
100
AcDbLine
 10
766.3673797439965
 20
847.3202042352768
 30
0.0
 11
766.3673797439965
 21
804.6841992583841
 31
0.0
  0
ARC
  5
252
330
19
100
AcDbEntity
  8
4
100
AcDbCircle
 10
708.3513538937909
 20
801.0022017468305
 30
0.0
 40
5.0
100
AcDbArc
 50
226.7141559226161
 51
270.0
  0
ARC
  5
253
330
19
100
AcDbEntity
  8
4
100
AcDbCircle
 10
684.820128443821
 20
805.3073715168221
 30
0.0
 40
8.0
100
AcDbArc
 50
46.71415592261798
 51
114.2554681190951
  0
LINE
  5
254
330
19
100
AcDbEntity
  8
4
100
AcDbLine
 10
704.923161278632
 20
797.3624908526288
 30
0.0
 11
690.3052366280749
 21
811.1309089475444
 31
0.0
  0
LINE
  5
255
330
19
100
AcDbEntity
  8
4
 48
3.0
100
AcDbLine
 10
826.3673797439965
 20
941.0022017468305
 30
0.0
 11
826.3673797439965
 21
801.0022017468305
 31
0.0
  0
ARC
  5
256
330
19
100
AcDbEntity
  8
4
 48
3.0
100
AcDbCircle
 10
821.3673797439965
 20
801.0022017468305
 30
0.0
 40
5.0
100
AcDbArc
 50
270.0
 51
0.0
  0
ARC
  5
257
330
19
100
AcDbEntity
  8
4
 48
3.0
100
AcDbCircle
 10
821.3673797439965
 20
941.0022017468305
 30
0.0
 40
5.0
100
AcDbArc
 50
0.0
 51
90.0
  0
LINE
  5
258
330
19
100
AcDbEntity
  8
4
100
AcDbLine
 10
812.0281528904829
 20
946.0022017468305
 30
0.0
 11
821.3673797439965
 21
946.0022017468305
 31
0.0
  0
LINE
  5
259
330
19
100
AcDbEntity
  8
4
 48
3.0
100
AcDbLine
 10
761.3673797439951
 20
1255.00220174683
 30
0.0
 11
838.3673797439951
 21
1255.00220174683
 31
0.0
  0
LINE
  5
25A
330
19
100
AcDbEntity
  8
4
100
AcDbLine
 10
709.2201690405764
 20
1311.00220174683
 30
0.0
 11
821.3673797439965
 21
1311.00220174683
 31
0.0
  0
LINE
  5
25B
330
19
100
AcDbEntity
  8
L-CENTER
 48
3.0
100
AcDbLine
 10
745.6366200493858
 20
1281.00220174683
 30
0.0
 11
787.0981394386063
 21
1281.00220174683
 31
0.0
  0
LINE
  5
25C
330
19
100
AcDbEntity
  8
4
100
AcDbLine
 10
655.6092645366734
 20
1289.429241523647
 30
0.0
 11
761.3673797439951
 21
1255.00220174683
 31
0.0
  0
ARC
  5
25D
330
19
100
AcDbEntity
  8
4
100
AcDbCircle
 10
709.2201690405764
 20
1306.00220174683
 30
0.0
 40
5.0
100
AcDbArc
 50
90.0
 51
149.4145184337652
  0
ARC
  5
25E
330
19
100
AcDbEntity
  8
4
100
AcDbCircle
 10
683.14954042111
 20
1287.442815896826
 30
0.0
 40
8.0
100
AcDbArc
 50
285.9222816233575
 51
329.4145184337626
  0
LINE
  5
25F
330
19
100
AcDbEntity
  8
4
100
AcDbLine
 10
704.915814102329
 20
1308.546318207527
 30
0.0
 11
690.0365083223055
 21
1283.372229559712
 31
0.0
  0
CIRCLE
  5
260
330
19
100
AcDbEntity
  8
4
100
AcDbCircle
 10
766.367379743996
 20
1281.00220174683
 30
0.0
 40
11.0
  0
LINE
  5
261
330
19
100
AcDbEntity
  8
L-CENTER
 48
3.0
100
AcDbLine
 10
766.367379743996
 20
1260.27144205222
 30
0.0
 11
766.367379743996
 21
1301.732961441441
 31
0.0
  0
LINE
  5
262
330
19
100
AcDbEntity
  8
4
100
AcDbLine
 10
826.367379743996
 20
1255.00220174683
 30
0.0
 11
826.3673797439965
 21
1306.00220174683
 31
0.0
  0
LINE
  5
263
330
19
100
AcDbEntity
  8
4
 48
3.0
100
AcDbLine
 10
838.3673797439951
 20
1255.00220174683
 30
0.0
 11
838.367379743996
 21
1147.00220174683
 31
0.0
  0
LINE
  5
264
330
19
100
AcDbEntity
  8
4
 48
3.0
100
AcDbLine
 10
816.1109927976081
 20
1147.00220174683
 30
0.0
 11
838.367379743996
 21
1147.00220174683
 31
0.0
  0
ARC
  5
265
330
19
100
AcDbEntity
  8
4
100
AcDbCircle
 10
816.1109927976081
 20
1144.00220174683
 30
0.0
 40
3.0
100
AcDbArc
 50
90.0
 51
202.2332717983011
  0
LINE
  5
266
330
19
100
AcDbEntity
  8
4
 48
3.0
100
AcDbLine
 10
832.367379743996
 20
1147.00220174683
 30
0.0
 11
832.367379743996
 21
1046.00220174683
 31
0.0
  0
LINE
  5
267
330
19
100
AcDbEntity
  8
4
 48
3.0
100
AcDbLine
 10
843.3673797439956
 20
1253.00220174683
 30
0.0
 11
843.3673797439956
 21
1149.00220174683
 31
0.0
  0
LINE
  5
268
330
19
100
AcDbEntity
  8
4
 48
3.0
100
AcDbLine
 10
838.3673797439965
 20
1149.00220174683
 30
0.0
 11
843.3673797439956
 21
1149.00220174683
 31
0.0
  0
LINE
  5
269
330
19
100
AcDbEntity
  8
4
 48
3.0
100
AcDbLine
 10
838.3673797439951
 20
1253.00220174683
 30
0.0
 11
843.3673797439956
 21
1253.00220174683
 31
0.0
  0
ARC
  5
26A
330
19
100
AcDbEntity
  8
4
100
AcDbCircle
 10
821.3673797439965
 20
1306.00220174683
 30
0.0
 40
5.0
100
AcDbArc
 50
0.0
 51
90.0
  0
LINE
  5
26B
330
19
100
AcDbEntity
  8
L-CENTER
 48
3.0
100
AcDbLine
 10
448.8673797439965
 20
825.165723781799
 30
0.0
 11
468.8673797439965
 21
859.8067399331762
 31
0.0
  0
LINE
  5
26C
330
19
100
AcDbEntity
  8
L-CENTER
 48
3.0
100
AcDbLine
 10
703.8673797439956
 20
825.165723781799
 30
0.0
 11
683.8673797439956
 21
859.8067399331762
 31
0.0
  0
CIRCLE
  5
26D
330
19
100
AcDbEntity
  8
L-CENTER
 48
3.0
100
AcDbCircle
 10
576.367379743996
 20
1046.002201746831
 30
0.0
 40
235.0
  0
ARC
  5
26E
330
19
100
AcDbEntity
  8
4
100
AcDbCircle
 10
576.367379743996
 20
1046.002201746831
 30
0.0
 40
220.0
100
AcDbArc
 50
271.1989487419143
 51
88.80105125808588
  0
LINE
  5
26F
330
19
100
AcDbEntity
  8
L-CENTER
 48
3.0
100
AcDbLine
 10
602.3049715366965
 20
1053.002201746831
 30
0.0
 11
744.4297879512947
 21
1053.002201746831
 31
0.0
  0
CIRCLE
  5
270
330
19
100
AcDbEntity
  8
4
100
AcDbCircle
 10
673.3673797439965
 20
1053.00220174683
 30
0.0
 40
60.0
  0
CIRCLE
  5
271
330
19
100
AcDbEntity
  8
4
100
AcDbCircle
 10
673.3673797439965
 20
1053.00220174683
 30
0.0
 40
40.0
  0
ARC
  5
272
330
19
100
AcDbEntity
  8
4
100
AcDbCircle
 10
576.3673797439965
 20
1451.00220174683
 30
0.0
 40
500.0
100
AcDbArc
 50
244.5256305487904
 51
268.0346746282652
  0
ARC
  5
273
330
19
100
AcDbEntity
  8
4
100
AcDbCircle
 10
576.3673797439965
 20
1451.00220174683
 30
0.0
 40
500.0
100
AcDbArc
 50
271.9653253717347
 51
295.4743694512095
  0
ARC
  5
274
330
19
100
AcDbEntity
  8
4
100
AcDbCircle
 10
576.3673797439965
 20
681.0022017468305
 30
0.0
 40
500.0
100
AcDbArc
 50
66.53863810537607
 51
88.0346746282654
  0
LINE
  5
275
330
19
100
AcDbEntity
  8
L-CENTER
 48
3.0
100
AcDbLine
 10
448.8673797439965
 20
1266.838679711862
 30
0.0
 11
468.8673797439965
 21
1232.197663560485
 31
0.0
  0
LINE
  5
276
330
19
100
AcDbEntity
  8
L-CENTER
 48
3.0
100
AcDbLine
 10
403.2487668675153
 20
1066.00220174683
 30
0.0
 11
602.4757288453225
 21
1066.00220174683
 31
0.0
  0
ARC
  5
277
330
19
100
AcDbEntity
  8
4
100
AcDbCircle
 10
576.3673797439965
 20
681.0022017468305
 30
0.0
 40
500.0
100
AcDbArc
 50
91.96532537173466
 51
113.4613618946239
  0
CIRCLE
  5
278
330
19
100
AcDbEntity
  8
4
100
AcDbCircle
 10
502.8622478564193
 20
1066.00220174683
 30
0.0
 40
85.0
  0
LINE
  5
279
330
19
100
AcDbEntity
  8
L-CENTER
 48
3.0
100
AcDbLine
 10
502.8622478564189
 20
1165.615682735734
 30
0.0
 11
502.8622478564189
 21
966.3887207579269
 31
0.0
  0
LINE
  5
27A
330
19
100
AcDbEntity
  8
L-CENTER
 48
3.0
100
AcDbLine
 10
546.3673797439965
 20
848.0022017468305
 30
0.0
 11
606.3673797439965
 21
848.0022017468305
 31
0.0
  0
ARC
  5
27B
330
19
100
AcDbEntity
  8
4
100
AcDbCircle
 10
576.3673797439965
 20
848.0022017468305
 30
0.0
 40
17.5
100
AcDbArc
 50
106.6015495990203
 51
253.3984504009798
  0
LINE
  5
27C
330
19
100
AcDbEntity
  8
L-CENTER
 48
3.0
100
AcDbLine
 10
546.3673797439965
 20
1244.00220174683
 30
0.0
 11
606.3673797439965
 21
1244.00220174683
 31
0.0
  0
CIRCLE
  5
27D
330
19
100
AcDbEntity
  8
4
100
AcDbCircle
 10
576.3673797439965
 20
1191.002201746831
 30
0.0
 40
20.0
  0
ARC
  5
27E
330
19
100
AcDbEntity
  8
4
100
AcDbCircle
 10
576.3673797439965
 20
1244.00220174683
 30
0.0
 40
17.5
100
AcDbArc
 50
106.6015495990234
 51
253.3984504009766
  0
LINE
  5
27F
330
19
100
AcDbEntity
  8
L-CENTER
 48
3.0
100
AcDbLine
 10
703.8673797439956
 20
1266.838679711862
 30
0.0
 11
683.8673797439956
 21
1232.197663560485
 31
0.0
  0
LINE
  5
280
330
19
100
AcDbEntity
  8
L-CENTER
 48
3.0
100
AcDbLine
 10
673.3673797439956
 20
1124.06460995413
 30
0.0
 11
673.3673797439956
 21
981.9397935395318
 31
0.0
  0
CIRCLE
  5
281
330
19
100
AcDbEntity
  8
4
100
AcDbCircle
 10
576.367379743996
 20
1046.00220174683
 30
0.0
 40
250.0
  0
LINE
  5
283
330
19
100
AcDbEntity
  8
L-CENTER
 48
3.0
100
AcDbLine
 10
441.7238368674257
 20
1127.140612735824
 30
0.0
 11
461.4701755733627
 21
1107.394274029886
 31
0.0
  0
CIRCLE
  5
284
330
19
100
AcDbEntity
  8
L-CENTER
 48
3.0
100
AcDbCircle
 10
502.8622478564189
 20
1066.00220174683
 30
0.0
 40
72.5
  0
LINE
  5
285
330
19
100
AcDbEntity
  8
L-CENTER
 48
3.0
100
AcDbLine
 10
554.1277447439961
 20
280.4936416383067
 30
0.0
 11
554.1277447439961
 21
318.9730520753056
 31
0.0
  0
LINE
  5
286
330
19
100
AcDbEntity
  8
4
100
AcDbLine
 10
449.367379743996
 20
1244.033344078872
 30
0.0
 11
458.867379743996
 21
1238.548516521571
 31
0.0
  0
LINE
  5
287
330
19
100
AcDbEntity
  8
4
100
AcDbLine
 10
458.867379743996
 20
1238.548516521571
 30
0.0
 11
468.367379743996
 21
1244.033344078872
 31
0.0
  0
CIRCLE
  5
288
330
19
100
AcDbEntity
  8
4
100
AcDbCircle
 10
458.867379743996
 20
1249.518171636174
 30
0.0
 40
9.5
  0
LINE
  5
289
330
19
100
AcDbEntity
  8
4
100
AcDbLine
 10
468.367379743996
 20
1255.002999193475
 30
0.0
 11
458.867379743996
 21
1260.487826750777
 31
0.0
  0
LINE
  5
28A
330
19
100
AcDbEntity
  8
4
100
AcDbLine
 10
449.367379743996
 20
1255.002999193475
 30
0.0
 11
449.367379743996
 21
1244.033344078872
 31
0.0
  0
LINE
  5
28B
330
19
100
AcDbEntity
  8
4
100
AcDbLine
 10
458.867379743996
 20
1260.487826750777
 30
0.0
 11
449.367379743996
 21
1255.002999193475
 31
0.0
  0
LINE
  5
28C
330
19
100
AcDbEntity
  8
4
100
AcDbLine
 10
468.367379743996
 20
1244.033344078872
 30
0.0
 11
468.367379743996
 21
1255.002999193475
 31
0.0
  0
LINE
  5
28D
330
19
100
AcDbEntity
  8
4
100
AcDbLine
 10
684.3673797439956
 20
1244.033344078872
 30
0.0
 11
693.8673797439956
 21
1238.548516521571
 31
0.0
  0
LINE
  5
28E
330
19
100
AcDbEntity
  8
4
100
AcDbLine
 10
693.8673797439956
 20
1238.548516521571
 30
0.0
 11
703.3673797439956
 21
1244.033344078872
 31
0.0
  0
CIRCLE
  5
28F
330
19
100
AcDbEntity
  8
4
100
AcDbCircle
 10
693.8673797439956
 20
1249.518171636174
 30
0.0
 40
9.5
  0
LINE
  5
290
330
19
100
AcDbEntity
  8
4
100
AcDbLine
 10
703.3673797439956
 20
1255.002999193476
 30
0.0
 11
693.8673797439956
 21
1260.487826750777
 31
0.0
  0
LINE
  5
291
330
19
100
AcDbEntity
  8
4
100
AcDbLine
 10
684.3673797439956
 20
1255.002999193476
 30
0.0
 11
684.3673797439956
 21
1244.033344078872
 31
0.0
  0
LINE
  5
292
330
19
100
AcDbEntity
  8
4
100
AcDbLine
 10
693.8673797439956
 20
1260.487826750777
 30
0.0
 11
684.3673797439956
 21
1255.002999193476
 31
0.0
  0
LINE
  5
293
330
19
100
AcDbEntity
  8
4
100
AcDbLine
 10
703.3673797439956
 20
1244.033344078872
 30
0.0
 11
703.3673797439956
 21
1255.002999193476
 31
0.0
  0
LINE
  5
294
330
19
100
AcDbEntity
  8
4
100
AcDbLine
 10
801.867379743996
 20
1040.517374189529
 30
0.0
 11
811.367379743996
 21
1035.032546632227
 31
0.0
  0
LINE
  5
295
330
19
100
AcDbEntity
  8
4
100
AcDbLine
 10
811.367379743996
 20
1035.032546632227
 30
0.0
 11
820.867379743996
 21
1040.517374189529
 31
0.0
  0
CIRCLE
  5
296
330
19
100
AcDbEntity
  8
4
100
AcDbCircle
 10
811.367379743996
 20
1046.00220174683
 30
0.0
 40
9.5
  0
LINE
  5
297
330
19
100
AcDbEntity
  8
4
100
AcDbLine
 10
820.867379743996
 20
1051.487029304132
 30
0.0
 11
811.367379743996
 21
1056.971856861433
 31
0.0
  0
LINE
  5
298
330
19
100
AcDbEntity
  8
4
100
AcDbLine
 10
801.867379743996
 20
1051.487029304132
 30
0.0
 11
801.867379743996
 21
1040.517374189529
 31
0.0
  0
LINE
  5
299
330
19
100
AcDbEntity
  8
4
100
AcDbLine
 10
811.367379743996
 20
1056.971856861433
 30
0.0
 11
801.867379743996
 21
1051.487029304132
 31
0.0
  0
LINE
  5
29A
330
19
100
AcDbEntity
  8
4
100
AcDbLine
 10
820.867379743996
 20
1040.517374189529
 30
0.0
 11
820.867379743996
 21
1051.487029304132
 31
0.0
  0
LINE
  5
29B
330
19
100
AcDbEntity
  8
4
100
AcDbLine
 10
331.867379743996
 20
1040.517374189529
 30
0.0
 11
341.367379743996
 21
1035.032546632228
 31
0.0
  0
LINE
  5
29C
330
19
100
AcDbEntity
  8
4
100
AcDbLine
 10
341.367379743996
 20
1035.032546632228
 30
0.0
 11
350.867379743996
 21
1040.517374189529
 31
0.0
  0
CIRCLE
  5
29D
330
19
100
AcDbEntity
  8
4
100
AcDbCircle
 10
341.367379743996
 20
1046.002201746831
 30
0.0
 40
9.5
  0
LINE
  5
29E
330
19
100
AcDbEntity
  8
4
100
AcDbLine
 10
350.867379743996
 20
1051.487029304132
 30
0.0
 11
341.367379743996
 21
1056.971856861433
 31
0.0
  0
LINE
  5
29F
330
19
100
AcDbEntity
  8
4
100
AcDbLine
 10
331.867379743996
 20
1051.487029304132
 30
0.0
 11
331.867379743996
 21
1040.517374189529
 31
0.0
  0
LINE
  5
2A0
330
19
100
AcDbEntity
  8
4
100
AcDbLine
 10
341.367379743996
 20
1056.971856861433
 30
0.0
 11
331.867379743996
 21
1051.487029304132
 31
0.0
  0
LINE
  5
2A1
330
19
100
AcDbEntity
  8
4
100
AcDbLine
 10
350.867379743996
 20
1040.517374189529
 30
0.0
 11
350.867379743996
 21
1051.487029304132
 31
0.0
  0
LINE
  5
2A2
330
19
100
AcDbEntity
  8
4
100
AcDbLine
 10
684.3673797439956
 20
837.0014043001856
 30
0.0
 11
693.8673797439956
 21
831.5165767428844
 31
0.0
  0
LINE
  5
2A3
330
19
100
AcDbEntity
  8
4
100
AcDbLine
 10
693.8673797439956
 20
831.5165767428844
 30
0.0
 11
703.3673797439956
 21
837.0014043001856
 31
0.0
  0
CIRCLE
  5
2A4
330
19
100
AcDbEntity
  8
4
100
AcDbCircle
 10
693.8673797439956
 20
842.4862318574874
 30
0.0
 40
9.5
  0
LINE
  5
2A5
330
19
100
AcDbEntity
  8
4
100
AcDbLine
 10
703.3673797439956
 20
847.9710594147887
 30
0.0
 11
693.8673797439956
 21
853.45588697209
 31
0.0
  0
LINE
  5
2A6
330
19
100
AcDbEntity
  8
4
100
AcDbLine
 10
684.3673797439956
 20
847.9710594147887
 30
0.0
 11
684.3673797439956
 21
837.0014043001856
 31
0.0
  0
LINE
  5
2A7
330
19
100
AcDbEntity
  8
4
100
AcDbLine
 10
693.8673797439956
 20
853.45588697209
 30
0.0
 11
684.3673797439956
 21
847.9710594147887
 31
0.0
  0
LINE
  5
2A8
330
19
100
AcDbEntity
  8
4
100
AcDbLine
 10
703.3673797439956
 20
837.0014043001856
 30
0.0
 11
703.3673797439956
 21
847.9710594147887
 31
0.0
  0
LINE
  5
2A9
330
19
100
AcDbEntity
  8
4
100
AcDbLine
 10
449.367379743996
 20
837.0014043001861
 30
0.0
 11
458.867379743996
 21
831.5165767428848
 31
0.0
  0
LINE
  5
2AA
330
19
100
AcDbEntity
  8
4
100
AcDbLine
 10
458.867379743996
 20
831.5165767428848
 30
0.0
 11
468.367379743996
 21
837.0014043001861
 31
0.0
  0
CIRCLE
  5
2AB
330
19
100
AcDbEntity
  8
4
100
AcDbCircle
 10
458.867379743996
 20
842.4862318574878
 30
0.0
 40
9.5
  0
LINE
  5
2AC
330
19
100
AcDbEntity
  8
4
100
AcDbLine
 10
468.367379743996
 20
847.9710594147891
 30
0.0
 11
458.867379743996
 21
853.4558869720904
 31
0.0
  0
LINE
  5
2AD
330
19
100
AcDbEntity
  8
4
100
AcDbLine
 10
449.367379743996
 20
847.9710594147891
 30
0.0
 11
449.367379743996
 21
837.0014043001861
 31
0.0
  0
LINE
  5
2AE
330
19
100
AcDbEntity
  8
4
100
AcDbLine
 10
458.867379743996
 20
853.4558869720904
 30
0.0
 11
449.367379743996
 21
847.9710594147891
 31
0.0
  0
LINE
  5
2AF
330
19
100
AcDbEntity
  8
4
100
AcDbLine
 10
468.367379743996
 20
837.0014043001861
 30
0.0
 11
468.367379743996
 21
847.9710594147891
 31
0.0
  0
LINE
  5
2B0
330
19
100
AcDbEntity
  8
L-CENTER
 48
3.0
100
AcDbLine
 10
341.367379743996
 20
518.8068515184116
 30
0.0
 11
341.367379743996
 21
473.5950826356611
 31
0.0
  0
LINE
  5
2B1
330
19
100
AcDbEntity
  8
4
100
AcDbLine
 10
330.397724629393
 20
504.2060116383075
 30
0.0
 11
352.3370348585986
 21
504.2060116383075
 31
0.0
  0
ARC
  5
2B2
330
19
100
AcDbEntity
  8
4
100
AcDbCircle
 10
349.594621079948
 20
511.3306327630282
 30
0.0
 40
3.875378875279264
100
AcDbArc
 50
44.955926762744
 51
135.044073237256
  0
LINE
  5
2B3
330
19
100
AcDbEntity
  8
4
100
AcDbLine
 10
349.594621079948
 20
515.2060116383075
 30
0.0
 11
333.1401384080436
 21
515.2060116383075
 31
0.0
  0
LINE
  5
2B4
330
19
100
AcDbEntity
  8
4
100
AcDbLine
 10
330.397724629393
 20
507.2060116383075
 30
0.0
 11
352.3370348585986
 21
507.2060116383075
 31
0.0
  0
LINE
  5
2B5
330
19
100
AcDbEntity
  8
4
100
AcDbLine
 10
346.8522073012973
 20
514.0688307276807
 30
0.0
 11
346.8522073012973
 21
507.2060116383075
 31
0.0
  0
LINE
  5
2B6
330
19
100
AcDbEntity
  8
4
100
AcDbLine
 10
335.8825521866943
 20
514.0688307276807
 30
0.0
 11
335.8825521866943
 21
507.2060116383075
 31
0.0
  0
LINE
  5
2B7
330
19
100
AcDbEntity
  8
4
100
AcDbLine
 10
330.397724629393
 20
514.0688307276807
 30
0.0
 11
330.397724629393
 21
504.2060116383075
 31
0.0
  0
ARC
  5
2B8
330
19
100
AcDbEntity
  8
4
100
AcDbCircle
 10
341.367379743996
 20
501.4102675031306
 30
0.0
 40
13.7957441351769
100
AcDbArc
 50
66.5734024913731
 51
113.4265975086292
  0
ARC
  5
2B9
330
19
100
AcDbEntity
  8
4
100
AcDbCircle
 10
333.1401384080436
 20
511.3306327630282
 30
0.0
 40
3.875378875279244
100
AcDbArc
 50
44.955926762744
 51
135.044073237256
  0
LINE
  5
2BA
330
19
100
AcDbEntity
  8
4
100
AcDbLine
 10
352.3370348585986
 20
504.2060116383075
 30
0.0
 11
352.3370348585986
 21
514.0688307276807
 31
0.0
  0
LINE
  5
2BB
330
19
100
AcDbEntity
  8
L-CENTER
 48
3.0
100
AcDbLine
 10
458.867379743996
 20
518.8068515184116
 30
0.0
 11
458.867379743996
 21
473.5950826356611
 31
0.0
  0
LINE
  5
2BC
330
19
100
AcDbEntity
  8
4
100
AcDbLine
 10
447.897724629393
 20
504.2060116383075
 30
0.0
 11
469.8370348585986
 21
504.2060116383075
 31
0.0
  0
ARC
  5
2BD
330
19
100
AcDbEntity
  8
4
100
AcDbCircle
 10
467.094621079948
 20
511.3306327630282
 30
0.0
 40
3.875378875279264
100
AcDbArc
 50
44.955926762744
 51
135.044073237256
  0
LINE
  5
2BE
330
19
100
AcDbEntity
  8
4
100
AcDbLine
 10
467.094621079948
 20
515.2060116383075
 30
0.0
 11
450.6401384080436
 21
515.2060116383075
 31
0.0
  0
LINE
  5
2BF
330
19
100
AcDbEntity
  8
4
100
AcDbLine
 10
447.897724629393
 20
507.2060116383075
 30
0.0
 11
469.8370348585986
 21
507.2060116383075
 31
0.0
  0
LINE
  5
2C0
330
19
100
AcDbEntity
  8
4
100
AcDbLine
 10
464.3522073012973
 20
514.0688307276807
 30
0.0
 11
464.3522073012973
 21
507.2060116383075
 31
0.0
  0
LINE
  5
2C1
330
19
100
AcDbEntity
  8
4
100
AcDbLine
 10
453.3825521866943
 20
514.0688307276807
 30
0.0
 11
453.3825521866943
 21
507.2060116383075
 31
0.0
  0
LINE
  5
2C2
330
19
100
AcDbEntity
  8
4
100
AcDbLine
 10
447.897724629393
 20
514.0688307276807
 30
0.0
 11
447.897724629393
 21
504.2060116383075
 31
0.0
  0
ARC
  5
2C3
330
19
100
AcDbEntity
  8
4
100
AcDbCircle
 10
458.867379743996
 20
501.4102675031306
 30
0.0
 40
13.7957441351769
100
AcDbArc
 50
66.57340249137077
 51
113.4265975086269
  0
ARC
  5
2C4
330
19
100
AcDbEntity
  8
4
100
AcDbCircle
 10
450.6401384080436
 20
511.3306327630282
 30
0.0
 40
3.875378875279244
100
AcDbArc
 50
44.955926762744
 51
135.044073237256
  0
LINE
  5
2C5
330
19
100
AcDbEntity
  8
4
100
AcDbLine
 10
469.8370348585986
 20
504.2060116383075
 30
0.0
 11
469.8370348585986
 21
514.0688307276807
 31
0.0
  0
LINE
  5
2C6
330
19
100
AcDbEntity
  8
4
100
AcDbLine
 10
447.897724629393
 20
509.2060116383075
 30
0.0
 11
417.8624997439961
 21
509.2060116383075
 31
0.0
  0
LINE
  5
2C7
330
19
100
AcDbEntity
  8
4
100
AcDbLine
 10
447.897724629393
 20
509.2060116383075
 30
0.0
 11
417.8624997439961
 21
509.2060116383075
 31
0.0
  0
ARC
  5
2C8
330
19
100
AcDbEntity
  8
4
100
AcDbCircle
 10
819.5946210799484
 20
511.3306327630282
 30
0.0
 40
3.875378875279244
100
AcDbArc
 50
44.955926762744
 51
135.044073237256
  0
LINE
  5
2C9
330
19
100
AcDbEntity
  8
4
100
AcDbLine
 10
822.337034858599
 20
507.2060116383075
 30
0.0
 11
800.3977246293935
 21
507.2060116383075
 31
0.0
  0
LINE
  5
2CA
330
19
100
AcDbEntity
  8
4
100
AcDbLine
 10
803.1401384080441
 20
515.2060116383075
 30
0.0
 11
819.5946210799484
 21
515.2060116383075
 31
0.0
  0
LINE
  5
2CB
330
19
100
AcDbEntity
  8
4
100
AcDbLine
 10
822.337034858599
 20
504.2060116383075
 30
0.0
 11
800.3977246293935
 21
504.2060116383075
 31
0.0
  0
LINE
  5
2CC
330
19
100
AcDbEntity
  8
4
100
AcDbLine
 10
822.337034858599
 20
514.0688307276807
 30
0.0
 11
822.337034858599
 21
504.2060116383075
 31
0.0
  0
LINE
  5
2CD
330
19
100
AcDbEntity
  8
4
100
AcDbLine
 10
800.3977246293935
 20
504.2060116383075
 30
0.0
 11
800.3977246293935
 21
514.0688307276807
 31
0.0
  0
ARC
  5
2CE
330
19
100
AcDbEntity
  8
4
100
AcDbCircle
 10
811.367379743996
 20
501.4102675031306
 30
0.0
 40
13.7957441351769
100
AcDbArc
 50
66.57340249137289
 51
113.4265975086271
  0
LINE
  5
2CF
330
19
100
AcDbEntity
  8
4
100
AcDbLine
 10
816.8522073012978
 20
514.0688307276807
 30
0.0
 11
816.8522073012978
 21
507.2060116383075
 31
0.0
  0
LINE
  5
2D0
330
19
100
AcDbEntity
  8
4
100
AcDbLine
 10
805.8825521866947
 20
514.0688307276807
 30
0.0
 11
805.8825521866947
 21
507.2060116383075
 31
0.0
  0
ARC
  5
2D1
330
19
100
AcDbEntity
  8
4
100
AcDbCircle
 10
803.1401384080441
 20
511.3306327630282
 30
0.0
 40
3.875378875279264
100
AcDbArc
 50
44.955926762744
 51
135.044073237256
  0
LINE
  5
2D2
330
19
100
AcDbEntity
  8
L-CENTER
 48
3.0
100
AcDbLine
 10
811.367379743996
 20
518.8068515184116
 30
0.0
 11
811.367379743996
 21
473.5950826356611
 31
0.0
  0
LINE
  5
2D3
330
19
100
AcDbEntity
  8
4
100
AcDbLine
 10
704.837034858599
 20
507.2060116383075
 30
0.0
 11
682.897724629393
 21
507.2060116383075
 31
0.0
  0
ARC
  5
2D4
330
19
100
AcDbEntity
  8
4
100
AcDbCircle
 10
685.6401384080441
 20
511.3306327630282
 30
0.0
 40
3.875378875279264
100
AcDbArc
 50
44.955926762744
 51
135.0440732372655
  0
LINE
  5
2D5
330
19
100
AcDbEntity
  8
4
100
AcDbLine
 10
704.837034858599
 20
504.2060116383075
 30
0.0
 11
682.897724629393
 21
504.2060116383075
 31
0.0
  0
ARC
  5
2D6
330
19
100
AcDbEntity
  8
4
100
AcDbCircle
 10
702.0946210799484
 20
511.3306327630282
 30
0.0
 40
3.875378875279244
100
AcDbArc
 50
44.955926762744
 51
135.044073237256
  0
LINE
  5
2D7
330
19
100
AcDbEntity
  8
4
100
AcDbLine
 10
704.837034858599
 20
514.0688307276807
 30
0.0
 11
704.837034858599
 21
504.2060116383075
 31
0.0
  0
ARC
  5
2D8
330
19
100
AcDbEntity
  8
4
100
AcDbCircle
 10
693.867379743996
 20
501.4102675031306
 30
0.0
 40
13.7957441351769
100
AcDbArc
 50
66.57340249137289
 51
113.4265975086292
  0
LINE
  5
2D9
330
19
100
AcDbEntity
  8
4
100
AcDbLine
 10
699.3522073012978
 20
514.0688307276807
 30
0.0
 11
699.3522073012978
 21
507.2060116383075
 31
0.0
  0
LINE
  5
2DA
330
19
100
AcDbEntity
  8
4
100
AcDbLine
 10
688.3825521866943
 20
514.0688307276807
 30
0.0
 11
688.3825521866943
 21
507.2060116383075
 31
0.0
  0
LINE
  5
2DB
330
19
100
AcDbEntity
  8
4
100
AcDbLine
 10
685.6401384080441
 20
515.2060116383075
 30
0.0
 11
702.094621079948
 21
515.2060116383075
 31
0.0
  0
LINE
  5
2DC
330
19
100
AcDbEntity
  8
4
100
AcDbLine
 10
682.897724629393
 20
504.2060116383075
 30
0.0
 11
682.897724629393
 21
514.0688307276807
 31
0.0
  0
LINE
  5
2DD
330
19
100
AcDbEntity
  8
L-CENTER
 48
3.0
100
AcDbLine
 10
693.8673797439956
 20
518.8068515184116
 30
0.0
 11
693.8673797439956
 21
473.5950826356611
 31
0.0
  0
LINE
  5
2DE
330
19
100
AcDbEntity
  8
4
100
AcDbLine
 10
682.897724629393
 20
511.206011638307
 30
0.0
 11
613.3673797439965
 21
511.206011638307
 31
0.0
  0
LINE
  5
2DF
330
19
100
AcDbEntity
  8
4
100
AcDbLine
 10
704.8370348585986
 20
512.2060116383075
 30
0.0
 11
713.367379743996
 21
512.2060116383075
 31
0.0
  0
LINE
  5
2E0
330
19
100
AcDbEntity
  8
4
100
AcDbLine
 10
704.837034858599
 20
511.206011638307
 30
0.0
 11
733.367379743996
 21
511.206011638307
 31
0.0
  0
LINE
  5
2E1
330
19
100
AcDbEntity
  8
L-CENTER
 48
3.0
100
AcDbLine
 10
1447.802194743997
 20
518.0048061676409
 30
0.0
 11
1447.802194743997
 21
283.8060116383068
 31
0.0
  0
ARC
  5
2E2
330
19
100
AcDbEntity
  8
4
100
AcDbCircle
 10
1244.286224854654
 20
501.4102675031306
 30
0.0
 40
13.7957441351769
100
AcDbArc
 50
66.57340249137289
 51
113.4265975086271
  0
LINE
  5
2E3
330
19
100
AcDbEntity
  8
4
100
AcDbLine
 10
1255.255879969257
 20
504.2060116383075
 30
0.0
 11
1233.316569740052
 21
504.2060116383075
 31
0.0
  0
LINE
  5
2E4
330
19
100
AcDbEntity
  8
4
100
AcDbLine
 10
1236.058983518702
 20
515.2060116383075
 30
0.0
 11
1252.513466190607
 21
515.2060116383075
 31
0.0
  0
LINE
  5
2E5
330
19
100
AcDbEntity
  8
4
100
AcDbLine
 10
1255.255879969257
 20
507.2060116383075
 30
0.0
 11
1233.316569740052
 21
507.2060116383075
 31
0.0
  0
ARC
  5
2E6
330
19
100
AcDbEntity
  8
4
100
AcDbCircle
 10
1236.058983518702
 20
511.3306327630282
 30
0.0
 40
3.875378875279264
100
AcDbArc
 50
44.95592676274758
 51
135.0440732372524
  0
LINE
  5
2E7
330
19
100
AcDbEntity
  8
4
100
AcDbLine
 10
1238.801397297353
 20
514.0688307276807
 30
0.0
 11
1238.801397297353
 21
507.2060116383075
 31
0.0
  0
LINE
  5
2E8
330
19
100
AcDbEntity
  8
4
100
AcDbLine
 10
1233.316569740052
 20
504.2060116383075
 30
0.0
 11
1233.316569740052
 21
514.0688307276807
 31
0.0
  0
LINE
  5
2E9
330
19
100
AcDbEntity
  8
4
100
AcDbLine
 10
1249.771052411956
 20
514.0688307276807
 30
0.0
 11
1249.771052411956
 21
507.2060116383075
 31
0.0
  0
LINE
  5
2EA
330
19
100
AcDbEntity
  8
4
100
AcDbLine
 10
1255.255879969257
 20
514.0688307276807
 30
0.0
 11
1255.255879969257
 21
504.2060116383075
 31
0.0
  0
ARC
  5
2EB
330
19
100
AcDbEntity
  8
4
100
AcDbCircle
 10
1252.513466190607
 20
511.3306327630282
 30
0.0
 40
3.875378875279244
100
AcDbArc
 50
44.95592676274519
 51
135.0440732372548
  0
LINE
  5
2EC
330
19
100
AcDbEntity
  8
L-CENTER
 48
3.0
100
AcDbLine
 10
1244.286224854654
 20
518.8068515184116
 30
0.0
 11
1244.286224854654
 21
473.5950826356611
 31
0.0
  0
LINE
  5
2ED
330
19
100
AcDbEntity
  8
4
100
AcDbLine
 10
1233.316569740052
 20
505.0351116383074
 30
0.0
 11
1232.302194743997
 21
505.0351116383074
 31
0.0
  0
LINE
  5
2EE
330
19
100
AcDbEntity
  8
4
100
AcDbLine
 10
1640.348509518738
 20
507.2060116383075
 30
0.0
 11
1662.287819747943
 21
507.2060116383075
 31
0.0
  0
LINE
  5
2EF
330
19
100
AcDbEntity
  8
4
100
AcDbLine
 10
1659.545405969292
 20
515.2060116383075
 30
0.0
 11
1643.090923297388
 21
515.2060116383075
 31
0.0
  0
LINE
  5
2F0
330
19
100
AcDbEntity
  8
4
100
AcDbLine
 10
1640.348509518738
 20
504.2060116383075
 30
0.0
 11
1662.287819747943
 21
504.2060116383075
 31
0.0
  0
ARC
  5
2F1
330
19
100
AcDbEntity
  8
4
100
AcDbCircle
 10
1651.318164633341
 20
501.4102675031306
 30
0.0
 40
13.7957441351769
100
AcDbArc
 50
66.57340249137289
 51
113.4265975086271
  0
LINE
  5
2F2
330
19
100
AcDbEntity
  8
4
100
AcDbLine
 10
1662.287819747943
 20
504.2060116383075
 30
0.0
 11
1662.287819747943
 21
514.0688307276807
 31
0.0
  0
LINE
  5
2F3
330
19
100
AcDbEntity
  8
4
100
AcDbLine
 10
1656.802992190642
 20
514.0688307276807
 30
0.0
 11
1656.802992190642
 21
507.2060116383075
 31
0.0
  0
ARC
  5
2F4
330
19
100
AcDbEntity
  8
4
100
AcDbCircle
 10
1659.545405969292
 20
511.3306327630282
 30
0.0
 40
3.875378875279264
100
AcDbArc
 50
44.95592676274758
 51
135.0440732372524
  0
ARC
  5
2F5
330
19
100
AcDbEntity
  8
4
100
AcDbCircle
 10
1643.090923297388
 20
511.3306327630282
 30
0.0
 40
3.875378875279244
100
AcDbArc
 50
44.95592676274519
 51
135.0440732372548
  0
LINE
  5
2F6
330
19
100
AcDbEntity
  8
4
100
AcDbLine
 10
1640.348509518738
 20
514.0688307276807
 30
0.0
 11
1640.348509518738
 21
504.2060116383075
 31
0.0
  0
LINE
  5
2F7
330
19
100
AcDbEntity
  8
4
100
AcDbLine
 10
1645.833337076039
 20
514.0688307276807
 30
0.0
 11
1645.833337076039
 21
507.2060116383075
 31
0.0
  0
LINE
  5
2F8
330
19
100
AcDbEntity
  8
L-CENTER
 48
3.0
100
AcDbLine
 10
1651.318164633341
 20
518.8068515184116
 30
0.0
 11
1651.318164633341
 21
473.5950826356611
 31
0.0
  0
LINE
  5
2F9
330
19
100
AcDbEntity
  8
4
100
AcDbLine
 10
1640.348509518737
 20
505.0351116383074
 30
0.0
 11
1628.302194743997
 21
505.0351116383074
 31
0.0
  0
LINE
  5
2FA
330
19
100
AcDbEntity
  8
4
100
AcDbLine
 10
1439.574953408046
 20
515.2060116383075
 30
0.0
 11
1456.02943607995
 21
515.2060116383075
 31
0.0
  0
ARC
  5
2FB
330
19
100
AcDbEntity
  8
4
100
AcDbCircle
 10
1456.02943607995
 20
511.3306327630282
 30
0.0
 40
3.875378875279244
100
AcDbArc
 50
44.95592676274519
 51
135.0440732372548
  0
LINE
  5
2FC
330
19
100
AcDbEntity
  8
4
100
AcDbLine
 10
1458.7718498586
 20
504.2060116383075
 30
0.0
 11
1436.832539629395
 21
504.2060116383075
 31
0.0
  0
LINE
  5
2FD
330
19
100
AcDbEntity
  8
4
100
AcDbLine
 10
1458.7718498586
 20
507.2060116383075
 30
0.0
 11
1436.832539629395
 21
507.2060116383075
 31
0.0
  0
LINE
  5
2FE
330
19
100
AcDbEntity
  8
4
100
AcDbLine
 10
1436.832539629395
 20
504.2060116383075
 30
0.0
 11
1436.832539629395
 21
514.0688307276807
 31
0.0
  0
LINE
  5
2FF
330
19
100
AcDbEntity
  8
4
100
AcDbLine
 10
1442.317367186696
 20
514.0688307276807
 30
0.0
 11
1442.317367186696
 21
507.2060116383075
 31
0.0
  0
LINE
  5
300
330
19
100
AcDbEntity
  8
4
100
AcDbLine
 10
1453.287022301299
 20
514.0688307276807
 30
0.0
 11
1453.287022301299
 21
507.2060116383075
 31
0.0
  0
ARC
  5
301
330
19
100
AcDbEntity
  8
4
100
AcDbCircle
 10
1447.802194743997
 20
501.4102675031306
 30
0.0
 40
13.7957441351769
100
AcDbArc
 50
66.57340249137289
 51
113.4265975086271
  0
ARC
  5
302
330
19
100
AcDbEntity
  8
4
100
AcDbCircle
 10
1439.574953408046
 20
511.3306327630282
 30
0.0
 40
3.875378875279264
100
AcDbArc
 50
44.95592676274758
 51
135.0440732372524
  0
LINE
  5
303
330
19
100
AcDbEntity
  8
4
100
AcDbLine
 10
1458.7718498586
 20
514.0688307276807
 30
0.0
 11
1458.7718498586
 21
504.2060116383075
 31
0.0
  0
LINE
  5
304
330
19
100
AcDbEntity
  8
4
100
AcDbLine
 10
1436.832539629395
 20
511.206011638307
 30
0.0
 11
1394.802194743997
 21
511.206011638307
 31
0.0
  0
LINE
  5
305
330
19
100
AcDbEntity
  8
4
100
AcDbLine
 10
1436.832539629395
 20
512.2060116383075
 30
0.0
 11
1414.802194743997
 21
512.2060116383075
 31
0.0
  0
ARC
  5
306
330
19
100
AcDbEntity
  8
4
100
AcDbCircle
 10
576.3673797439965
 20
868.0022017468305
 30
0.0
 40
5.0
100
AcDbArc
 50
0.0
 51
180.0
  0
ARC
  5
307
330
19
100
AcDbEntity
  8
4
100
AcDbCircle
 10
576.3673797439965
 20
848.0022017468305
 30
0.0
 40
11.0
100
AcDbArc
 50
297.0356917894122
 51
62.96430821058751
  0
ARC
  5
308
330
19
100
AcDbEntity
  8
4
100
AcDbCircle
 10
576.3673797439965
 20
848.0022017468305
 30
0.0
 40
12.5
100
AcDbArc
 50
293.5781784782019
 51
66.42182152179805
  0
ARC
  5
309
330
19
100
AcDbEntity
  8
4
100
AcDbCircle
 10
576.3673797439965
 20
848.0022017468305
 30
0.0
 40
12.5
100
AcDbArc
 50
113.578178478202
 51
246.421821521798
  0
ARC
  5
30A
330
19
100
AcDbEntity
  8
4
100
AcDbCircle
 10
576.3673797439965
 20
848.0022017468305
 30
0.0
 40
11.0
100
AcDbArc
 50
117.0356917894125
 51
242.9643082105877
  0
ARC
  5
30B
330
19
100
AcDbEntity
  8
4
100
AcDbCircle
 10
576.3673797439965
 20
828.0022017468305
 30
0.0
 40
5.0
100
AcDbArc
 50
180.0
 51
0.0
  0
LINE
  5
30C
330
19
100
AcDbEntity
  8
4
100
AcDbLine
 10
571.3673797439965
 20
828.0022017468305
 30
0.0
 11
571.3673797439965
 21
868.0022017468305
 31
0.0
  0
LINE
  5
30D
330
19
100
AcDbEntity
  8
4
100
AcDbLine
 10
581.3673797439965
 20
828.0022017468305
 30
0.0
 11
581.3673797439965
 21
868.0022017468305
 31
0.0
  0
ARC
  5
30E
330
19
100
AcDbEntity
  8
4
100
AcDbCircle
 10
576.3673797439956
 20
1264.00220174683
 30
0.0
 40
5.0
100
AcDbArc
 50
0.0
 51
180.0
  0
ARC
  5
30F
330
19
100
AcDbEntity
  8
4
100
AcDbCircle
 10
576.3673797439956
 20
1244.00220174683
 30
0.0
 40
11.0
100
AcDbArc
 50
297.035691789414
 51
62.96430821058594
  0
ARC
  5
310
330
19
100
AcDbEntity
  8
4
100
AcDbCircle
 10
576.3673797439956
 20
1244.00220174683
 30
0.0
 40
12.5
100
AcDbArc
 50
293.5781784782038
 51
66.42182152179615
  0
ARC
  5
311
330
19
100
AcDbEntity
  8
4
100
AcDbCircle
 10
576.3673797439956
 20
1244.00220174683
 30
0.0
 40
12.5
100
AcDbArc
 50
113.578178478202
 51
246.421821521798
  0
ARC
  5
312
330
19
100
AcDbEntity
  8
4
100
AcDbCircle
 10
576.3673797439956
 20
1244.00220174683
 30
0.0
 40
11.0
100
AcDbArc
 50
117.0356917894125
 51
242.9643082105875
  0
ARC
  5
313
330
19
100
AcDbEntity
  8
4
100
AcDbCircle
 10
576.3673797439956
 20
1224.00220174683
 30
0.0
 40
5.0
100
AcDbArc
 50
180.0
 51
0.0
  0
LINE
  5
314
330
19
100
AcDbEntity
  8
4
100
AcDbLine
 10
571.3673797439956
 20
1224.00220174683
 30
0.0
 11
571.3673797439956
 21
1264.00220174683
 31
0.0
  0
LINE
  5
315
330
19
100
AcDbEntity
  8
4
100
AcDbLine
 10
581.3673797439956
 20
1224.00220174683
 30
0.0
 11
581.3673797439956
 21
1264.00220174683
 31
0.0
  0
ARC
  5
316
330
19
100
AcDbEntity
  8
4
100
AcDbCircle
 10
576.3673797439965
 20
848.0022017468305
 30
0.0
 40
17.5
100
AcDbArc
 50
286.6015495990202
 51
73.39845040097967
  0
ARC
  5
317
330
19
100
AcDbEntity
  8
4
100
AcDbCircle
 10
576.367379743996
 20
1046.002201746831
 30
0.0
 40
220.0
100
AcDbArc
 50
91.19894874191412
 51
268.8010512580859
  0
ARC
  5
318
330
19
100
AcDbEntity
  8
4
100
AcDbCircle
 10
576.3673797439965
 20
1244.00220174683
 30
0.0
 40
17.5
100
AcDbArc
 50
286.6015495990171
 51
73.39845040098295
  0
LINE
  5
319
330
19
100
AcDbEntity
  8
4
100
AcDbLine
 10
844.3673797439956
 20
1241.00220174683
 30
0.0
 11
844.3673797439956
 21
1161.00220174683
 31
0.0
  0
LINE
  5
31A
330
19
100
AcDbEntity
  8
4
100
AcDbLine
 10
843.3673797439956
 20
1161.00220174683
 30
0.0
 11
844.3673797439956
 21
1161.00220174683
 31
0.0
  0
LINE
  5
31B
330
19
100
AcDbEntity
  8
4
100
AcDbLine
 10
843.3673797439956
 20
1241.00220174683
 30
0.0
 11
844.3673797439956
 21
1241.00220174683
 31
0.0
  0
LINE
  5
31C
330
19
100
AcDbEntity
  8
4
100
AcDbLine
 10
308.367379743996
 20
1241.00220174683
 30
0.0
 11
308.367379743996
 21
1161.00220174683
 31
0.0
  0
LINE
  5
31D
330
19
100
AcDbEntity
  8
4
100
AcDbLine
 10
309.3673797439956
 20
1161.00220174683
 30
0.0
 11
308.367379743996
 21
1161.00220174683
 31
0.0
  0
LINE
  5
31E
330
19
100
AcDbEntity
  8
4
100
AcDbLine
 10
309.3673797439956
 20
1241.00220174683
 30
0.0
 11
308.367379743996
 21
1241.00220174683
 31
0.0
  0
LINE
  5
31F
330
19
100
AcDbEntity
  8
4
100
AcDbLine
 10
874.3673797439956
 20
1196.00220174683
 30
0.0
 11
944.3673797439956
 21
1196.00220174683
 31
0.0
  0
LINE
  5
320
330
19
100
AcDbEntity
  8
4
100
AcDbLine
 10
874.3673797439956
 20
1206.00220174683
 30
0.0
 11
944.3673797439956
 21
1206.00220174683
 31
0.0
  0
LINE
  5
321
330
19
100
AcDbEntity
  8
4
100
AcDbLine
 10
866.3673797439956
 20
1185.00220174683
 30
0.0
 11
943.3673797439956
 21
1185.00220174683
 31
0.0
  0
LINE
  5
322
330
19
100
AcDbEntity
  8
4
100
AcDbLine
 10
866.3673797439965
 20
1217.00220174683
 30
0.0
 11
943.3673797439956
 21
1217.00220174683
 31
0.0
  0
LINE
  5
323
330
19
100
AcDbEntity
  8
4
100
AcDbLine
 10
864.3673797439956
 20
1181.00220174683
 30
0.0
 11
864.3673797439956
 21
1221.00220174683
 31
0.0
  0
ARC
  5
324
330
19
100
AcDbEntity
  8
4
100
AcDbCircle
 10
874.3673797439956
 20
1201.00220174683
 30
0.0
 40
5.0
100
AcDbArc
 50
180.0
 51
270.0
  0
ARC
  5
325
330
19
100
AcDbEntity
  8
4
100
AcDbCircle
 10
866.3673797439956
 20
1183.00220174683
 30
0.0
 40
2.0
100
AcDbArc
 50
90.0
 51
180.0
  0
LINE
  5
326
330
19
100
AcDbEntity
  8
4
100
AcDbLine
 10
869.3673797439956
 20
1201.00220174683
 30
0.0
 11
869.3673797439956
 21
1201.00220174683
 31
0.0
  0
ARC
  5
327
330
19
100
AcDbEntity
  8
4
100
AcDbCircle
 10
866.3673797439965
 20
1219.00220174683
 30
0.0
 40
2.0
100
AcDbArc
 50
180.0
 51
270.0
  0
ARC
  5
328
330
19
100
AcDbEntity
  8
4
100
AcDbCircle
 10
874.3673797439956
 20
1201.00220174683
 30
0.0
 40
5.0
100
AcDbArc
 50
90.0
 51
180.0
  0
LINE
  5
329
330
19
100
AcDbEntity
  8
4
100
AcDbLine
 10
944.3673797439956
 20
1186.00220174683
 30
0.0
 11
944.3673797439956
 21
1216.00220174683
 31
0.0
  0
LINE
  5
32A
330
19
100
AcDbEntity
  8
4
100
AcDbLine
 10
943.3673797439956
 20
1185.00220174683
 30
0.0
 11
943.3673797439956
 21
1196.00220174683
 31
0.0
  0
LINE
  5
32B
330
19
100
AcDbEntity
  8
4
100
AcDbLine
 10
943.3673797439956
 20
1185.00220174683
 30
0.0
 11
944.3673797439956
 21
1186.00220174683
 31
0.0
  0
LINE
  5
32C
330
19
100
AcDbEntity
  8
4
100
AcDbLine
 10
944.3673797439956
 20
1216.00220174683
 30
0.0
 11
943.3673797439956
 21
1217.00220174683
 31
0.0
  0
LINE
  5
32D
330
19
100
AcDbEntity
  8
4
100
AcDbLine
 10
943.3673797439956
 20
1206.00220174683
 30
0.0
 11
943.3673797439956
 21
1217.00220174683
 31
0.0
  0
LINE
  5
32E
330
19
100
AcDbEntity
  8
4
100
AcDbLine
 10
844.3673797439956
 20
1221.00220174683
 30
0.0
 11
864.3673797439956
 21
1221.00220174683
 31
0.0
  0
LINE
  5
32F
330
19
100
AcDbEntity
  8
4
100
AcDbLine
 10
844.3673797439956
 20
1181.00220174683
 30
0.0
 11
864.3673797439956
 21
1181.00220174683
 31
0.0
  0
LINE
  5
330
330
19
100
AcDbEntity
  8
4
100
AcDbLine
 10
589.3577608007622
 20
1319.502201746829
 30
0.0
 11
563.3769986872289
 21
1319.502201746829
 31
0.0
  0
LINE
  5
331
330
19
100
AcDbEntity
  8
4
100
AcDbLine
 10
590.3673797439956
 20
1311.002201746829
 30
0.0
 11
562.3673797439956
 21
1311.002201746829
 31
0.0
  0
LINE
  5
332
330
19
100
AcDbEntity
  8
4
100
AcDbLine
 10
591.3673797439956
 20
1314.502201746829
 30
0.0
 11
561.3673797439956
 21
1314.502201746829
 31
0.0
  0
LINE
  5
333
330
19
100
AcDbEntity
  8
4
100
AcDbLine
 10
591.3673797439956
 20
1312.502201746829
 30
0.0
 11
561.3673797439956
 21
1312.502201746829
 31
0.0
  0
LINE
  5
334
330
19
100
AcDbEntity
  8
4
100
AcDbLine
 10
591.3673797439956
 20
1312.502201746829
 30
0.0
 11
591.3673797439956
 21
1314.502201746829
 31
0.0
  0
LINE
  5
335
330
19
100
AcDbEntity
  8
4
100
AcDbLine
 10
590.3673797439956
 20
1312.502201746829
 30
0.0
 11
590.3673797439956
 21
1311.002201746829
 31
0.0
  0
LINE
  5
336
330
19
100
AcDbEntity
  8
4
100
AcDbLine
 10
589.3577608007622
 20
1319.502201746829
 30
0.0
 11
589.3577608007622
 21
1314.502201746829
 31
0.0
  0
LINE
  5
337
330
19
100
AcDbEntity
  8
4
100
AcDbLine
 10
561.3673797439956
 20
1314.502201746829
 30
0.0
 11
561.3673797439956
 21
1312.502201746829
 31
0.0
  0
LINE
  5
338
330
19
100
AcDbEntity
  8
4
100
AcDbLine
 10
562.3673797439956
 20
1312.502201746829
 30
0.0
 11
562.3673797439956
 21
1311.002201746829
 31
0.0
  0
LINE
  5
339
330
19
100
AcDbEntity
  8
4
100
AcDbLine
 10
563.3769986872289
 20
1319.502201746829
 30
0.0
 11
563.3769986872289
 21
1314.502201746829
 31
0.0
  0
LINE
  5
33F
330
19
100
AcDbEntity
  8
4
100
AcDbLine
 10
444.347254743996
 20
522.2060116383079
 30
0.0
 11
458.867379743996
 21
522.2060116383079
 31
0.0
  0
LINE
  5
340
330
19
100
AcDbEntity
  8
4
100
AcDbLine
 10
445.097254743996
 20
530.2060116383079
 30
0.0
 11
458.097254743996
 21
530.2060116383079
 31
0.0
  0
LINE
  5
341
330
19
100
AcDbEntity
  8
4
100
AcDbLine
 10
458.847254743996
 20
522.2060116383079
 30
0.0
 11
458.847254743996
 21
520.2060116383079
 31
0.0
  0
LINE
  5
342
330
19
100
AcDbEntity
  8
4
100
AcDbLine
 10
444.347254743996
 20
522.2060116383079
 30
0.0
 11
444.347254743996
 21
520.2060116383079
 31
0.0
  0
LINE
  5
343
330
19
100
AcDbEntity
  8
4
100
AcDbLine
 10
458.097254743996
 20
530.2060116383079
 30
0.0
 11
458.097254743996
 21
522.2060116383079
 31
0.0
  0
LINE
  5
344
330
19
100
AcDbEntity
  8
4
100
AcDbLine
 10
445.097254743996
 20
530.2060116383079
 30
0.0
 11
445.097254743996
 21
522.2060116383079
 31
0.0
  0
LINE
  5
345
330
19
100
AcDbEntity
  8
2
100
AcDbLine
 10
451.597254743996
 20
520.2060116383079
 30
0.0
 11
453.597254743996
 21
522.2060116383079
 31
0.0
  0
LINE
  5
346
330
19
100
AcDbEntity
  8
2
100
AcDbLine
 10
448.7688276192498
 20
520.2060116383079
 30
0.0
 11
450.7688276192498
 21
522.2060116383079
 31
0.0
  0
LINE
  5
347
330
19
100
AcDbEntity
  8
2
100
AcDbLine
 10
556.9561718687423
 20
520.2060116383079
 30
0.0
 11
554.9561718687423
 21
522.2060116383079
 31
0.0
  0
LINE
  5
348
330
19
100
AcDbEntity
  8
4
100
AcDbLine
 10
561.3777447439961
 20
522.2060116383079
 30
0.0
 11
546.8576197439957
 21
522.2060116383079
 31
0.0
  0
LINE
  5
349
330
19
100
AcDbEntity
  8
4
100
AcDbLine
 10
560.6277447439961
 20
530.2060116383079
 30
0.0
 11
547.6277447439961
 21
530.2060116383079
 31
0.0
  0
LINE
  5
34A
330
19
100
AcDbEntity
  8
4
100
AcDbLine
 10
561.3777447439961
 20
522.2060116383079
 30
0.0
 11
561.3777447439961
 21
520.2060116383079
 31
0.0
  0
LINE
  5
34B
330
19
100
AcDbEntity
  8
4
100
AcDbLine
 10
560.6277447439961
 20
530.2060116383079
 30
0.0
 11
560.6277447439961
 21
522.2060116383079
 31
0.0
  0
LINE
  5
34C
330
19
100
AcDbEntity
  8
2
100
AcDbLine
 10
554.1277447439961
 20
520.2060116383079
 30
0.0
 11
552.1277447439961
 21
522.2060116383079
 31
0.0
  0
LINE
  5
34D
330
19
100
AcDbEntity
  8
4
100
AcDbLine
 10
546.8777447439961
 20
522.2060116383079
 30
0.0
 11
546.8777447439961
 21
520.2060116383079
 31
0.0
  0
LINE
  5
34E
330
19
100
AcDbEntity
  8
4
100
AcDbLine
 10
547.6277447439961
 20
530.2060116383079
 30
0.0
 11
547.6277447439961
 21
522.2060116383079
 31
0.0
  0
LINE
  5
34F
330
19
100
AcDbEntity
  8
L-CENTER
 48
3.0
100
AcDbLine
 10
554.1277447439961
 20
533.518381638308
 30
0.0
 11
554.1277447439961
 21
492.7329442216596
 31
0.0
  0
LINE
  5
350
330
19
100
AcDbEntity
  8
4
100
AcDbLine
 10
560.6277447439961
 20
283.8060116383068
 30
0.0
 11
560.6277447439961
 21
291.8060116383069
 31
0.0
  0
LINE
  5
351
330
19
100
AcDbEntity
  8
4
100
AcDbLine
 10
561.3777447439961
 20
291.8060116383068
 30
0.0
 11
561.3777447439961
 21
293.806011638307
 31
0.0
  0
LINE
  5
352
330
19
100
AcDbEntity
  8
2
100
AcDbLine
 10
554.1277447439961
 20
293.8060116383069
 30
0.0
 11
556.1277447439961
 21
291.8060116383069
 31
0.0
  0
LINE
  5
353
330
19
100
AcDbEntity
  8
4
100
AcDbLine
 10
547.6277447439961
 20
283.8060116383068
 30
0.0
 11
547.6277447439961
 21
291.8060116383069
 31
0.0
  0
LINE
  5
354
330
19
100
AcDbEntity
  8
4
100
AcDbLine
 10
546.8777447439961
 20
291.8060116383069
 30
0.0
 11
546.8777447439961
 21
293.8060116383069
 31
0.0
  0
LINE
  5
355
330
19
100
AcDbEntity
  8
4
100
AcDbLine
 10
547.6277447439961
 20
283.8060116383068
 30
0.0
 11
560.6277447439961
 21
283.8060116383068
 31
0.0
  0
LINE
  5
356
330
19
100
AcDbEntity
  8
4
100
AcDbLine
 10
546.8777447439961
 20
291.8060116383069
 30
0.0
 11
561.3978697439961
 21
291.8060116383069
 31
0.0
  0
LINE
  5
357
330
19
100
AcDbEntity
  8
2
100
AcDbLine
 10
551.2993176192499
 20
293.8060116383069
 30
0.0
 11
553.2993176192499
 21
291.8060116383069
 31
0.0
  0
LINE
  5
358
330
19
100
AcDbEntity
  8
4
100
AcDbLine
 10
1409.286949743997
 20
522.2060116383079
 30
0.0
 11
1423.807074743998
 21
522.2060116383079
 31
0.0
  0
LINE
  5
359
330
19
100
AcDbEntity
  8
4
100
AcDbLine
 10
1410.036949743997
 20
530.2060116383079
 30
0.0
 11
1423.036949743997
 21
530.2060116383079
 31
0.0
  0
LINE
  5
35A
330
19
100
AcDbEntity
  8
4
100
AcDbLine
 10
1423.786949743997
 20
522.2060116383079
 30
0.0
 11
1423.786949743997
 21
520.2060116383079
 31
0.0
  0
LINE
  5
35B
330
19
100
AcDbEntity
  8
4
100
AcDbLine
 10
1423.036949743997
 20
530.2060116383079
 30
0.0
 11
1423.036949743997
 21
522.2060116383079
 31
0.0
  0
LINE
  5
35C
330
19
100
AcDbEntity
  8
4
100
AcDbLine
 10
1410.036949743997
 20
530.2060116383079
 30
0.0
 11
1410.036949743997
 21
522.2060116383079
 31
0.0
  0
LINE
  5
35D
330
19
100
AcDbEntity
  8
2
100
AcDbLine
 10
1413.708522619251
 20
520.2060116383079
 30
0.0
 11
1415.708522619251
 21
522.2060116383079
 31
0.0
  0
LINE
  5
35E
330
19
100
AcDbEntity
  8
4
100
AcDbLine
 10
1409.286949743997
 20
522.2060116383079
 30
0.0
 11
1409.286949743997
 21
520.2060116383079
 31
0.0
  0
LINE
  5
35F
330
19
100
AcDbEntity
  8
2
100
AcDbLine
 10
1416.536949743997
 20
520.2060116383079
 30
0.0
 11
1418.536949743997
 21
522.2060116383079
 31
0.0
  0
LINE
  5
360
330
19
100
AcDbEntity
  8
L-CENTER
 48
3.0
100
AcDbLine
 10
1416.536949743997
 20
533.518381638308
 30
0.0
 11
1416.536949743997
 21
492.7329442216596
 31
0.0
  0
LINE
  5
361
330
19
100
AcDbEntity
  8
2
100
AcDbLine
 10
1519.067439743998
 20
520.2060116383079
 30
0.0
 11
1517.067439743998
 21
522.2060116383079
 31
0.0
  0
LINE
  5
362
330
19
100
AcDbEntity
  8
4
100
AcDbLine
 10
1525.567439743998
 20
530.2060116383079
 30
0.0
 11
1512.567439743998
 21
530.2060116383079
 31
0.0
  0
LINE
  5
363
330
19
100
AcDbEntity
  8
4
100
AcDbLine
 10
1526.317439743998
 20
522.2060116383079
 30
0.0
 11
1511.797314743997
 21
522.2060116383079
 31
0.0
  0
LINE
  5
364
330
19
100
AcDbEntity
  8
4
100
AcDbLine
 10
1526.317439743998
 20
522.2060116383079
 30
0.0
 11
1526.317439743998
 21
520.2060116383079
 31
0.0
  0
LINE
  5
365
330
19
100
AcDbEntity
  8
2
100
AcDbLine
 10
1521.895866868744
 20
520.2060116383079
 30
0.0
 11
1519.895866868744
 21
522.2060116383079
 31
0.0
  0
LINE
  5
366
330
19
100
AcDbEntity
  8
4
100
AcDbLine
 10
1525.567439743998
 20
530.2060116383079
 30
0.0
 11
1525.567439743998
 21
522.2060116383079
 31
0.0
  0
LINE
  5
367
330
19
100
AcDbEntity
  8
4
100
AcDbLine
 10
1512.567439743998
 20
530.2060116383079
 30
0.0
 11
1512.567439743998
 21
522.2060116383079
 31
0.0
  0
LINE
  5
368
330
19
100
AcDbEntity
  8
4
100
AcDbLine
 10
1511.817439743998
 20
522.2060116383079
 30
0.0
 11
1511.817439743998
 21
520.2060116383079
 31
0.0
  0
LINE
  5
369
330
19
100
AcDbEntity
  8
L-CENTER
 48
3.0
100
AcDbLine
 10
1519.067439743998
 20
533.518381638308
 30
0.0
 11
1519.067439743998
 21
492.7329442216596
 31
0.0
  0
LINE
  5
36A
330
19
100
AcDbEntity
  8
4
100
AcDbLine
 10
1512.567439743998
 20
283.8060116383068
 30
0.0
 11
1512.567439743998
 21
291.8060116383069
 31
0.0
  0
LINE
  5
36B
330
19
100
AcDbEntity
  8
4
100
AcDbLine
 10
1511.817439743998
 20
291.8060116383069
 30
0.0
 11
1511.817439743998
 21
293.8060116383069
 31
0.0
  0
LINE
  5
36C
330
19
100
AcDbEntity
  8
4
100
AcDbLine
 10
1512.567439743998
 20
283.8060116383068
 30
0.0
 11
1525.567439743998
 21
283.8060116383068
 31
0.0
  0
LINE
  5
36D
330
19
100
AcDbEntity
  8
4
100
AcDbLine
 10
1511.817439743998
 20
291.8060116383069
 30
0.0
 11
1526.337564743998
 21
291.8060116383069
 31
0.0
  0
LINE
  5
36E
330
19
100
AcDbEntity
  8
4
100
AcDbLine
 10
1525.567439743998
 20
283.8060116383068
 30
0.0
 11
1525.567439743998
 21
291.8060116383069
 31
0.0
  0
LINE
  5
36F
330
19
100
AcDbEntity
  8
4
100
AcDbLine
 10
1526.317439743998
 20
291.8060116383068
 30
0.0
 11
1526.317439743998
 21
293.806011638307
 31
0.0
  0
LINE
  5
370
330
19
100
AcDbEntity
  8
L-CENTER
 48
3.0
100
AcDbLine
 10
1519.067439743998
 20
280.4936416383067
 30
0.0
 11
1519.067439743998
 21
318.9730520753056
 31
0.0
  0
LINE
  5
371
330
19
100
AcDbEntity
  8
4
100
AcDbLine
 10
1423.786949743997
 20
291.8060116383069
 30
0.0
 11
1409.266824743997
 21
291.8060116383069
 31
0.0
  0
LINE
  5
372
330
19
100
AcDbEntity
  8
4
100
AcDbLine
 10
1423.036949743997
 20
283.8060116383068
 30
0.0
 11
1410.036949743997
 21
283.8060116383068
 31
0.0
  0
LINE
  5
373
330
19
100
AcDbEntity
  8
4
100
AcDbLine
 10
1423.786949743997
 20
291.8060116383069
 30
0.0
 11
1423.786949743997
 21
293.8060116383069
 31
0.0
  0
LINE
  5
374
330
19
100
AcDbEntity
  8
4
100
AcDbLine
 10
1423.036949743997
 20
283.8060116383068
 30
0.0
 11
1423.036949743997
 21
291.8060116383069
 31
0.0
  0
LINE
  5
375
330
19
100
AcDbEntity
  8
4
100
AcDbLine
 10
1409.286949743997
 20
291.8060116383068
 30
0.0
 11
1409.286949743997
 21
293.806011638307
 31
0.0
  0
LINE
  5
376
330
19
100
AcDbEntity
  8
4
100
AcDbLine
 10
1410.036949743997
 20
283.8060116383068
 30
0.0
 11
1410.036949743997
 21
291.8060116383069
 31
0.0
  0
LINE
  5
377
330
19
100
AcDbEntity
  8
L-CENTER
 48
3.0
100
AcDbLine
 10
1416.536949743997
 20
280.4936416383067
 30
0.0
 11
1416.536949743997
 21
318.9730520753056
 31
0.0
  0
CIRCLE
  5
378
330
19
100
AcDbEntity
  8
4
100
AcDbCircle
 10
451.5970062203942
 20
1117.267443382855
 30
0.0
 40
7.25
  0
CIRCLE
  5
379
330
19
100
AcDbEntity
  8
4
100
AcDbCircle
 10
451.5970062203942
 20
1117.267443382855
 30
0.0
 40
6.5
  0
LINE
  5
37A
330
19
100
AcDbEntity
  8
2
100
AcDbLine
 10
449.1475164776107
 20
1119.716933125639
 30
0.0
 11
452.4935816925622
 21
1120.613508597807
 31
0.0
  0
LINE
  5
37B
330
19
100
AcDbEntity
  8
2
100
AcDbLine
 10
450.7004307482257
 20
1113.921378167904
 30
0.0
 11
454.0464959631768
 21
1114.817953640072
 31
0.0
  0
LINE
  5
37C
330
19
100
AcDbEntity
  8
2
100
AcDbLine
 10
452.4935816925622
 20
1120.613508597807
 30
0.0
 11
454.9430714353452
 21
1118.164018855024
 31
0.0
  0
LINE
  5
37D
330
19
100
AcDbEntity
  8
2
100
AcDbLine
 10
448.2509410054427
 20
1116.370867910687
 30
0.0
 11
450.7004307482257
 21
1113.921378167904
 31
0.0
  0
LINE
  5
37E
330
19
100
AcDbEntity
  8
2
100
AcDbLine
 10
449.1475164776107
 20
1119.716933125639
 30
0.0
 11
448.2509410054427
 21
1116.370867910687
 31
0.0
  0
LINE
  5
37F
330
19
100
AcDbEntity
  8
2
100
AcDbLine
 10
454.9430714353452
 20
1118.164018855024
 30
0.0
 11
454.0464959631768
 21
1114.817953640072
 31
0.0
  0
LINE
  5
380
330
19
100
AcDbEntity
  8
L-CENTER
 48
3.0
100
AcDbLine
 10
564.0006588454121
 20
1127.140612735824
 30
0.0
 11
544.2543201394756
 21
1107.394274029886
 31
0.0
  0
CIRCLE
  5
381
330
19
100
AcDbEntity
  8
4
100
AcDbCircle
 10
554.127489492444
 20
1117.267443382855
 30
0.0
 40
6.5
  0
CIRCLE
  5
382
330
19
100
AcDbEntity
  8
4
100
AcDbCircle
 10
554.127489492444
 20
1117.267443382855
 30
0.0
 40
7.25
  0
LINE
  5
383
330
19
100
AcDbEntity
  8
2
100
AcDbLine
 10
556.5769792352271
 20
1119.716933125639
 30
0.0
 11
557.4735547073956
 21
1116.370867910687
 31
0.0
  0
LINE
  5
384
330
19
100
AcDbEntity
  8
2
100
AcDbLine
 10
557.4735547073956
 20
1116.370867910687
 30
0.0
 11
555.0240649646121
 21
1113.921378167904
 31
0.0
  0
LINE
  5
385
330
19
100
AcDbEntity
  8
2
100
AcDbLine
 10
556.5769792352271
 20
1119.716933125639
 30
0.0
 11
553.2309140202756
 21
1120.613508597807
 31
0.0
  0
LINE
  5
386
330
19
100
AcDbEntity
  8
2
100
AcDbLine
 10
555.0240649646121
 20
1113.921378167904
 30
0.0
 11
551.677999749661
 21
1114.817953640072
 31
0.0
  0
LINE
  5
387
330
19
100
AcDbEntity
  8
2
100
AcDbLine
 10
550.7814242774925
 20
1118.164018855024
 30
0.0
 11
551.677999749661
 21
1114.817953640072
 31
0.0
  0
LINE
  5
388
330
19
100
AcDbEntity
  8
2
100
AcDbLine
 10
553.2309140202756
 20
1120.613508597807
 30
0.0
 11
550.7814242774925
 21
1118.164018855024
 31
0.0
  0
CIRCLE
  5
389
330
19
100
AcDbEntity
  8
4
100
AcDbCircle
 10
451.5970062203942
 20
1014.736960110806
 30
0.0
 40
6.5
  0
CIRCLE
  5
38A
330
19
100
AcDbEntity
  8
4
100
AcDbCircle
 10
451.5970062203942
 20
1014.736960110806
 30
0.0
 40
7.25
  0
LINE
  5
38B
330
19
100
AcDbEntity
  8
2
100
AcDbLine
 10
449.1475164776107
 20
1012.287470368022
 30
0.0
 11
448.2509410054427
 21
1015.633535582974
 31
0.0
  0
LINE
  5
38C
330
19
100
AcDbEntity
  8
2
100
AcDbLine
 10
448.2509410054427
 20
1015.633535582974
 30
0.0
 11
450.7004307482257
 21
1018.083025325757
 31
0.0
  0
LINE
  5
38D
330
19
100
AcDbEntity
  8
2
100
AcDbLine
 10
449.1475164776107
 20
1012.287470368022
 30
0.0
 11
452.4935816925622
 21
1011.390894895854
 31
0.0
  0
LINE
  5
38E
330
19
100
AcDbEntity
  8
2
100
AcDbLine
 10
450.7004307482257
 20
1018.083025325757
 30
0.0
 11
454.0464959631768
 21
1017.186449853589
 31
0.0
  0
LINE
  5
38F
330
19
100
AcDbEntity
  8
2
100
AcDbLine
 10
454.9430714353452
 20
1013.840384638637
 30
0.0
 11
454.0464959631768
 21
1017.186449853589
 31
0.0
  0
LINE
  5
390
330
19
100
AcDbEntity
  8
2
100
AcDbLine
 10
452.4935816925622
 20
1011.390894895854
 30
0.0
 11
454.9430714353452
 21
1013.840384638637
 31
0.0
  0
LINE
  5
391
330
19
100
AcDbEntity
  8
L-CENTER
 48
3.0
100
AcDbLine
 10
441.7238368674257
 20
1004.863790757837
 30
0.0
 11
461.4701755733627
 21
1024.610129463775
 31
0.0
  0
LINE
  5
392
330
19
100
AcDbEntity
  8
L-CENTER
 48
3.0
100
AcDbLine
 10
564.0006588454121
 20
1004.863790757837
 30
0.0
 11
544.2543201394756
 21
1024.610129463775
 31
0.0
  0
CIRCLE
  5
393
330
19
100
AcDbEntity
  8
4
100
AcDbCircle
 10
554.127489492444
 20
1014.736960110806
 30
0.0
 40
7.25
  0
CIRCLE
  5
394
330
19
100
AcDbEntity
  8
4
100
AcDbCircle
 10
554.127489492444
 20
1014.736960110806
 30
0.0
 40
6.5
  0
LINE
  5
395
330
19
100
AcDbEntity
  8
2
100
AcDbLine
 10
553.2309140202756
 20
1011.390894895854
 30
0.0
 11
550.7814242774925
 21
1013.840384638637
 31
0.0
  0
LINE
  5
396
330
19
100
AcDbEntity
  8
2
100
AcDbLine
 10
550.7814242774925
 20
1013.840384638637
 30
0.0
 11
551.677999749661
 21
1017.186449853589
 31
0.0
  0
LINE
  5
397
330
19
100
AcDbEntity
  8
2
100
AcDbLine
 10
555.0240649646121
 20
1018.083025325757
 30
0.0
 11
551.677999749661
 21
1017.186449853589
 31
0.0
  0
LINE
  5
398
330
19
100
AcDbEntity
  8
2
100
AcDbLine
 10
556.5769792352271
 20
1012.287470368022
 30
0.0
 11
553.2309140202756
 21
1011.390894895854
 31
0.0
  0
LINE
  5
399
330
19
100
AcDbEntity
  8
2
100
AcDbLine
 10
557.4735547073956
 20
1015.633535582974
 30
0.0
 11
555.0240649646121
 21
1018.083025325757
 31
0.0
  0
LINE
  5
39A
330
19
100
AcDbEntity
  8
2
100
AcDbLine
 10
556.5769792352271
 20
1012.287470368022
 30
0.0
 11
557.4735547073956
 21
1015.633535582974
 31
0.0
  0
TEXT
  5
447
330
19
100
AcDbEntity
  8
3
100
AcDbText
 10
955.3848328891174
 20
122.7929142009024
 30
0.0
 40
15.0
  1
LDC6-02
  7
KANJI
 72
     1
 11
1004.134832889117
 21
122.7929142009024
 31
0.0
100
AcDbText
  0
LINE
  5
545
330
19
100
AcDbEntity
  8
4
100
AcDbLine
 10
1358.802194743997
 20
505.0351116383074
 30
0.0
 11
1358.802194743997
 21
506.5351116383074
 31
0.0
  0
LINE
  5
546
330
19
100
AcDbEntity
  8
4
100
AcDbLine
 10
1359.802194743997
 20
513.5351116383074
 30
0.0
 11
1359.802194743997
 21
506.5351116383074
 31
0.0
  0
LINE
  5
547
330
19
100
AcDbEntity
  8
4
100
AcDbLine
 10
1326.802194743997
 20
505.0351116383074
 30
0.0
 11
1326.802194743997
 21
506.5351116383074
 31
0.0
  0
LINE
  5
548
330
19
100
AcDbEntity
  8
4
100
AcDbLine
 10
1325.802194743997
 20
513.5351116383074
 30
0.0
 11
1359.802194743997
 21
513.5351116383074
 31
0.0
  0
LINE
  5
549
330
19
100
AcDbEntity
  8
4
100
AcDbLine
 10
1325.802194743997
 20
509.5351116383079
 30
0.0
 11
1359.802194743997
 21
509.5351116383079
 31
0.0
  0
LINE
  5
54A
330
19
100
AcDbEntity
  8
4
100
AcDbLine
 10
1325.802194743997
 20
506.5351116383074
 30
0.0
 11
1359.802194743997
 21
506.5351116383074
 31
0.0
  0
LINE
  5
54B
330
19
100
AcDbEntity
  8
4
100
AcDbLine
 10
1325.802194743997
 20
506.5351116383074
 30
0.0
 11
1325.802194743997
 21
513.5351116383074
 31
0.0
  0
LINE
  5
54C
330
19
100
AcDbEntity
  8
4
100
AcDbLine
 10
1334.302194743997
 20
509.5351116383079
 30
0.0
 11
1334.302194743997
 21
513.5351116383074
 31
0.0
  0
LINE
  5
54D
330
19
100
AcDbEntity
  8
4
100
AcDbLine
 10
1351.302194743997
 20
509.5351116383079
 30
0.0
 11
1351.302194743997
 21
513.5351116383074
 31
0.0
  0
LINE
  5
54E
330
19
100
AcDbEntity
  8
4
100
AcDbLine
 10
1362.802194743997
 20
504.2060116383075
 30
0.0
 11
1362.802194743997
 21
505.0351116383074
 31
0.0
  0
LINE
  5
54F
330
19
100
AcDbEntity
  8
4
100
AcDbLine
 10
1322.802194743997
 20
504.2060116383075
 30
0.0
 11
1322.802194743997
 21
505.0351116383074
 31
0.0
  0
LINE
  5
550
330
19
100
AcDbEntity
  8
4
100
AcDbLine
 10
1322.802194743997
 20
505.0351116383074
 30
0.0
 11
1362.802194743997
 21
505.0351116383074
 31
0.0
  0
LINE
  5
551
330
19
100
AcDbEntity
  8
L-CENTER
 48
3.0
100
AcDbLine
 10
1342.802194743997
 20
518.0053416383073
 30
0.0
 11
1342.802194743997
 21
494.4096616383072
 31
0.0
  0
LINE
  5
552
330
19
100
AcDbEntity
  8
L-CENTER
 48
3.0
100
AcDbLine
 10
546.3673797439974
 20
941.0022017468305
 30
0.0
 11
606.3673797439974
 21
941.0022017468305
 31
0.0
  0
CIRCLE
  5
553
330
19
100
AcDbEntity
  8
4
100
AcDbCircle
 10
576.3673797439969
 20
941.0022017468305
 30
0.0
 40
20.0
  0
CIRCLE
  5
554
330
19
100
AcDbEntity
  8
4
100
AcDbCircle
 10
576.3673797439965
 20
941.0022017468305
 30
0.0
 40
17.0
  0
LWPOLYLINE
  5
555
330
19
100
AcDbEntity
  8
4
100
AcDbPolyline
 90
        6
 70
     1
 43
0.0
 10
576.3673797439965
 20
958.0022017468305
 10
561.6449478796608
 20
949.5022017468305
 10
561.6449478796608
 20
932.5022017468305
 10
576.3673797439965
 20
924.0022017468305
 10
591.0898116083317
 20
932.5022017468305
 10
591.0898116083317
 20
949.5022017468305
  0
LINE
  5
556
330
19
100
AcDbEntity
  8
4
100
AcDbLine
 10
592.3673797439961
 20
505.0351116383074
 30
0.0
 11
592.3673797439961
 21
506.5351116383074
 31
0.0
  0
LINE
  5
557
330
19
100
AcDbEntity
  8
4
100
AcDbLine
 10
593.3673797439961
 20
509.5351116383079
 30
0.0
 11
593.3673797439961
 21
506.5351116383074
 31
0.0
  0
LINE
  5
558
330
19
100
AcDbEntity
  8
4
100
AcDbLine
 10
560.3673797439961
 20
505.0351116383074
 30
0.0
 11
560.3673797439961
 21
506.5351116383074
 31
0.0
  0
LINE
  5
559
330
19
100
AcDbEntity
  8
4
100
AcDbLine
 10
561.6449478796608
 20
513.5351116383074
 30
0.0
 11
563.867379743996
 21
513.5351116383074
 31
0.0
  0
LINE
  5
55A
330
19
100
AcDbEntity
  8
4
100
AcDbLine
 10
588.867379743996
 20
513.5351116383074
 30
0.0
 11
591.0898116083317
 21
513.5351116383074
 31
0.0
  0
LINE
  5
55B
330
19
100
AcDbEntity
  8
4
100
AcDbLine
 10
559.3673797439961
 20
509.5351116383079
 30
0.0
 11
563.867379743996
 21
509.5351116383079
 31
0.0
  0
LINE
  5
55C
330
19
100
AcDbEntity
  8
4
100
AcDbLine
 10
588.867379743996
 20
509.5351116383079
 30
0.0
 11
593.3673797439961
 21
509.5351116383079
 31
0.0
  0
LINE
  5
55D
330
19
100
AcDbEntity
  8
4
100
AcDbLine
 10
559.3673797439961
 20
506.5351116383074
 30
0.0
 11
563.867379743996
 21
506.5351116383074
 31
0.0
  0
LINE
  5
55E
330
19
100
AcDbEntity
  8
4
100
AcDbLine
 10
588.867379743996
 20
506.5351116383074
 30
0.0
 11
593.3673797439961
 21
506.5351116383074
 31
0.0
  0
LINE
  5
55F
330
19
100
AcDbEntity
  8
4
100
AcDbLine
 10
559.3673797439961
 20
506.5351116383074
 30
0.0
 11
559.3673797439961
 21
509.5351116383079
 31
0.0
  0
LINE
  5
560
330
19
100
AcDbEntity
  8
4
100
AcDbLine
 10
596.3673797439961
 20
504.2060116383075
 30
0.0
 11
596.3673797439961
 21
505.0351116383074
 31
0.0
  0
LINE
  5
561
330
19
100
AcDbEntity
  8
4
100
AcDbLine
 10
556.3673797439961
 20
504.2060116383075
 30
0.0
 11
556.3673797439961
 21
505.0351116383074
 31
0.0
  0
LINE
  5
562
330
19
100
AcDbEntity
  8
4
100
AcDbLine
 10
556.3673797439961
 20
505.0351116383074
 30
0.0
 11
596.3673797439961
 21
505.0351116383074
 31
0.0
  0
LINE
  5
563
330
19
100
AcDbEntity
  8
4
100
AcDbLine
 10
561.6449478796608
 20
513.5351116383074
 30
0.0
 11
561.6449478796608
 21
509.5351116383079
 31
0.0
  0
LINE
  5
564
330
19
100
AcDbEntity
  8
4
100
AcDbLine
 10
591.0898116083317
 20
509.5351116383079
 30
0.0
 11
591.0898116083317
 21
513.5351116383074
 31
0.0
  0
LINE
  5
5CF
330
19
100
AcDbEntity
  8
4
100
AcDbLine
 10
546.8777447439961
 20
293.2060116383079
 30
0.0
 11
466.367379743996
 21
293.2060116383074
 31
0.0
  0
LINE
  5
5D0
330
19
100
AcDbEntity
  8
4
100
AcDbLine
 10
535.3624997439961
 20
281.2060116383075
 30
0.0
 11
470.3624997439961
 21
281.2060116383075
 31
0.0
  0
LINE
  5
5D1
330
19
100
AcDbEntity
  8
4
100
AcDbLine
 10
470.3624997439961
 20
293.2060116383079
 30
0.0
 11
470.3624997439961
 21
281.2060116383075
 31
0.0
  0
LINE
  5
5D2
330
19
100
AcDbEntity
  8
4
100
AcDbLine
 10
535.3624997439961
 20
293.2060116383079
 30
0.0
 11
535.3624997439961
 21
281.2060116383075
 31
0.0
  0
LINE
  5
5D3
330
19
100
AcDbEntity
  8
4
100
AcDbLine
 10
1423.786949743998
 20
293.6060116383076
 30
0.0
 11
1511.817439743998
 21
293.606011638308
 31
0.0
  0
LINE
  5
5D4
330
19
100
AcDbEntity
  8
4
100
AcDbLine
 10
1435.302194743997
 20
293.6060116383076
 30
0.0
 11
1435.302194743997
 21
281.2060116383075
 31
0.0
  0
LINE
  5
5D5
330
19
100
AcDbEntity
  8
4
100
AcDbLine
 10
1500.302194743997
 20
293.6060116383076
 30
0.0
 11
1500.302194743997
 21
281.2060116383075
 31
0.0
  0
LINE
  5
5D6
330
19
100
AcDbEntity
  8
4
100
AcDbLine
 10
1500.302194743997
 20
281.2060116383075
 30
0.0
 11
1435.302194743997
 21
281.2060116383075
 31
0.0
  0
ARC
  5
5D7
330
19
100
AcDbEntity
  8
4
100
AcDbCircle
 10
502.8624997439961
 20
262.2060116383075
 30
0.0
 40
9.0
100
AcDbArc
 50
0.0
 51
180.0
  0
LINE
  5
5D8
330
19
100
AcDbEntity
  8
4
100
AcDbLine
 10
493.8624997439961
 20
161.2060116383075
 30
0.0
 11
493.8624997439961
 21
262.2060116383075
 31
0.0
  0
LINE
  5
5D9
330
19
100
AcDbEntity
  8
4
100
AcDbLine
 10
511.8624997439961
 20
161.2060116383075
 30
0.0
 11
511.8624997439961
 21
262.2060116383075
 31
0.0
  0
LINE
  5
5DA
330
19
100
AcDbEntity
  8
4
100
AcDbLine
 10
472.8624997439961
 20
161.2060116383075
 30
0.0
 11
471.8624997439961
 21
162.2060116383075
 31
0.0
  0
LINE
  5
5DB
330
19
100
AcDbEntity
  8
4
100
AcDbLine
 10
471.8624997439961
 20
162.2060116383075
 30
0.0
 11
471.8624997439961
 21
281.2060116383075
 31
0.0
  0
LINE
  5
5DC
330
19
100
AcDbEntity
  8
4
100
AcDbLine
 10
532.8624997439961
 20
161.2060116383075
 30
0.0
 11
533.8624997439961
 21
162.2060116383075
 31
0.0
  0
LINE
  5
5DD
330
19
100
AcDbEntity
  8
4
100
AcDbLine
 10
532.8624997439961
 20
161.2060116383075
 30
0.0
 11
472.8624997439961
 21
161.2060116383075
 31
0.0
  0
LINE
  5
5DE
330
19
100
AcDbEntity
  8
4
100
AcDbLine
 10
533.8624997439961
 20
162.2060116383075
 30
0.0
 11
533.8624997439961
 21
281.2060116383075
 31
0.0
  0
LINE
  5
5DF
330
19
100
AcDbEntity
  8
4
100
AcDbLine
 10
471.8624997439961
 20
162.2060116383075
 30
0.0
 11
493.8624997439961
 21
162.2060116383075
 31
0.0
  0
LINE
  5
5E0
330
19
100
AcDbEntity
  8
4
100
AcDbLine
 10
533.8624997439961
 20
162.2060116383075
 30
0.0
 11
511.8624997439961
 21
162.2060116383075
 31
0.0
  0
LINE
  5
5E1
330
19
100
AcDbEntity
  8
4
100
AcDbLine
 10
1437.802194743997
 20
161.2060116383075
 30
0.0
 11
1436.802194743997
 21
162.2060116383075
 31
0.0
  0
LINE
  5
5E2
330
19
100
AcDbEntity
  8
4
100
AcDbLine
 10
1436.802194743997
 20
162.2060116383075
 30
0.0
 11
1436.802194743997
 21
281.2060116383075
 31
0.0
  0
LINE
  5
5E3
330
19
100
AcDbEntity
  8
4
100
AcDbLine
 10
1497.802194743997
 20
161.2060116383075
 30
0.0
 11
1498.802194743997
 21
162.2060116383075
 31
0.0
  0
LINE
  5
5E4
330
19
100
AcDbEntity
  8
4
100
AcDbLine
 10
1498.802194743997
 20
162.2060116383075
 30
0.0
 11
1498.802194743997
 21
281.2060116383075
 31
0.0
  0
LINE
  5
5E5
330
19
100
AcDbEntity
  8
4
100
AcDbLine
 10
1436.802194743997
 20
162.2060116383075
 30
0.0
 11
1498.802194743997
 21
162.2060116383075
 31
0.0
  0
LINE
  5
5E6
330
19
100
AcDbEntity
  8
4
100
AcDbLine
 10
1436.802194743997
 20
272.2060116383075
 30
0.0
 11
1430.802194743997
 21
272.2060116383075
 31
0.0
  0
LINE
  5
5E7
330
19
100
AcDbEntity
  8
4
100
AcDbLine
 10
1430.802194743997
 20
272.2060116383075
 30
0.0
 11
1430.802194743997
 21
161.2060116383075
 31
0.0
  0
LINE
  5
5E8
330
19
100
AcDbEntity
  8
4
100
AcDbLine
 10
1430.802194743997
 20
161.2060116383075
 30
0.0
 11
1497.802194743997
 21
161.2060116383075
 31
0.0
  0
CIRCLE
  5
608
330
19
100
AcDbEntity
  8
4
100
AcDbCircle
 10
502.8622478564189
 20
1066.00220174683
 30
0.0
 40
60.0
  0
LINE
  5
62A
330
19
100
AcDbEntity
  8
4
100
AcDbLine
 10
511.8624997439961
 20
102.6856422405801
 30
0.0
 11
493.8624997439961
 21
102.6856422405801
 31
0.0
  0
LINE
  5
62B
330
19
100
AcDbEntity
  8
4
100
AcDbLine
 10
511.8624997439961
 20
90.68564224058014
 30
0.0
 11
493.8624997439961
 21
90.68564224058014
 31
0.0
  0
LINE
  5
62C
330
19
100
AcDbEntity
  8
4
100
AcDbLine
 10
511.8624997439961
 20
90.68564224058014
 30
0.0
 11
511.8624997439961
 21
102.6856422405801
 31
0.0
  0
LINE
  5
62D
330
19
100
AcDbEntity
  8
4
100
AcDbLine
 10
493.8624997439961
 20
102.6856422405801
 30
0.0
 11
493.8624997439961
 21
90.68564224058014
 31
0.0
  0
LINE
  5
62E
330
19
100
AcDbEntity
  8
L-CENTER
 48
3.0
100
AcDbLine
 10
502.8624997439961
 20
21.57659708924916
 30
0.0
 11
502.8624997439961
 21
109.7946873919113
 31
0.0
  0
ARC
  5
630
330
19
100
AcDbEntity
  8
4
100
AcDbCircle
 10
502.8624997439961
 20
65.68564224058014
 30
0.0
 40
31.0
100
AcDbArc
 50
106.8772694386292
 51
73.12273099999985
  0
LINE
  5
631
330
19
100
AcDbEntity
  8
L-CENTER
 48
3.0
100
AcDbLine
 10
546.9715448953275
 20
65.68564224058014
 30
0.0
 11
458.7534545926646
 21
65.68564224058014
 31
0.0
  0
ENDSEC
  0
SECTION
  2
OBJECTS
  0
DICTIONARY
  5
9
330
0
100
AcDbDictionary
281
     1
  3
ACAD_COLOR
350
2F
  3
ACAD_GROUP
350
2D
  3
ACAD_LAYOUT
350
22
  3
ACAD_MATERIAL
350
B
  3
ACAD_MLEADERSTYLE
350
570
  3
ACAD_MLINESTYLE
350
17
  3
ACAD_PLOTSETTINGS
350
2E
  3
ACAD_PLOTSTYLENAME
350
8
  3
ACAD_SCALELIST
350
36
  3
ACAD_TABLESTYLE
350
56F
  3
ACAD_VISUALSTYLE
350
30
  3
ACDBHEADERROUNDTRIPXREC
350
634
  3
AcDbVariableDictionary
350
56D
  3
DWGPROPS
350
637
  0
DICTIONARY
  5
638
330
2C
100
AcDbDictionary
280
     1
281
     1
  3
ACAD_XREC_ROUNDTRIP
360
639
  0
DICTIONARY
  5
3
330
2
100
AcDbDictionary
280
     1
281
     1
  3
ACAD_LAYERSTATES
360
4
  0
DICTIONARY
  5
1E
330
1D
100
AcDbDictionary
280
     1
281
     1
  3
ADSK_XREC_LAYER_RECONCILED
360
1F
  0
DICTIONARY
  5
459
330
458
100
AcDbDictionary
280
     1
281
     1
  3
ADSK_XREC_LAYER_RECONCILED
360
45A
  0
DICTIONARY
  5
5
330
1
100
AcDbDictionary
280
     1
281
     1
  3
ADSK_XREC_LAYER_RECONCILED
360
6
  0
DICTIONARY
  5
6C
330
6B
100
AcDbDictionary
280
     1
281
     1
  3
ADSK_XREC_LAYER_RECONCILED
360
6D
  0
DICTIONARY
  5
145
330
144
100
AcDbDictionary
280
     1
281
     1
  3
ADSK_XREC_LAYER_RECONCILED
360
146
  0
DICTIONARY
  5
1A1
330
1A0
100
AcDbDictionary
280
     1
281
     1
  3
ADSK_XREC_LAYER_RECONCILED
360
1A2
  0
DICTIONARY
  5
1A
330
19
100
AcDbDictionary
280
     1
281
     1
  3
ACAD_SORTENTS
360
1B
  0
DICTIONARY
  5
2F
102
{ACAD_REACTORS
330
9
102
}
330
9
100
AcDbDictionary
281
     1
  0
DICTIONARY
  5
2D
102
{ACAD_REACTORS
330
9
102
}
330
9
100
AcDbDictionary
281
     1
  0
DICTIONARY
  5
22
102
{ACAD_REACTORS
330
9
102
}
330
9
100
AcDbDictionary
281
     1
  3
Model
350
21
  3
ﾚｲｱｳﾄ1
350
29
  0
DICTIONARY
  5
B
102
{ACAD_REACTORS
330
9
102
}
330
9
100
AcDbDictionary
281
     1
  3
ByBlock
350
69
  3
ByLayer
350
12
  3
Global
350
A
  0
DICTIONARY
  5
570
102
{ACAD_REACTORS
330
9
102
}
330
9
100
AcDbDictionary
281
     1
  3
Standard
350
58A
  0
DICTIONARY
  5
17
102
{ACAD_REACTORS
330
9
102
}
330
9
100
AcDbDictionary
281
     1
  3
STANDARD
350
16
  0
DICTIONARY
  5
2E
102
{ACAD_REACTORS
330
9
102
}
330
9
100
AcDbDictionary
281
     1
  0
ACDBDICTIONARYWDFLT
  5
8
102
{ACAD_REACTORS
330
9
102
}
330
9
100
AcDbDictionary
281
     1
  3
Normal
350
7
100
AcDbDictionaryWithDefault
340
7
  0
DICTIONARY
  5
36
102
{ACAD_REACTORS
330
9
102
}
330
9
100
AcDbDictionary
281
     1
  3
*A1
350
58
  3
*A10
350
61
  3
*A11
350
62
  3
*A12
350
63
  3
*A13
350
64
  3
*A14
350
65
  3
*A15
350
66
  3
*A16
350
67
  3
*A17
350
68
  3
*A2
350
59
  3
*A3
350
5A
  3
*A4
350
5B
  3
*A5
350
5C
  3
*A6
350
5D
  3
*A7
350
5E
  3
*A8
350
5F
  3
*A9
350
60
  0
DICTIONARY
  5
56F
102
{ACAD_REACTORS
330
9
102
}
330
9
100
AcDbDictionary
281
     1
  3
Standard
350
594
  0
DICTIONARY
  5
30
102
{ACAD_REACTORS
330
9
102
}
330
9
100
AcDbDictionary
281
     1
  3
2dWireframe
350
33
  3
Basic
350
579
  3
Brighten
350
57D
  3
ColorChange
350
581
  3
Conceptual
350
57B
  3
Dim
350
57C
  3
EdgeColorOff
350
584
  3
Facepattern
350
580
  3
Flat
350
573
  3
FlatWithEdges
350
574
  3
Gouraud
350
575
  3
GouraudWithEdges
350
576
  3
Hidden
350
578
  3
JitterOff
350
582
  3
Linepattern
350
57F
  3
OverhangOff
350
583
  3
Realistic
350
57A
  3
Shaded
350
589
  3
Shaded with edges
350
588
  3
Shades of Gray
350
585
  3
Sketchy
350
586
  3
Thicken
350
57E
  3
Wireframe
350
577
  3
X-Ray
350
587
  0
DICTIONARY
  5
634
102
{ACAD_REACTORS
330
9
102
}
330
9
100
AcDbDictionary
281
     1
  3
COLORDICT
350
635
  3
MATERIALDICT
350
636
  0
DICTIONARY
  5
56D
102
{ACAD_REACTORS
330
9
102
}
330
9
100
AcDbDictionary
281
     1
  3
CANNOSCALE
350
56E
  3
CMLEADERSTYLE
350
58C
  3
CTABLESTYLE
350
595
  3
DIMASSOC
350
632
  3
HIDETEXT
350
633
  3
MSLTSCALE
350
63A
  0
XRECORD
  5
637
102
{ACAD_REACTORS
330
9
102
}
330
9
100
AcDbXrecord
280
     1
  1
DWGPROPS COOKIE
  2

  3

  4

  6

  7

  8
sg-d03
  9

300
=
301
=
302
=
303
=
304
=
305
=
306
=
307
=
308
=
309
=
 40
0.0
 41
2449812.381805555
 42
2458115.248063252
  1

 90
        0
  0
XRECORD
  5
639
102
{ACAD_REACTORS
330
638
102
}
330
638
100
AcDbXrecord
280
     1
102
VTR_0.000_0.000_1.000_1.000_GRIDDISPLAY
 70
     3
102
VTR_0.000_0.000_1.000_1.000_GRIDMAJOR
 70
     5
102
VTR_0.000_0.000_1.000_1.000_DEFAULTLIGHTING
280
     1
102
VTR_0.000_0.000_1.000_1.000_DEFAULTLIGHTINGTYPE
 70
     1
102
VTR_0.000_0.000_1.000_1.000_BRIGHTNESS
141
0.0
102
VTR_0.000_0.000_1.000_1.000_CONTRAST
142
0.0
  0
DICTIONARY
  5
4
102
{ACAD_REACTORS
330
3
102
}
330
3
100
AcDbDictionary
281
     1
  0
XRECORD
  5
1F
102
{ACAD_REACTORS
330
1E
102
}
330
1E
100
AcDbXrecord
280
     1
290
     1
  0
XRECORD
  5
45A
102
{ACAD_REACTORS
330
459
102
}
330
459
100
AcDbXrecord
280
     1
290
     1
  0
XRECORD
  5
6
102
{ACAD_REACTORS
330
5
102
}
330
5
100
AcDbXrecord
280
     1
290
     1
  0
XRECORD
  5
6D
102
{ACAD_REACTORS
330
6C
102
}
330
6C
100
AcDbXrecord
280
     1
290
     1
  0
XRECORD
  5
146
102
{ACAD_REACTORS
330
145
102
}
330
145
100
AcDbXrecord
280
     1
290
     1
  0
XRECORD
  5
1A2
102
{ACAD_REACTORS
330
1A1
102
}
330
1A1
100
AcDbXrecord
280
     1
290
     1
  0
SORTENTSTABLE
  5
1B
102
{ACAD_REACTORS
330
1A
102
}
330
1A
100
AcDbSortentsTable
330
19
331
0
  5
12C
331
134
  5
135
331
135
  5
136
331
136
  5
137
331
137
  5
138
331
138
  5
139
331
139
  5
13A
331
13A
  5
13B
331
13B
  5
13C
331
13C
  5
13D
331
13D
  5
13E
331
13E
  5
13F
331
13F
  5
140
331
143
  5
148
331
148
  5
149
331
149
  5
14A
331
14A
  5
14B
331
14B
  5
14C
331
14C
  5
14D
331
14D
  5
14E
331
14E
  5
14F
331
14F
  5
150
331
150
  5
151
331
151
  5
152
331
152
  5
153
331
153
  5
154
331
154
  5
155
331
155
  5
156
331
156
  5
157
331
157
  5
158
331
158
  5
159
331
159
  5
15A
331
15A
  5
15B
331
15B
  5
15C
331
15C
  5
15D
331
15D
  5
15E
331
15E
  5
15F
331
15F
  5
160
331
160
  5
161
331
161
  5
162
331
162
  5
163
331
163
  5
164
331
164
  5
165
331
165
  5
166
331
166
  5
167
331
167
  5
168
331
168
  5
169
331
169
  5
16A
331
16A
  5
16B
331
16B
  5
16C
331
16C
  5
16D
331
16D
  5
16E
331
16E
  5
16F
331
16F
  5
170
331
170
  5
171
331
171
  5
172
331
172
  5
173
331
173
  5
174
331
174
  5
175
331
175
  5
176
331
176
  5
177
331
177
  5
178
331
178
  5
179
331
179
  5
17A
331
17A
  5
17B
331
17B
  5
17C
331
17C
  5
17D
331
17D
  5
17E
331
17E
  5
17F
331
17F
  5
180
331
180
  5
181
331
181
  5
182
331
182
  5
183
331
183
  5
184
331
184
  5
185
331
185
  5
186
331
186
  5
187
331
187
  5
188
331
188
  5
189
331
189
  5
18A
331
18A
  5
18B
331
18B
  5
18C
331
18C
  5
18D
331
18D
  5
18E
331
18E
  5
18F
331
18F
  5
190
331
190
  5
191
331
191
  5
192
331
192
  5
193
331
193
  5
194
331
194
  5
195
331
195
  5
196
331
196
  5
197
331
197
  5
198
331
198
  5
199
331
199
  5
19A
331
0
  5
19B
331
0
  5
19C
331
0
  5
19D
331
0
  5
19E
331
0
  5
19F
331
0
  5
1A3
331
0
  5
1A4
331
0
  5
1A5
331
0
  5
1A6
331
0
  5
1A7
331
0
  5
1A8
331
0
  5
1A9
331
0
  5
1AA
331
0
  5
1AB
331
0
  5
1AC
331
0
  5
1AD
331
0
  5
1AE
331
0
  5
1B0
331
0
  5
1B5
331
0
  5
1B6
331
0
  5
1B7
331
0
  5
1B8
331
0
  5
1B9
331
0
  5
1BA
331
0
  5
1BB
331
0
  5
1BC
331
0
  5
1BD
331
0
  5
1BE
331
0
  5
1BF
331
0
  5
1C0
331
0
  5
1C1
331
0
  5
1C2
331
0
  5
1C3
331
0
  5
1C4
331
0
  5
1C5
331
0
  5
1C6
331
0
  5
1C7
331
0
  5
1CE
331
0
  5
1CF
331
0
  5
1D0
331
0
  5
1D1
331
0
  5
1D2
331
0
  5
1D3
331
0
  5
1D4
331
0
  5
1D5
331
0
  5
1D6
331
0
  5
1D7
331
0
  5
1D8
331
0
  5
1D9
331
0
  5
1DA
331
0
  5
1DB
331
0
  5
1DC
331
0
  5
1DD
331
0
  5
1DE
331
0
  5
1DF
331
0
  5
1E0
331
0
  5
1E1
331
0
  5
1E2
331
0
  5
1E3
331
0
  5
1E4
331
0
  5
1E5
331
0
  5
1E6
331
0
  5
1E7
331
0
  5
1E8
331
0
  5
1E9
331
0
  5
1EA
331
0
  5
1EB
331
0
  5
1EC
331
0
  5
1F2
331
0
  5
1F3
331
0
  5
1F4
331
0
  5
1F5
331
0
  5
1F6
331
0
  5
1F7
331
0
  5
1F8
331
0
  5
1FE
331
0
  5
1FF
331
0
  5
200
331
0
  5
201
331
0
  5
202
331
0
  5
203
331
0
  5
204
331
0
  5
205
331
0
  5
206
331
0
  5
207
331
0
  5
208
331
0
  5
209
331
0
  5
20A
331
0
  5
20B
331
0
  5
20C
331
0
  5
213
331
0
  5
215
331
0
  5
216
331
0
  5
217
331
0
  5
218
331
0
  5
219
331
0
  5
21A
331
0
  5
21B
331
0
  5
21C
331
0
  5
21D
331
0
  5
21E
331
0
  5
220
331
0
  5
227
331
227
  5
228
331
228
  5
229
331
229
  5
22A
331
22A
  5
22B
331
22B
  5
22C
331
22C
  5
22D
331
22D
  5
22E
331
22E
  5
22F
331
22F
  5
230
331
230
  5
231
331
231
  5
232
331
232
  5
233
331
233
  5
234
331
234
  5
235
331
235
  5
236
331
236
  5
237
331
237
  5
238
331
238
  5
239
331
239
  5
23A
331
23A
  5
23B
331
23B
  5
23C
331
23C
  5
23D
331
23D
  5
23E
331
23E
  5
23F
331
23F
  5
240
331
240
  5
241
331
241
  5
242
331
242
  5
243
331
243
  5
244
331
244
  5
245
331
245
  5
246
331
246
  5
247
331
247
  5
248
331
248
  5
249
331
249
  5
24A
331
24A
  5
24B
331
24B
  5
24C
331
24C
  5
24D
331
24D
  5
24E
331
24E
  5
24F
331
24F
  5
250
331
250
  5
251
331
251
  5
252
331
252
  5
253
331
253
  5
254
331
254
  5
255
331
255
  5
256
331
256
  5
257
331
257
  5
258
331
258
  5
259
331
259
  5
25A
331
25A
  5
25B
331
25B
  5
25C
331
25C
  5
25D
331
25D
  5
25E
331
25E
  5
25F
331
25F
  5
260
331
260
  5
261
331
261
  5
262
331
262
  5
263
331
263
  5
264
331
264
  5
265
331
265
  5
266
331
266
  5
267
331
267
  5
268
331
268
  5
269
331
269
  5
26A
331
26A
  5
26B
331
26B
  5
26C
331
26C
  5
26D
331
26D
  5
26E
331
26E
  5
26F
331
26F
  5
270
331
270
  5
271
331
271
  5
272
331
272
  5
273
331
273
  5
274
331
274
  5
275
331
275
  5
276
331
276
  5
277
331
277
  5
278
331
278
  5
279
331
279
  5
27A
331
27A
  5
27B
331
27B
  5
27C
331
27C
  5
27D
331
27D
  5
27E
331
27E
  5
27F
331
27F
  5
280
331
280
  5
281
331
281
  5
282
331
283
  5
284
331
284
  5
285
331
285
  5
286
331
286
  5
287
331
287
  5
288
331
288
  5
289
331
289
  5
28A
331
28A
  5
28B
331
28B
  5
28C
331
28C
  5
28D
331
28D
  5
28E
331
28E
  5
28F
331
28F
  5
290
331
290
  5
291
331
291
  5
292
331
292
  5
293
331
293
  5
294
331
294
  5
295
331
295
  5
296
331
296
  5
297
331
297
  5
298
331
298
  5
299
331
299
  5
29A
331
29A
  5
29B
331
29B
  5
29C
331
29C
  5
29D
331
29D
  5
29E
331
29E
  5
29F
331
29F
  5
2A0
331
2A0
  5
2A1
331
2A1
  5
2A2
331
2A2
  5
2A3
331
2A3
  5
2A4
331
2A4
  5
2A5
331
2A5
  5
2A6
331
2A6
  5
2A7
331
2A7
  5
2A8
331
2A8
  5
2A9
331
2A9
  5
2AA
331
2AA
  5
2AB
331
2AB
  5
2AC
331
2AC
  5
2AD
331
2AD
  5
2AE
331
2AE
  5
2AF
331
2AF
  5
2B0
331
2B0
  5
2B1
331
2B1
  5
2B2
331
2B2
  5
2B3
331
2B3
  5
2B4
331
2B4
  5
2B5
331
2B5
  5
2B6
331
2B6
  5
2B7
331
2B7
  5
2B8
331
2B8
  5
2B9
331
2B9
  5
2BA
331
2BA
  5
2BB
331
2BB
  5
2BC
331
2BC
  5
2BD
331
2BD
  5
2BE
331
2BE
  5
2BF
331
2BF
  5
2C0
331
2C0
  5
2C1
331
2C1
  5
2C2
331
2C2
  5
2C3
331
2C3
  5
2C4
331
2C4
  5
2C5
331
2C5
  5
2C6
331
2C6
  5
2C7
331
2C7
  5
2C8
331
2C8
  5
2C9
331
2C9
  5
2CA
331
2CA
  5
2CB
331
2CB
  5
2CC
331
2CC
  5
2CD
331
2CD
  5
2CE
331
2CE
  5
2CF
331
2CF
  5
2D0
331
2D0
  5
2D1
331
2D1
  5
2D2
331
2D2
  5
2D3
331
2D3
  5
2D4
331
2D4
  5
2D5
331
2D5
  5
2D6
331
2D6
  5
2D7
331
2D7
  5
2D8
331
2D8
  5
2D9
331
2D9
  5
2DA
331
2DA
  5
2DB
331
2DB
  5
2DC
331
2DC
  5
2DD
331
2DD
  5
2DE
331
2DE
  5
2DF
331
2DF
  5
2E0
331
2E0
  5
2E1
331
2E1
  5
2E2
331
2E2
  5
2E3
331
2E3
  5
2E4
331
2E4
  5
2E5
331
2E5
  5
2E6
331
2E6
  5
2E7
331
2E7
  5
2E8
331
2E8
  5
2E9
331
2E9
  5
2EA
331
2EA
  5
2EB
331
2EB
  5
2EC
331
2EC
  5
2ED
331
2ED
  5
2EE
331
2EE
  5
2EF
331
2EF
  5
2F0
331
2F0
  5
2F1
331
2F1
  5
2F2
331
2F2
  5
2F3
331
2F3
  5
2F4
331
2F4
  5
2F5
331
2F5
  5
2F6
331
2F6
  5
2F7
331
2F7
  5
2F8
331
2F8
  5
2F9
331
2F9
  5
2FA
331
2FA
  5
2FB
331
2FB
  5
2FC
331
2FC
  5
2FD
331
2FD
  5
2FE
331
2FE
  5
2FF
331
2FF
  5
300
331
300
  5
301
331
301
  5
302
331
302
  5
303
331
303
  5
304
331
304
  5
305
331
305
  5
306
331
306
  5
307
331
307
  5
308
331
308
  5
309
331
309
  5
30A
331
30A
  5
30B
331
30B
  5
30C
331
30C
  5
30D
331
30D
  5
30E
331
30E
  5
30F
331
30F
  5
310
331
310
  5
311
331
311
  5
312
331
312
  5
313
331
313
  5
314
331
314
  5
315
331
315
  5
316
331
316
  5
317
331
317
  5
318
331
318
  5
319
331
319
  5
31A
331
31A
  5
31B
331
31B
  5
31C
331
31C
  5
31D
331
31D
  5
31E
331
31E
  5
31F
331
31F
  5
320
331
320
  5
321
331
321
  5
322
331
322
  5
323
331
323
  5
324
331
324
  5
325
331
325
  5
326
331
326
  5
327
331
327
  5
328
331
328
  5
329
331
329
  5
32A
331
32A
  5
32B
331
32B
  5
32C
331
32C
  5
32D
331
32D
  5
32E
331
32E
  5
32F
331
32F
  5
330
331
330
  5
331
331
331
  5
332
331
332
  5
333
331
333
  5
334
331
334
  5
335
331
335
  5
336
331
336
  5
337
331
337
  5
338
331
338
  5
339
331
339
  5
33A
331
33F
  5
340
331
340
  5
341
331
341
  5
342
331
342
  5
343
331
343
  5
344
331
344
  5
345
331
345
  5
346
331
346
  5
347
331
347
  5
348
331
348
  5
349
331
349
  5
34A
331
34A
  5
34B
331
34B
  5
34C
331
34C
  5
34D
331
34D
  5
34E
331
34E
  5
34F
331
34F
  5
350
331
350
  5
351
331
351
  5
352
331
352
  5
353
331
353
  5
354
331
354
  5
355
331
355
  5
356
331
356
  5
357
331
357
  5
358
331
358
  5
359
331
359
  5
35A
331
35A
  5
35B
331
35B
  5
35C
331
35C
  5
35D
331
35D
  5
35E
331
35E
  5
35F
331
35F
  5
360
331
360
  5
361
331
361
  5
362
331
362
  5
363
331
363
  5
364
331
364
  5
365
331
365
  5
366
331
366
  5
367
331
367
  5
368
331
368
  5
369
331
369
  5
36A
331
36A
  5
36B
331
36B
  5
36C
331
36C
  5
36D
331
36D
  5
36E
331
36E
  5
36F
331
36F
  5
370
331
370
  5
371
331
371
  5
372
331
372
  5
373
331
373
  5
374
331
374
  5
375
331
375
  5
376
331
376
  5
377
331
377
  5
378
331
378
  5
379
331
379
  5
37A
331
37A
  5
37B
331
37B
  5
37C
331
37C
  5
37D
331
37D
  5
37E
331
37E
  5
37F
331
37F
  5
380
331
380
  5
381
331
381
  5
382
331
382
  5
383
331
383
  5
384
331
384
  5
385
331
385
  5
386
331
386
  5
387
331
387
  5
388
331
388
  5
389
331
389
  5
38A
331
38A
  5
38B
331
38B
  5
38C
331
38C
  5
38D
331
38D
  5
38E
331
38E
  5
38F
331
38F
  5
390
331
390
  5
391
331
391
  5
392
331
392
  5
393
331
393
  5
394
331
394
  5
395
331
395
  5
396
331
396
  5
397
331
397
  5
398
331
398
  5
399
331
399
  5
39A
331
39A
  5
39B
331
0
  5
39C
331
0
  5
39D
331
0
  5
39E
331
0
  5
39F
331
0
  5
3A0
331
0
  5
3A1
331
0
  5
3A2
331
0
  5
3A3
331
0
  5
3A4
331
0
  5
3A5
331
0
  5
3A6
331
0
  5
3A7
331
0
  5
3A8
331
0
  5
3A9
331
0
  5
3AA
331
0
  5
3AB
331
0
  5
3AC
331
0
  5
3AD
331
0
  5
3AE
331
0
  5
3AF
331
0
  5
3B0
331
0
  5
3B1
331
0
  5
3B2
331
0
  5
3B3
331
0
  5
3B4
331
0
  5
3B5
331
0
  5
3B6
331
0
  5
3B7
331
0
  5
3B8
331
0
  5
3B9
331
0
  5
3BA
331
0
  5
3BB
331
0
  5
3BC
331
0
  5
3BD
331
0
  5
3BE
331
0
  5
3BF
331
0
  5
3C0
331
0
  5
3C1
331
0
  5
3C2
331
0
  5
3C3
331
0
  5
3C4
331
0
  5
3C5
331
0
  5
3C6
331
0
  5
3C7
331
0
  5
3C8
331
0
  5
3C9
331
0
  5
3CA
331
0
  5
3CB
331
0
  5
3CC
331
0
  5
3CD
331
0
  5
3CE
331
0
  5
3CF
331
0
  5
3D0
331
0
  5
3D1
331
0
  5
3D2
331
0
  5
3D3
331
0
  5
3D4
331
0
  5
3D5
331
0
  5
3D6
331
0
  5
3D7
331
0
  5
3D8
331
0
  5
3D9
331
0
  5
3DA
331
0
  5
3DB
331
0
  5
3DC
331
0
  5
3DD
331
0
  5
3DE
331
0
  5
3DF
331
0
  5
3E0
331
0
  5
3E1
331
0
  5
3E2
331
0
  5
3E3
331
0
  5
3E4
331
0
  5
3E5
331
0
  5
3E6
331
0
  5
3E7
331
0
  5
3E8
331
0
  5
3E9
331
0
  5
3EA
331
0
  5
3EB
331
0
  5
3EC
331
0
  5
3ED
331
0
  5
3EE
331
0
  5
3EF
331
0
  5
3F0
331
0
  5
3F1
331
0
  5
3F2
331
0
  5
3F3
331
0
  5
3F4
331
0
  5
3F5
331
0
  5
3F6
331
0
  5
3F7
331
0
  5
3F8
331
0
  5
3F9
331
0
  5
3FA
331
0
  5
3FB
331
0
  5
3FC
331
0
  5
3FD
331
0
  5
3FE
331
0
  5
3FF
331
0
  5
400
331
0
  5
401
331
0
  5
402
331
0
  5
403
331
0
  5
404
331
0
  5
405
331
0
  5
406
331
0
  5
407
331
0
  5
408
331
0
  5
409
331
0
  5
40A
331
0
  5
40B
331
0
  5
40C
331
0
  5
40D
331
0
  5
40E
331
0
  5
40F
331
0
  5
410
331
0
  5
411
331
0
  5
412
331
0
  5
413
331
0
  5
414
331
0
  5
415
331
0
  5
416
331
0
  5
417
331
0
  5
418
331
0
  5
419
331
0
  5
41A
331
0
  5
41B
331
0
  5
41C
331
0
  5
41D
331
0
  5
41E
331
0
  5
41F
331
0
  5
420
331
0
  5
421
331
0
  5
422
331
0
  5
423
331
0
  5
424
331
0
  5
425
331
0
  5
426
331
0
  5
427
331
0
  5
428
331
0
  5
429
331
0
  5
42A
331
0
  5
42B
331
0
  5
42C
331
0
  5
42D
331
0
  5
42E
331
0
  5
42F
331
0
  5
430
331
0
  5
431
331
0
  5
432
331
0
  5
433
331
0
  5
434
331
0
  5
435
331
0
  5
436
331
0
  5
437
331
0
  5
438
331
0
  5
439
331
0
  5
43A
331
0
  5
43B
331
0
  5
43C
331
0
  5
43D
331
0
  5
43E
331
0
  5
43F
331
0
  5
440
331
0
  5
441
331
0
  5
442
331
0
  5
443
331
0
  5
444
331
0
  5
445
331
0
  5
446
331
0
  5
447
331
447
  5
448
331
0
  5
449
331
0
  5
44A
331
0
  5
44B
331
0
  5
44C
331
0
  5
44D
331
0
  5
44E
331
0
  5
44F
331
0
  5
450
331
0
  5
451
331
0
  5
453
331
0
  5
454
331
0
  5
455
331
0
  5
456
331
0
  5
457
331
0
  5
45B
331
0
  5
45C
331
0
  5
45D
331
0
  5
45E
331
0
  5
45F
331
0
  5
460
331
0
  5
461
331
0
  5
462
331
0
  5
463
331
0
  5
464
331
0
  5
465
331
0
  5
466
331
0
  5
467
331
0
  5
468
331
0
  5
469
331
0
  5
46A
331
0
  5
46B
331
0
  5
46C
331
0
  5
46D
331
0
  5
46E
331
0
  5
46F
331
0
  5
470
331
0
  5
471
331
0
  5
472
331
0
  5
473
331
0
  5
474
331
0
  5
475
331
0
  5
476
331
0
  5
477
331
0
  5
478
331
0
  5
479
331
0
  5
47A
331
0
  5
47B
331
0
  5
47C
331
0
  5
47D
331
0
  5
47E
331
0
  5
47F
331
0
  5
480
331
0
  5
481
331
0
  5
482
331
0
  5
483
331
0
  5
484
331
0
  5
485
331
0
  5
486
331
0
  5
487
331
0
  5
488
331
0
  5
489
331
0
  5
48A
331
0
  5
48B
331
0
  5
48C
331
0
  5
48D
331
0
  5
48E
331
0
  5
48F
331
0
  5
490
331
0
  5
491
331
0
  5
492
331
0
  5
493
331
0
  5
494
331
0
  5
495
331
0
  5
496
331
0
  5
497
331
0
  5
498
331
0
  5
499
331
0
  5
49A
331
0
  5
49B
331
0
  5
49C
331
0
  5
49D
331
0
  5
49E
331
0
  5
49F
331
0
  5
4A0
331
0
  5
4A1
331
0
  5
4A2
331
0
  5
4A3
331
0
  5
4A4
331
0
  5
4A5
331
0
  5
4A6
331
0
  5
4A7
331
0
  5
4A8
331
0
  5
4A9
331
0
  5
4AA
331
0
  5
4AB
331
0
  5
4AC
331
0
  5
4AD
331
0
  5
4AE
331
0
  5
4AF
331
0
  5
4B0
331
0
  5
4B1
331
0
  5
4B2
331
0
  5
4B3
331
0
  5
4B4
331
0
  5
4B5
331
0
  5
4B6
331
0
  5
4B7
331
0
  5
4B8
331
0
  5
4B9
331
0
  5
4BA
331
0
  5
4BB
331
0
  5
4BC
331
0
  5
4BD
331
0
  5
4BE
331
0
  5
4BF
331
0
  5
4C0
331
0
  5
4C1
331
0
  5
4C2
331
0
  5
4C3
331
0
  5
4C4
331
0
  5
4C5
331
0
  5
4C6
331
0
  5
4C7
331
0
  5
4C8
331
0
  5
4C9
331
0
  5
4CA
331
0
  5
4CB
331
0
  5
4CC
331
0
  5
4CD
331
0
  5
4CE
331
0
  5
4CF
331
0
  5
4D0
331
0
  5
4D1
331
0
  5
4D2
331
0
  5
4D3
331
0
  5
4D4
331
0
  5
4D5
331
0
  5
4D6
331
0
  5
4D7
331
0
  5
4D8
331
0
  5
4D9
331
0
  5
4DA
331
0
  5
4DB
331
0
  5
4DC
331
0
  5
4DD
331
0
  5
4DE
331
0
  5
4DF
331
0
  5
4E0
331
0
  5
4E1
331
0
  5
4E2
331
0
  5
4E3
331
0
  5
4E4
331
0
  5
4E5
331
0
  5
4E6
331
0
  5
4E7
331
0
  5
4E8
331
0
  5
4E9
331
0
  5
4EA
331
0
  5
4EB
331
0
  5
4EC
331
0
  5
4ED
331
0
  5
4EE
331
0
  5
4EF
331
0
  5
4F0
331
0
  5
4F1
331
0
  5
4F2
331
0
  5
4F3
331
0
  5
4F4
331
0
  5
4F5
331
0
  5
4F6
331
0
  5
4F7
331
0
  5
4F8
331
0
  5
4F9
331
0
  5
4FA
331
0
  5
4FB
331
0
  5
4FC
331
0
  5
4FD
331
0
  5
4FE
331
0
  5
4FF
331
0
  5
500
331
0
  5
501
331
0
  5
502
331
0
  5
503
331
0
  5
504
331
0
  5
505
331
0
  5
506
331
0
  5
507
331
0
  5
508
331
0
  5
509
331
0
  5
50A
331
0
  5
50B
331
0
  5
50C
331
0
  5
50D
331
0
  5
50E
331
0
  5
50F
331
0
  5
510
331
0
  5
511
331
0
  5
512
331
0
  5
513
331
0
  5
514
331
0
  5
515
331
0
  5
516
331
0
  5
517
331
0
  5
518
331
0
  5
519
331
0
  5
51A
331
0
  5
51B
331
0
  5
51C
331
0
  5
51D
331
0
  5
51E
331
0
  5
51F
331
0
  5
520
331
0
  5
521
331
0
  5
522
331
0
  5
523
331
0
  5
524
331
0
  5
525
331
0
  5
526
331
0
  5
527
331
0
  5
528
331
0
  5
529
331
0
  5
52A
331
0
  5
52B
331
0
  5
52C
331
0
  5
52D
331
0
  5
52E
331
0
  5
52F
331
0
  5
530
331
0
  5
531
331
0
  5
532
331
0
  5
533
331
0
  5
534
331
0
  5
535
331
0
  5
536
331
0
  5
537
331
0
  5
538
331
0
  5
539
331
0
  5
53A
331
0
  5
53B
331
0
  5
53C
331
0
  5
53D
331
0
  5
53E
331
0
  5
53F
331
0
  5
540
331
0
  5
541
331
0
  5
542
331
0
  5
543
331
0
  5
544
331
0
  5
545
331
545
  5
546
331
546
  5
547
331
547
  5
548
331
548
  5
549
331
549
  5
54A
331
54A
  5
54B
331
54B
  5
54C
331
54C
  5
54D
331
54D
  5
54E
331
54E
  5
54F
331
54F
  5
550
331
550
  5
551
331
551
  5
552
331
552
  5
553
331
553
  5
554
331
554
  5
555
331
555
  5
556
331
556
  5
557
331
557
  5
558
331
558
  5
559
331
559
  5
55A
331
55A
  5
55B
331
55B
  5
55C
331
55C
  5
55D
331
55D
  5
55E
331
55E
  5
55F
331
55F
  5
560
331
560
  5
561
331
561
  5
562
331
562
  5
563
331
563
  5
564
331
564
  5
565
331
0
  5
566
331
0
  5
567
331
0
  5
56A
331
0
  5
56B
331
0
  5
56C
331
0
  5
58F
331
0
  5
590
331
0
  5
592
331
0
  5
5BE
  0
LAYOUT
  5
21
102
{ACAD_REACTORS
330
22
102
}
102
{ACAD_XDICTIONARY
360
23
102
}
330
22
100
AcDbPlotSettings
  1

  2
Bullzip PDF Printer.pc3
  4
A3
  6

 40
0.2
 41
0.0
 42
0.0
 43
0.0
 44
420.2
 45
297.1
 46
25.0
 47
12.0
 48
99.9999997666664
 49
0.0
140
2009.999995391667
141
1362.499996820833
142
1.0
143
5.0
 70
 11936
 72
     1
 73
     0
 74
     4
  7
monochrome.ctb
 75
     0
147
0.2
148
-99.9999997666664
149
0.0
100
AcDbLayout
  1
Model
 70
     0
 71
     0
 10
0.0
 20
0.0
 11
12.0
 21
9.0
 12
0.0
 22
0.0
 32
0.0
 14
302.1764969137571
 24
21.57659708924916
 34
0.0
 15
1716.577064743997
 25
1325.281792136276
 35
0.0
146
0.0
 13
0.0
 23
0.0
 33
0.0
 16
1.0
 26
0.0
 36
0.0
 17
0.0
 27
1.0
 37
0.0
 76
     0
330
19
331
32
1001
ACAD_PSEXT
1000
Bullzip PDF Printer.pc3
1000
Bullzip PDF Printer
1000
BULLZIP
1000
Bullzip PDF Printer 10.1.0.1871
1070
     0
  0
LAYOUT
  5
29
102
{ACAD_REACTORS
330
22
102
}
330
22
100
AcDbPlotSettings
  1

  2
SR-LP8300F
  4

  6

 40
0.0
 41
0.0
 42
0.0
 43
0.0
 44
0.0
 45
0.0
 46
0.0
 47
0.0
 48
0.0
 49
0.0
140
0.0
141
0.0
142
1.0
143
1.0
 70
   688
 72
     0
 73
     0
 74
     5
  7
monochrome.ctb
 75
    16
147
1.0
148
0.0
149
0.0
100
AcDbLayout
  1
ﾚｲｱｳﾄ1
 70
     0
 71
     1
 10
0.0
 20
0.0
 11
12.0
 21
9.0
 12
0.0
 22
0.0
 32
0.0
 14
1000000000000000E+20
 24
1000000000000000E+20
 34
1000000000000000E+20
 15
-1000000000000000E+20
 25
-1000000000000000E+20
 35
-1000000000000000E+20
146
0.0
 13
0.0
 23
0.0
 33
0.0
 16
1.0
 26
0.0
 36
0.0
 17
0.0
 27
1.0
 37
0.0
 76
     0
330
26
  0
MATERIAL
  5
69
102
{ACAD_REACTORS
330
B
102
}
102
{ACAD_XDICTIONARY
360
63F
102
}
330
B
100
AcDbMaterial
  1
ByBlock
 72
     0
 73
     2
 43
0.0208333333333333
 43
0.0
 43
0.0
 43
0.0
 43
0.0
 43
0.0208333333333333
 43
0.0
 43
0.0
 43
0.0
 43
0.0
 43
1.0
 43
0.0
 43
0.0
 43
0.0
 43
0.0
 43
1.0
 77
     0
 78
     2
 47
0.0208333333333333
 47
0.0
 47
0.0
 47
0.0
 47
0.0
 47
0.0208333333333333
 47
0.0
 47
0.0
 47
0.0
 47
0.0
 47
1.0
 47
0.0
 47
0.0
 47
0.0
 47
0.0
 47
1.0
171
     0
172
     2
 49
0.0208333333333333
 49
0.0
 49
0.0
 49
0.0
 49
0.0
 49
0.0208333333333333
 49
0.0
 49
0.0
 49
0.0
 49
0.0
 49
1.0
 49
0.0
 49
0.0
 49
0.0
 49
0.0
 49
1.0
175
     0
176
     2
142
0.0208333333333333
142
0.0
142
0.0
142
0.0
142
0.0
142
0.0208333333333333
142
0.0
142
0.0
142
0.0
142
0.0
142
1.0
142
0.0
142
0.0
142
0.0
142
0.0
142
1.0
179
     0
270
     2
144
0.0208333333333333
144
0.0
144
0.0
144
0.0
144
0.0
144
0.0208333333333333
144
0.0
144
0.0
144
0.0
144
0.0
144
1.0
144
0.0
144
0.0
144
0.0
144
0.0
144
1.0
274
     2
147
0.0208333333333333
147
0.0
147
0.0
147
0.0
147
0.0
147
0.0208333333333333
147
0.0
147
0.0
147
0.0
147
0.0
147
1.0
147
0.0
147
0.0
147
0.0
147
0.0
147
1.0
  0
MATERIAL
  5
12
102
{ACAD_REACTORS
330
B
102
}
102
{ACAD_XDICTIONARY
360
63B
102
}
330
B
100
AcDbMaterial
  1
ByLayer
 72
     0
 73
     2
 43
0.0208333333333333
 43
0.0
 43
0.0
 43
0.0
 43
0.0
 43
0.0208333333333333
 43
0.0
 43
0.0
 43
0.0
 43
0.0
 43
1.0
 43
0.0
 43
0.0
 43
0.0
 43
0.0
 43
1.0
 77
     0
 78
     2
 47
0.0208333333333333
 47
0.0
 47
0.0
 47
0.0
 47
0.0
 47
0.0208333333333333
 47
0.0
 47
0.0
 47
0.0
 47
0.0
 47
1.0
 47
0.0
 47
0.0
 47
0.0
 47
0.0
 47
1.0
171
     0
172
     2
 49
0.0208333333333333
 49
0.0
 49
0.0
 49
0.0
 49
0.0
 49
0.0208333333333333
 49
0.0
 49
0.0
 49
0.0
 49
0.0
 49
1.0
 49
0.0
 49
0.0
 49
0.0
 49
0.0
 49
1.0
175
     0
176
     2
142
0.0208333333333333
142
0.0
142
0.0
142
0.0
142
0.0
142
0.0208333333333333
142
0.0
142
0.0
142
0.0
142
0.0
142
1.0
142
0.0
142
0.0
142
0.0
142
0.0
142
1.0
179
     0
270
     2
144
0.0208333333333333
144
0.0
144
0.0
144
0.0
144
0.0
144
0.0208333333333333
144
0.0
144
0.0
144
0.0
144
0.0
144
1.0
144
0.0
144
0.0
144
0.0
144
0.0
144
1.0
274
     2
147
0.0208333333333333
147
0.0
147
0.0
147
0.0
147
0.0
147
0.0208333333333333
147
0.0
147
0.0
147
0.0
147
0.0
147
1.0
147
0.0
147
0.0
147
0.0
147
0.0
147
1.0
  0
MATERIAL
  5
A
102
{ACAD_REACTORS
330
B
102
}
102
{ACAD_XDICTIONARY
360
63D
102
}
330
B
100
AcDbMaterial
  1
Global
 72
     0
 73
     2
 43
0.0208333333333333
 43
0.0
 43
0.0
 43
0.0
 43
0.0
 43
0.0208333333333333
 43
0.0
 43
0.0
 43
0.0
 43
0.0
 43
1.0
 43
0.0
 43
0.0
 43
0.0
 43
0.0
 43
1.0
 77
     0
 78
     2
 47
0.0208333333333333
 47
0.0
 47
0.0
 47
0.0
 47
0.0
 47
0.0208333333333333
 47
0.0
 47
0.0
 47
0.0
 47
0.0
 47
1.0
 47
0.0
 47
0.0
 47
0.0
 47
0.0
 47
1.0
171
     0
172
     2
 49
0.0208333333333333
 49
0.0
 49
0.0
 49
0.0
 49
0.0
 49
0.0208333333333333
 49
0.0
 49
0.0
 49
0.0
 49
0.0
 49
1.0
 49
0.0
 49
0.0
 49
0.0
 49
0.0
 49
1.0
175
     0
176
     2
142
0.0208333333333333
142
0.0
142
0.0
142
0.0
142
0.0
142
0.0208333333333333
142
0.0
142
0.0
142
0.0
142
0.0
142
1.0
142
0.0
142
0.0
142
0.0
142
0.0
142
1.0
179
     0
270
     2
144
0.0208333333333333
144
0.0
144
0.0
144
0.0
144
0.0
144
0.0208333333333333
144
0.0
144
0.0
144
0.0
144
0.0
144
1.0
144
0.0
144
0.0
144
0.0
144
0.0
144
1.0
274
     2
147
0.0208333333333333
147
0.0
147
0.0
147
0.0
147
0.0
147
0.0208333333333333
147
0.0
147
0.0
147
0.0
147
0.0
147
1.0
147
0.0
147
0.0
147
0.0
147
0.0
147
1.0
  0
MLEADERSTYLE
  5
58A
102
{ACAD_REACTORS
330
570
102
}
102
{ACAD_XDICTIONARY
360
671
102
}
330
570
100
AcDbMLeaderStyle
170
     2
171
     1
172
     0
 90
        2
 40
0.0
 41
0.0
173
     1
 91
-1056964608
340
F
 92
       -2
290
     1
 42
0.09
291
     1
 43
0.36
  3
Standard
341
0
 44
0.18
300

342
10
174
     1
178
     6
175
     1
176
     0
 93
-1056964608
 45
0.18
292
     0
297
     0
 46
0.18
343
0
 94
-1056964608
 47
1.0
 49
1.0
140
1.0
293
     1
141
0.0
294
     1
177
     0
142
1.0
295
     0
296
     0
143
0.125
1001
ACAD_MLEADERVER
1070
     2
  0
MLINESTYLE
  5
16
102
{ACAD_REACTORS
330
17
102
}
330
17
100
AcDbMlineStyle
  2
STANDARD
 70
     0
  3

 62
     0
 51
90.0
 52
90.0
 71
     2
 49
0.5
 62
   256
  6
BYLAYER
 49
-0.5
 62
   256
  6
BYLAYER
  0
ACDBPLACEHOLDER
  5
7
102
{ACAD_REACTORS
330
8
102
}
330
8
  0
SCALE
  5
58
102
{ACAD_REACTORS
330
36
102
}
330
36
100
AcDbScale
 70
     0
300
1:1
140
1.0
141
1.0
290
     1
  0
SCALE
  5
61
102
{ACAD_REACTORS
330
36
102
}
330
36
100
AcDbScale
 70
     0
300
3/8" = 1'-0"
140
0.375
141
12.0
290
     0
  0
SCALE
  5
62
102
{ACAD_REACTORS
330
36
102
}
330
36
100
AcDbScale
 70
     0
300
1/2" = 1'-0"
140
0.5
141
12.0
290
     0
  0
SCALE
  5
63
102
{ACAD_REACTORS
330
36
102
}
330
36
100
AcDbScale
 70
     0
300
3/4" = 1'-0"
140
0.75
141
12.0
290
     0
  0
SCALE
  5
64
102
{ACAD_REACTORS
330
36
102
}
330
36
100
AcDbScale
 70
     0
300
1" = 1'-0"
140
1.0
141
12.0
290
     0
  0
SCALE
  5
65
102
{ACAD_REACTORS
330
36
102
}
330
36
100
AcDbScale
 70
     0
300
1-1/2" = 1'-0"
140
1.5
141
12.0
290
     0
  0
SCALE
  5
66
102
{ACAD_REACTORS
330
36
102
}
330
36
100
AcDbScale
 70
     0
300
3" = 1'-0"
140
3.0
141
12.0
290
     0
  0
SCALE
  5
67
102
{ACAD_REACTORS
330
36
102
}
330
36
100
AcDbScale
 70
     0
300
6" = 1'-0"
140
6.0
141
12.0
290
     0
  0
SCALE
  5
68
102
{ACAD_REACTORS
330
36
102
}
330
36
100
AcDbScale
 70
     0
300
1'-0" = 1'-0"
140
12.0
141
12.0
290
     0
  0
SCALE
  5
59
102
{ACAD_REACTORS
330
36
102
}
330
36
100
AcDbScale
 70
     0
300
1/128" = 1'-0"
140
0.0078125
141
12.0
290
     0
  0
SCALE
  5
5A
102
{ACAD_REACTORS
330
36
102
}
330
36
100
AcDbScale
 70
     0
300
1/64" = 1'-0"
140
0.015625
141
12.0
290
     0
  0
SCALE
  5
5B
102
{ACAD_REACTORS
330
36
102
}
330
36
100
AcDbScale
 70
     0
300
1/32" = 1'-0"
140
0.03125
141
12.0
290
     0
  0
SCALE
  5
5C
102
{ACAD_REACTORS
330
36
102
}
330
36
100
AcDbScale
 70
     0
300
1/16" = 1'-0"
140
0.0625
141
12.0
290
     0
  0
SCALE
  5
5D
102
{ACAD_REACTORS
330
36
102
}
330
36
100
AcDbScale
 70
     0
300
3/32" = 1'-0"
140
0.09375
141
12.0
290
     0
  0
SCALE
  5
5E
102
{ACAD_REACTORS
330
36
102
}
330
36
100
AcDbScale
 70
     0
300
1/8" = 1'-0"
140
0.125
141
12.0
290
     0
  0
SCALE
  5
5F
102
{ACAD_REACTORS
330
36
102
}
330
36
100
AcDbScale
 70
     0
300
3/16" = 1'-0"
140
0.1875
141
12.0
290
     0
  0
SCALE
  5
60
102
{ACAD_REACTORS
330
36
102
}
330
36
100
AcDbScale
 70
     0
300
1/4" = 1'-0"
140
0.25
141
12.0
290
     0
  0
TABLESTYLE
  5
594
102
{ACAD_REACTORS
330
56F
102
}
330
56F
100
AcDbTableStyle
  3
Standard
 70
     0
 71
     0
 40
0.06
 41
0.06
280
     0
281
     0
  7
STANDARD
140
0.18
170
     2
 62
     0
 63
   257
283
     0
274
    -2
284
     1
 64
     0
275
    -2
285
     1
 65
     0
276
    -2
286
     1
 66
     0
277
    -2
287
     1
 67
     0
278
    -2
288
     1
 68
     0
279
    -2
289
     1
 69
     0
  7
STANDARD
140
0.25
170
     5
 62
     0
 63
   257
283
     0
274
    -2
284
     1
 64
     0
275
    -2
285
     1
 65
     0
276
    -2
286
     1
 66
     0
277
    -2
287
     1
 67
     0
278
    -2
288
     1
 68
     0
279
    -2
289
     1
 69
     0
  7
STANDARD
140
0.18
170
     5
 62
     0
 63
   257
283
     0
274
    -2
284
     1
 64
     0
275
    -2
285
     1
 65
     0
276
    -2
286
     1
 66
     0
277
    -2
287
     1
 67
     0
278
    -2
288
     1
 68
     0
279
    -2
289
     1
 69
     0
  0
VISUALSTYLE
  5
33
102
{ACAD_REACTORS
330
30
102
}
102
{ACAD_XDICTIONARY
360
641
102
}
330
30
100
AcDbVisualStyle
  2
2dWireframe
 70
     4
 71
     0
 72
     2
 73
     0
 90
        0
 40
0.6
 41
30.0
 62
     5
 63
     7
 74
     1
 91
        4
 64
     7
 65
   257
 75
     1
175
     1
 42
1.0
 92
        0
 66
   257
 43
1.0
 76
     1
 77
     6
 78
     2
 67
     7
 79
     5
170
     0
171
     0
290
     0
174
     0
 93
        1
 44
0.0
173
     0
291
     0
 45
0.0
1001
ACAD
1000
AcDbSavedByObjectVersion
1070
     0
  0
VISUALSTYLE
  5
579
102
{ACAD_REACTORS
330
30
102
}
102
{ACAD_XDICTIONARY
360
64F
102
}
330
30
100
AcDbVisualStyle
  2
Basic
 70
     7
 71
     1
 72
     0
 73
     1
 90
        0
 40
0.6
 41
30.0
 62
     5
 63
     7
 74
     0
 91
        4
 64
     7
 65
   257
 75
     1
175
     1
 42
1.0
 92
        8
 66
     7
 43
1.0
 76
     1
 77
     6
 78
     2
 67
     7
 79
     5
170
     0
171
     0
290
     0
174
     0
 93
        1
 44
0.0
173
     0
291
     1
 45
0.0
1001
ACAD
1000
AcDbSavedByObjectVersion
1070
     0
  0
VISUALSTYLE
  5
57D
102
{ACAD_REACTORS
330
30
102
}
102
{ACAD_XDICTIONARY
360
657
102
}
330
30
100
AcDbVisualStyle
  2
Brighten
 70
    12
 71
     2
 72
     2
 73
     0
 90
        0
 40
0.6
 41
30.0
 62
     5
 63
     7
 74
     1
 91
        4
 64
     7
 65
   257
 75
     1
175
     1
 42
1.0
 92
        8
 66
     7
 43
1.0
 76
     1
 77
     6
 78
     2
 67
     7
 79
     5
170
     0
171
     0
290
     0
174
     0
 93
        1
 44
50.0
173
     0
291
     1
 45
0.0
1001
ACAD
1000
AcDbSavedByObjectVersion
1070
     0
  0
VISUALSTYLE
  5
581
102
{ACAD_REACTORS
330
30
102
}
102
{ACAD_XDICTIONARY
360
65F
102
}
330
30
100
AcDbVisualStyle
  2
ColorChange
 70
    16
 71
     2
 72
     2
 73
     3
 90
        0
 40
0.6
 41
30.0
 62
     5
 63
     8
 74
     1
 91
        4
 64
     7
 65
   257
 75
     1
175
     1
 42
1.0
 92
        8
 66
     8
 43
1.0
 76
     1
 77
     6
 78
     2
 67
     7
 79
     5
170
     0
171
     0
290
     0
174
     0
 93
        1
 44
0.0
173
     0
291
     1
 45
0.0
1001
ACAD
1000
AcDbSavedByObjectVersion
1070
     0
  0
VISUALSTYLE
  5
57B
102
{ACAD_REACTORS
330
30
102
}
102
{ACAD_XDICTIONARY
360
653
102
}
330
30
100
AcDbVisualStyle
  2
Conceptual
 70
     9
 71
     3
 72
     2
 73
     0
 90
        0
 40
0.6
 41
30.0
 62
     5
 63
     7
 74
     2
 91
        2
 64
     7
 65
   257
 75
     1
175
     1
 42
40.0
 92
        8
 66
     7
 43
1.0
 76
     1
 77
     6
 78
     2
 67
     7
 79
     3
170
     0
171
     0
290
     0
174
     0
 93
        1
 44
0.0
173
     0
291
     0
 45
0.0
1001
ACAD
1000
AcDbSavedByObjectVersion
1070
     0
  0
VISUALSTYLE
  5
57C
102
{ACAD_REACTORS
330
30
102
}
102
{ACAD_XDICTIONARY
360
655
102
}
330
30
100
AcDbVisualStyle
  2
Dim
 70
    11
 71
     2
 72
     2
 73
     0
 90
        0
 40
0.6
 41
30.0
 62
     5
 63
     7
 74
     1
 91
        4
 64
     7
 65
   257
 75
     1
175
     1
 42
1.0
 92
        8
 66
     7
 43
1.0
 76
     1
 77
     6
 78
     2
 67
     7
 79
     5
170
     0
171
     0
290
     0
174
     0
 93
        1
 44
-50.0
173
     0
291
     1
 45
0.0
1001
ACAD
1000
AcDbSavedByObjectVersion
1070
     0
  0
VISUALSTYLE
  5
584
102
{ACAD_REACTORS
330
30
102
}
102
{ACAD_XDICTIONARY
360
665
102
}
330
30
100
AcDbVisualStyle
  2
EdgeColorOff
 70
    22
 71
     2
 72
     2
 73
     0
 90
        0
 40
0.6
 41
30.0
 62
     5
 63
     7
 74
     1
 91
        4
 64
     7
 65
   257
 75
     1
175
     1
 42
1.0
 92
        8
 66
     7
 43
1.0
 76
     1
 77
     6
 78
     2
 67
     7
 79
     5
170
     0
171
     0
290
     0
174
     0
 93
        1
 44
0.0
173
     0
291
     1
 45
0.0
1001
ACAD
1000
AcDbSavedByObjectVersion
1070
     0
  0
VISUALSTYLE
  5
580
102
{ACAD_REACTORS
330
30
102
}
102
{ACAD_XDICTIONARY
360
65D
102
}
330
30
100
AcDbVisualStyle
  2
Facepattern
 70
    15
 71
     2
 72
     2
 73
     0
 90
        0
 40
0.6
 41
30.0
 62
     5
 63
     7
 74
     1
 91
        4
 64
     7
 65
   257
 75
     1
175
     1
 42
1.0
 92
        8
 66
     7
 43
1.0
 76
     1
 77
     6
 78
     2
 67
     7
 79
     5
170
     0
171
     0
290
     0
174
     0
 93
        1
 44
0.0
173
     0
291
     1
 45
0.0
1001
ACAD
1000
AcDbSavedByObjectVersion
1070
     0
  0
VISUALSTYLE
  5
573
102
{ACAD_REACTORS
330
30
102
}
102
{ACAD_XDICTIONARY
360
643
102
}
330
30
100
AcDbVisualStyle
  2
Flat
 70
     0
 71
     2
 72
     1
 73
     1
 90
        2
 40
0.6
 41
30.0
 62
     5
 63
     7
 74
     0
 91
        4
 64
     7
 65
   257
 75
     1
175
     1
 42
1.0
 92
        8
 66
     7
 43
1.0
 76
     1
 77
     6
 78
     2
 67
     7
 79
     5
170
     0
171
     0
290
     0
174
     0
 93
       13
 44
0.0
173
     0
291
     1
 45
0.0
1001
ACAD
1000
AcDbSavedByObjectVersion
1070
     0
  0
VISUALSTYLE
  5
574
102
{ACAD_REACTORS
330
30
102
}
102
{ACAD_XDICTIONARY
360
645
102
}
330
30
100
AcDbVisualStyle
  2
FlatWithEdges
 70
     1
 71
     2
 72
     1
 73
     1
 90
        2
 40
0.6
 41
30.0
 62
     5
 63
     7
 74
     1
 91
        4
 64
     7
 65
   257
 75
     1
175
     1
 42
1.0
 92
        0
 66
   257
 43
1.0
 76
     1
 77
     6
 78
     2
 67
     7
 79
     5
170
     0
171
     0
290
     0
174
     0
 93
       13
 44
0.0
173
     0
291
     1
 45
0.0
1001
ACAD
1000
AcDbSavedByObjectVersion
1070
     0
  0
VISUALSTYLE
  5
575
102
{ACAD_REACTORS
330
30
102
}
102
{ACAD_XDICTIONARY
360
647
102
}
330
30
100
AcDbVisualStyle
  2
Gouraud
 70
     2
 71
     2
 72
     2
 73
     1
 90
        2
 40
0.6
 41
30.0
 62
     5
 63
     7
 74
     0
 91
        4
 64
     7
 65
   257
 75
     1
175
     1
 42
1.0
 92
        0
 66
     7
 43
1.0
 76
     1
 77
     6
 78
     2
 67
     7
 79
     5
170
     0
171
     0
290
     0
174
     0
 93
       13
 44
0.0
173
     0
291
     1
 45
0.0
1001
ACAD
1000
AcDbSavedByObjectVersion
1070
     0
  0
VISUALSTYLE
  5
576
102
{ACAD_REACTORS
330
30
102
}
102
{ACAD_XDICTIONARY
360
649
102
}
330
30
100
AcDbVisualStyle
  2
GouraudWithEdges
 70
     3
 71
     2
 72
     2
 73
     1
 90
        2
 40
0.6
 41
30.0
 62
     5
 63
     7
 74
     1
 91
        4
 64
     7
 65
   257
 75
     1
175
     1
 42
1.0
 92
        0
 66
   257
 43
1.0
 76
     1
 77
     6
 78
     2
 67
     7
 79
     5
170
     0
171
     0
290
     0
174
     0
 93
       13
 44
0.0
173
     0
291
     1
 45
0.0
1001
ACAD
1000
AcDbSavedByObjectVersion
1070
     0
  0
VISUALSTYLE
  5
578
102
{ACAD_REACTORS
330
30
102
}
102
{ACAD_XDICTIONARY
360
64D
102
}
330
30
100
AcDbVisualStyle
  2
Hidden
 70
     6
 71
     1
 72
     2
 73
     2
 90
        0
 40
0.6
 41
30.0
 62
     5
 63
     7
 74
     2
 91
        2
 64
     7
 65
   257
 75
     2
175
     1
 42
40.0
 92
        0
 66
   257
 43
1.0
 76
     1
 77
     6
 78
     2
 67
     7
 79
     3
170
     0
171
     0
290
     0
174
     0
 93
        1
 44
0.0
173
     0
291
     0
 45
0.0
1001
ACAD
1000
AcDbSavedByObjectVersion
1070
     0
  0
VISUALSTYLE
  5
582
102
{ACAD_REACTORS
330
30
102
}
102
{ACAD_XDICTIONARY
360
661
102
}
330
30
100
AcDbVisualStyle
  2
JitterOff
 70
    20
 71
     2
 72
     2
 73
     0
 90
        0
 40
0.6
 41
30.0
 62
     5
 63
     7
 74
     1
 91
        4
 64
     7
 65
   257
 75
     1
175
     1
 42
1.0
 92
       10
 66
     7
 43
1.0
 76
     1
 77
     6
 78
     2
 67
     7
 79
     5
170
     0
171
     0
290
     0
174
     0
 93
        1
 44
0.0
173
     0
291
     1
 45
0.0
1001
ACAD
1000
AcDbSavedByObjectVersion
1070
     0
  0
VISUALSTYLE
  5
57F
102
{ACAD_REACTORS
330
30
102
}
102
{ACAD_XDICTIONARY
360
65B
102
}
330
30
100
AcDbVisualStyle
  2
Linepattern
 70
    14
 71
     2
 72
     2
 73
     0
 90
        0
 40
0.6
 41
30.0
 62
     5
 63
     7
 74
     1
 91
        4
 64
     7
 65
   257
 75
     7
175
     7
 42
1.0
 92
        8
 66
     7
 43
1.0
 76
     1
 77
     6
 78
     2
 67
     7
 79
     5
170
     0
171
     0
290
     0
174
     0
 93
        1
 44
0.0
173
     0
291
     1
 45
0.0
1001
ACAD
1000
AcDbSavedByObjectVersion
1070
     0
  0
VISUALSTYLE
  5
583
102
{ACAD_REACTORS
330
30
102
}
102
{ACAD_XDICTIONARY
360
663
102
}
330
30
100
AcDbVisualStyle
  2
OverhangOff
 70
    21
 71
     2
 72
     2
 73
     0
 90
        0
 40
0.6
 41
30.0
 62
     5
 63
     7
 74
     1
 91
        4
 64
     7
 65
   257
 75
     1
175
     1
 42
1.0
 92
        9
 66
     7
 43
1.0
 76
     1
 77
     6
 78
     2
 67
     7
 79
     5
170
     0
171
     0
290
     0
174
     0
 93
        1
 44
0.0
173
     0
291
     1
 45
0.0
1001
ACAD
1000
AcDbSavedByObjectVersion
1070
     0
  0
VISUALSTYLE
  5
57A
102
{ACAD_REACTORS
330
30
102
}
102
{ACAD_XDICTIONARY
360
651
102
}
330
30
100
AcDbVisualStyle
  2
Realistic
 70
     8
 71
     2
 72
     3
 73
     0
 90
        2
 40
0.6
 41
30.0
 62
     5
 63
     7
 74
     0
 91
        0
 64
     7
 65
   257
 75
     1
175
     1
 42
1.0
 92
        8
 66
   257
 43
1.0
 76
     1
 77
     6
 78
     2
 67
     7
 79
     3
170
     0
171
     0
290
     0
174
     0
 93
       13
 44
0.0
173
     0
291
     0
 45
0.0
1001
ACAD
1000
AcDbSavedByObjectVersion
1070
     0
  0
VISUALSTYLE
  5
589
102
{ACAD_REACTORS
330
30
102
}
102
{ACAD_XDICTIONARY
360
66F
102
}
330
30
100
AcDbVisualStyle
  2
Shaded
 70
    27
 71
     2
 72
     2
 73
     1
 90
        2
 40
0.6
 41
30.0
 62
     5
 63
     7
 74
     0
 91
        4
 64
     7
 65
   257
 75
     1
175
     1
 42
1.0
 92
        8
 66
   257
 43
1.0
 76
     1
 77
     6
 78
     2
 67
   251
 79
     3
170
     0
171
     0
290
     0
174
     0
 93
        5
 44
0.0
173
     0
291
     0
 45
0.0
1001
ACAD
1000
AcDbSavedByObjectVersion
1070
     0
  0
VISUALSTYLE
  5
588
102
{ACAD_REACTORS
330
30
102
}
102
{ACAD_XDICTIONARY
360
66D
102
}
330
30
100
AcDbVisualStyle
  2
Shaded with edges
 70
    26
 71
     2
 72
     2
 73
     1
 90
        2
 40
0.6
 41
30.0
 62
     5
 63
     7
 74
     1
 91
       10
 64
     7
 65
   257
 75
     2
175
     1
 42
1.0
 92
        8
 66
   257
 43
1.0
 76
     1
 77
     6
 78
     2
 67
     7
 79
     3
170
     0
171
     0
290
     0
174
     0
 93
        5
 44
0.0
173
     0
291
     0
 45
0.0
1001
ACAD
1000
AcDbSavedByObjectVersion
1070
     0
  0
VISUALSTYLE
  5
585
102
{ACAD_REACTORS
330
30
102
}
102
{ACAD_XDICTIONARY
360
667
102
}
330
30
100
AcDbVisualStyle
  2
Shades of Gray
 70
    23
 71
     2
 72
     2
 73
     3
 90
        0
 40
0.6
 41
30.0
 62
     5
 63
     7
 74
     2
 91
        2
 64
     7
 65
     7
 75
     1
175
     1
 42
40.0
 92
        8
 66
     7
 43
1.0
 76
     1
 77
     6
 78
     2
 67
     7
 79
     3
170
     0
171
     0
290
     0
174
     0
 93
        1
 44
0.0
173
     0
291
     0
 45
0.0
1001
ACAD
1000
AcDbSavedByObjectVersion
1070
     0
  0
VISUALSTYLE
  5
586
102
{ACAD_REACTORS
330
30
102
}
102
{ACAD_XDICTIONARY
360
669
102
}
330
30
100
AcDbVisualStyle
  2
Sketchy
 70
    24
 71
     1
 72
     2
 73
     2
 90
        0
 40
0.6
 41
30.0
 62
     5
 63
     7
 74
     2
 91
        2
 64
     7
 65
     7
 75
     1
175
     1
 42
40.0
 92
       11
 66
     7
 43
1.0
 76
     1
 77
     6
 78
     2
 67
     7
 79
     6
170
     0
171
     0
290
     0
174
     0
 93
        1
 44
0.0
173
     0
291
     0
 45
0.0
1001
ACAD
1000
AcDbSavedByObjectVersion
1070
     0
  0
VISUALSTYLE
  5
57E
102
{ACAD_REACTORS
330
30
102
}
102
{ACAD_XDICTIONARY
360
659
102
}
330
30
100
AcDbVisualStyle
  2
Thicken
 70
    13
 71
     2
 72
     2
 73
     0
 90
        0
 40
0.6
 41
30.0
 62
     5
 63
     7
 74
     1
 91
        4
 64
     7
 65
   257
 75
     1
175
     1
 42
1.0
 92
       12
 66
     7
 43
1.0
 76
     1
 77
     6
 78
     2
 67
     7
 79
     5
170
     0
171
     0
290
     0
174
     0
 93
        1
 44
0.0
173
     0
291
     1
 45
0.0
1001
ACAD
1000
AcDbSavedByObjectVersion
1070
     0
  0
VISUALSTYLE
  5
577
102
{ACAD_REACTORS
330
30
102
}
102
{ACAD_XDICTIONARY
360
64B
102
}
330
30
100
AcDbVisualStyle
  2
Wireframe
 70
     5
 71
     0
 72
     2
 73
     0
 90
        0
 40
0.6
 41
30.0
 62
     5
 63
     7
 74
     1
 91
        4
 64
     7
 65
   257
 75
     1
175
     1
 42
1.0
 92
        0
 66
   257
 43
1.0
 76
     1
 77
     6
 78
     2
 67
     7
 79
     5
170
     0
171
     0
290
     0
174
     0
 93
        1
 44
0.0
173
     0
291
     0
 45
0.0
1001
ACAD
1000
AcDbSavedByObjectVersion
1070
     0
  0
VISUALSTYLE
  5
587
102
{ACAD_REACTORS
330
30
102
}
102
{ACAD_XDICTIONARY
360
66B
102
}
330
30
100
AcDbVisualStyle
  2
X-Ray
 70
    25
 71
     2
 72
     2
 73
     1
 90
        1
 40
0.5
 41
30.0
 62
     5
 63
     7
 74
     1
 91
        0
 64
     7
 65
   257
 75
     1
175
     1
 42
1.0
 92
        8
 66
     7
 43
1.0
 76
     1
 77
     6
 78
     2
 67
     7
 79
     3
170
     0
171
     0
290
     0
174
     0
 93
       13
 44
0.0
173
     0
291
     0
 45
0.0
1001
ACAD
1000
AcDbSavedByObjectVersion
1070
     0
  0
XRECORD
  5
635
102
{ACAD_REACTORS
330
634
102
}
330
634
100
AcDbXrecord
280
     1
340
2F
  0
XRECORD
  5
636
102
{ACAD_REACTORS
330
634
102
}
330
634
100
AcDbXrecord
280
     1
340
B
  0
DICTIONARYVAR
  5
56E
102
{ACAD_REACTORS
330
56D
102
}
330
56D
100
DictionaryVariables
280
     0
  1
1:1
  0
DICTIONARYVAR
  5
58C
102
{ACAD_REACTORS
330
56D
102
}
330
56D
100
DictionaryVariables
280
     0
  1
Standard
  0
DICTIONARYVAR
  5
595
102
{ACAD_REACTORS
330
56D
102
}
330
56D
100
DictionaryVariables
280
     0
  1
Standard
  0
DICTIONARYVAR
  5
632
102
{ACAD_REACTORS
330
56D
102
}
330
56D
100
DictionaryVariables
280
     0
  1
0
  0
DICTIONARYVAR
  5
633
102
{ACAD_REACTORS
330
56D
102
}
330
56D
100
DictionaryVariables
280
     0
  1
0
  0
DICTIONARYVAR
  5
63A
102
{ACAD_REACTORS
330
56D
102
}
330
56D
100
DictionaryVariables
280
     0
  1
1
  0
DICTIONARY
  5
23
330
21
100
AcDbDictionary
280
     1
281
     1
  0
DICTIONARY
  5
63F
330
69
100
AcDbDictionary
280
     1
281
     1
  3
ACAD_XREC_ROUNDTRIP
360
640
  0
DICTIONARY
  5
63B
330
12
100
AcDbDictionary
280
     1
281
     1
  3
ACAD_XREC_ROUNDTRIP
360
63C
  0
DICTIONARY
  5
63D
330
A
100
AcDbDictionary
280
     1
281
     1
  3
ACAD_XREC_ROUNDTRIP
360
63E
  0
DICTIONARY
  5
671
330
58A
100
AcDbDictionary
280
     1
281
     1
  3
ACAD_XREC_ROUNDTRIP
360
672
  0
DICTIONARY
  5
641
330
33
100
AcDbDictionary
280
     1
281
     1
  3
ACAD_XREC_ROUNDTRIP
360
642
  0
DICTIONARY
  5
64F
330
579
100
AcDbDictionary
280
     1
281
     1
  3
ACAD_XREC_ROUNDTRIP
360
650
  0
DICTIONARY
  5
657
330
57D
100
AcDbDictionary
280
     1
281
     1
  3
ACAD_XREC_ROUNDTRIP
360
658
  0
DICTIONARY
  5
65F
330
581
100
AcDbDictionary
280
     1
281
     1
  3
ACAD_XREC_ROUNDTRIP
360
660
  0
DICTIONARY
  5
653
330
57B
100
AcDbDictionary
280
     1
281
     1
  3
ACAD_XREC_ROUNDTRIP
360
654
  0
DICTIONARY
  5
655
330
57C
100
AcDbDictionary
280
     1
281
     1
  3
ACAD_XREC_ROUNDTRIP
360
656
  0
DICTIONARY
  5
665
330
584
100
AcDbDictionary
280
     1
281
     1
  3
ACAD_XREC_ROUNDTRIP
360
666
  0
DICTIONARY
  5
65D
330
580
100
AcDbDictionary
280
     1
281
     1
  3
ACAD_XREC_ROUNDTRIP
360
65E
  0
DICTIONARY
  5
643
330
573
100
AcDbDictionary
280
     1
281
     1
  3
ACAD_XREC_ROUNDTRIP
360
644
  0
DICTIONARY
  5
645
330
574
100
AcDbDictionary
280
     1
281
     1
  3
ACAD_XREC_ROUNDTRIP
360
646
  0
DICTIONARY
  5
647
330
575
100
AcDbDictionary
280
     1
281
     1
  3
ACAD_XREC_ROUNDTRIP
360
648
  0
DICTIONARY
  5
649
330
576
100
AcDbDictionary
280
     1
281
     1
  3
ACAD_XREC_ROUNDTRIP
360
64A
  0
DICTIONARY
  5
64D
330
578
100
AcDbDictionary
280
     1
281
     1
  3
ACAD_XREC_ROUNDTRIP
360
64E
  0
DICTIONARY
  5
661
330
582
100
AcDbDictionary
280
     1
281
     1
  3
ACAD_XREC_ROUNDTRIP
360
662
  0
DICTIONARY
  5
65B
330
57F
100
AcDbDictionary
280
     1
281
     1
  3
ACAD_XREC_ROUNDTRIP
360
65C
  0
DICTIONARY
  5
663
330
583
100
AcDbDictionary
280
     1
281
     1
  3
ACAD_XREC_ROUNDTRIP
360
664
  0
DICTIONARY
  5
651
330
57A
100
AcDbDictionary
280
     1
281
     1
  3
ACAD_XREC_ROUNDTRIP
360
652
  0
DICTIONARY
  5
66F
330
589
100
AcDbDictionary
280
     1
281
     1
  3
ACAD_XREC_ROUNDTRIP
360
670
  0
DICTIONARY
  5
66D
330
588
100
AcDbDictionary
280
     1
281
     1
  3
ACAD_XREC_ROUNDTRIP
360
66E
  0
DICTIONARY
  5
667
330
585
100
AcDbDictionary
280
     1
281
     1
  3
ACAD_XREC_ROUNDTRIP
360
668
  0
DICTIONARY
  5
669
330
586
100
AcDbDictionary
280
     1
281
     1
  3
ACAD_XREC_ROUNDTRIP
360
66A
  0
DICTIONARY
  5
659
330
57E
100
AcDbDictionary
280
     1
281
     1
  3
ACAD_XREC_ROUNDTRIP
360
65A
  0
DICTIONARY
  5
64B
330
577
100
AcDbDictionary
280
     1
281
     1
  3
ACAD_XREC_ROUNDTRIP
360
64C
  0
DICTIONARY
  5
66B
330
587
100
AcDbDictionary
280
     1
281
     1
  3
ACAD_XREC_ROUNDTRIP
360
66C
  0
XRECORD
  5
640
102
{ACAD_REACTORS
330
63F
102
}
330
63F
100
AcDbXrecord
280
     1
102
MATERIAL
148
0.0
149
0.0
149
0.0
 93
        0
 94
      127
282
     0
 72
     0
 77
     0
171
     0
175
     0
179
     0
273
     0
  0
XRECORD
  5
63C
102
{ACAD_REACTORS
330
63B
102
}
330
63B
100
AcDbXrecord
280
     1
102
MATERIAL
148
0.0
149
0.0
149
0.0
 93
        0
 94
      127
282
     0
 72
     0
 77
     0
171
     0
175
     0
179
     0
273
     0
  0
XRECORD
  5
63E
102
{ACAD_REACTORS
330
63D
102
}
330
63D
100
AcDbXrecord
280
     1
102
MATERIAL
148
0.0
149
0.0
149
0.0
 93
        0
 94
      127
282
     0
 72
     0
 77
     0
171
     0
175
     0
179
     0
273
     0
  0
XRECORD
  5
672
102
{ACAD_REACTORS
330
671
102
}
330
671
100
AcDbXrecord
280
     1
102
ACAD_ROUNDTRIP_2010_MLEADER_STYLE
  0
XRECORD
  5
642
102
{ACAD_REACTORS
330
641
102
}
330
641
100
AcDbXrecord
280
     1
102
RTVSPropertyOp0
 70
     1
102
RTVSPropertyOp1
 70
     1
102
RTVSPropertyOp2
 70
     1
102
RTVSPropertyOp3
 70
     1
102
RTVSPropertyOp4
 70
     1
102
RTVSPropertyOp5
 70
     1
102
RTVSPropertyOp6
 70
     1
102
RTVSPropertyOp7
 70
     1
102
RTVSPropertyOp8
 70
     1
102
RTVSPropertyOp9
 70
     1
102
RTVSPropertyOp10
 70
     1
102
RTVSPropertyOp11
 70
     1
102
RTVSPropertyOp12
 70
     1
102
RTVSPropertyOp13
 70
     1
102
RTVSPropertyOp14
 70
     1
102
RTVSPropertyOp15
 70
     1
102
RTVSPropertyOp16
 70
     1
102
RTVSPropertyOp17
 70
     1
102
RTVSPropertyOp18
 70
     1
102
RTVSPropertyOp19
 70
     1
102
RTVSPropertyOp20
 70
     1
102
RTVSPropertyOp21
 70
     1
102
RTVSPropertyOp22
 70
     1
102
RTVSPropertyOp23
 70
     1
102
RTVSPropertyOp24
 70
     1
102
RTVSPropertyOp25
 70
     1
102
RTVSPropertyOp26
 70
     1
102
RTVSPropertyOp27
 70
     1
102
RTVSPropertyOp28
 70
     1
102
RTVSPropertyOp29
 70
     1
102
RTVSPropertyOp30
 70
     1
102
RTVSPropertyOp31
 70
     1
102
RTVSPropertyOp32
 70
     1
102
RTVSPropertyOp33
 70
     1
102
RTVSPropertyOp34
 70
     1
102
RTVSPropertyOp35
 70
     1
102
RTVSPropertyOp36
 70
     1
102
RTVSPropertyOp37
 70
     1
102
RTVSPropertyOp38
 70
     1
102
RTVSPropertyOp39
 70
     1
102
RTVSPropertyOp40
 70
     1
102
RTVSPropertyOp41
 70
     1
102
RTVSPropertyOp42
 70
     1
102
RTVSPropertyOp43
 70
     1
102
RTVSPropertyOp44
 70
     1
102
RTVSPropertyOp45
 70
     1
102
RTVSPropertyOp46
 70
     1
102
RTVSPropertyOp47
 70
     1
102
RTVSPropertyOp48
 70
     1
102
RTVSPropertyOp49
 70
     1
102
RTVSPropertyOp50
 70
     1
102
RTVSPropertyOp51
 70
     0
102
RTVSPropertyOp52
 70
     0
102
RTVSPropertyOp53
 70
     1
102
RTVSPropertyOp54
 70
     1
102
RTVSPropertyOp55
 70
     1
102
RTVSPropertyOp56
 70
     1
102
RTVSPropertyOp57
 70
     1
102
RTVSPost2010Prop28
280
     1
102
RTVSPost2010PropOp28
 70
     1
102
RTVSPost2010Prop29
280
     1
102
RTVSPost2010PropOp29
 70
     1
102
RTVSPost2010Prop30
280
     0
102
RTVSPost2010PropOp30
 70
     1
102
RTVSPost2010Prop31
280
     0
102
RTVSPost2010PropOp31
 70
     1
102
RTVSPost2010Prop32
280
     0
102
RTVSPost2010PropOp32
 70
     1
102
RTVSPost2010Prop33
280
     0
102
RTVSPost2010PropOp33
 70
     1
102
RTVSPost2010Prop34
280
     0
102
RTVSPost2010PropOp34
 70
     1
102
RTVSPost2010Prop35
280
     0
102
RTVSPost2010PropOp35
 70
     1
102
RTVSPost2010Prop36
280
     0
102
RTVSPost2010PropOp36
 70
     1
102
RTVSPost2010Prop37
 90
       50
102
RTVSPost2010PropOp37
 70
     1
102
RTVSPost2010Prop38
140
0.0
102
RTVSPost2010PropOp38
 70
     1
102
RTVSPost2010Prop39
140
1.0
102
RTVSPost2010PropOp39
 70
     1
102
RTVSPost2010Prop40
 90
        0
102
RTVSPost2010PropOp40
 70
     1
102
RTVSPost2010Prop41ColorIndex
 90
       18
102
RTVSPost2010Prop41ColorRGB
 90
        0
102
RTVSPost2010PropOp41
 70
     1
102
RTVSPost2010Prop42
 90
       50
102
RTVSPost2010PropOp42
 70
     1
102
RTVSPost2010Prop43
 90
        3
102
RTVSPost2010PropOp43
 70
     1
102
RTVSPost2010Prop44ColorIndex
 90
        5
102
RTVSPost2010Prop44ColorRGB
 90
      255
102
RTVSPost2010PropOp44
 70
     1
102
RTVSPost2010Prop45
280
     0
102
RTVSPost2010PropOp45
 70
     1
102
RTVSPost2010Prop46
 90
       50
102
RTVSPost2010PropOp46
 70
     1
102
RTVSPost2010Prop47
 90
       50
102
RTVSPost2010PropOp47
 70
     1
102
RTVSPost2010Prop48
 90
       50
102
RTVSPost2010PropOp48
 70
     1
102
RTVSPost2010Prop49
280
     0
102
RTVSPost2010PropOp49
 70
     1
102
RTVSPost2010Prop50
 90
       50
102
RTVSPost2010PropOp50
 70
     1
102
RTVSPost2010Prop51ColorIndex
 90
      256
102
RTVSPost2010Prop51ColorRGB
 90
-16777216
102
RTVSPost2010PropOp51
 70
     0
102
RTVSPost2010Prop52
140
1.0
102
RTVSPost2010PropOp52
 70
     0
102
RTVSPost2010Prop53
 90
        2
102
RTVSPost2010PropOp53
 70
     1
102
RTVSPost2010Prop54
  1
strokes_ogs.tif
102
RTVSPost2010PropOp54
 70
     1
102
RTVSPost2010Prop55
280
     0
102
RTVSPost2010PropOp55
 70
     1
102
RTVSPost2010Prop56
140
1.0
102
RTVSPost2010PropOp56
 70
     1
102
RTVSPost2010Prop57
140
1.0
102
RTVSPost2010PropOp57
 70
     1
  0
XRECORD
  5
650
102
{ACAD_REACTORS
330
64F
102
}
330
64F
100
AcDbXrecord
280
     1
102
RTVSPropertyOp0
 70
     1
102
RTVSPropertyOp1
 70
     1
102
RTVSPropertyOp2
 70
     1
102
RTVSPropertyOp3
 70
     1
102
RTVSPropertyOp4
 70
     1
102
RTVSPropertyOp5
 70
     1
102
RTVSPropertyOp6
 70
     1
102
RTVSPropertyOp7
 70
     1
102
RTVSPropertyOp8
 70
     1
102
RTVSPropertyOp9
 70
     1
102
RTVSPropertyOp10
 70
     1
102
RTVSPropertyOp11
 70
     1
102
RTVSPropertyOp12
 70
     1
102
RTVSPropertyOp13
 70
     1
102
RTVSPropertyOp14
 70
     1
102
RTVSPropertyOp15
 70
     1
102
RTVSPropertyOp16
 70
     1
102
RTVSPropertyOp17
 70
     1
102
RTVSPropertyOp18
 70
     1
102
RTVSPropertyOp19
 70
     1
102
RTVSPropertyOp20
 70
     1
102
RTVSPropertyOp21
 70
     1
102
RTVSPropertyOp22
 70
     1
102
RTVSPropertyOp23
 70
     1
102
RTVSPropertyOp24
 70
     1
102
RTVSPropertyOp25
 70
     1
102
RTVSPropertyOp26
 70
     1
102
RTVSPropertyOp27
 70
     1
102
RTVSPropertyOp28
 70
     1
102
RTVSPropertyOp29
 70
     1
102
RTVSPropertyOp30
 70
     1
102
RTVSPropertyOp31
 70
     1
102
RTVSPropertyOp32
 70
     1
102
RTVSPropertyOp33
 70
     1
102
RTVSPropertyOp34
 70
     1
102
RTVSPropertyOp35
 70
     1
102
RTVSPropertyOp36
 70
     1
102
RTVSPropertyOp37
 70
     1
102
RTVSPropertyOp38
 70
     1
102
RTVSPropertyOp39
 70
     1
102
RTVSPropertyOp40
 70
     1
102
RTVSPropertyOp41
 70
     1
102
RTVSPropertyOp42
 70
     1
102
RTVSPropertyOp43
 70
     1
102
RTVSPropertyOp44
 70
     1
102
RTVSPropertyOp45
 70
     1
102
RTVSPropertyOp46
 70
     1
102
RTVSPropertyOp47
 70
     1
102
RTVSPropertyOp48
 70
     1
102
RTVSPropertyOp49
 70
     1
102
RTVSPropertyOp50
 70
     1
102
RTVSPropertyOp51
 70
     0
102
RTVSPropertyOp52
 70
     0
102
RTVSPropertyOp53
 70
     1
102
RTVSPropertyOp54
 70
     1
102
RTVSPropertyOp55
 70
     1
102
RTVSPropertyOp56
 70
     1
102
RTVSPropertyOp57
 70
     1
102
RTVSPost2010Prop28
280
     0
102
RTVSPost2010PropOp28
 70
     1
102
RTVSPost2010Prop29
280
     1
102
RTVSPost2010PropOp29
 70
     1
102
RTVSPost2010Prop30
280
     1
102
RTVSPost2010PropOp30
 70
     1
102
RTVSPost2010Prop31
280
     0
102
RTVSPost2010PropOp31
 70
     1
102
RTVSPost2010Prop32
280
     0
102
RTVSPost2010PropOp32
 70
     1
102
RTVSPost2010Prop33
280
     0
102
RTVSPost2010PropOp33
 70
     1
102
RTVSPost2010Prop34
280
     0
102
RTVSPost2010PropOp34
 70
     1
102
RTVSPost2010Prop35
280
     0
102
RTVSPost2010PropOp35
 70
     1
102
RTVSPost2010Prop36
280
     0
102
RTVSPost2010PropOp36
 70
     1
102
RTVSPost2010Prop37
 90
       50
102
RTVSPost2010PropOp37
 70
     1
102
RTVSPost2010Prop38
140
0.0
102
RTVSPost2010PropOp38
 70
     1
102
RTVSPost2010Prop39
140
1.0
102
RTVSPost2010PropOp39
 70
     1
102
RTVSPost2010Prop40
 90
        0
102
RTVSPost2010PropOp40
 70
     1
102
RTVSPost2010Prop41ColorIndex
 90
       18
102
RTVSPost2010Prop41ColorRGB
 90
        0
102
RTVSPost2010PropOp41
 70
     1
102
RTVSPost2010Prop42
 90
       50
102
RTVSPost2010PropOp42
 70
     1
102
RTVSPost2010Prop43
 90
        3
102
RTVSPost2010PropOp43
 70
     1
102
RTVSPost2010Prop44ColorIndex
 90
        5
102
RTVSPost2010Prop44ColorRGB
 90
      255
102
RTVSPost2010PropOp44
 70
     1
102
RTVSPost2010Prop45
280
     0
102
RTVSPost2010PropOp45
 70
     1
102
RTVSPost2010Prop46
 90
       50
102
RTVSPost2010PropOp46
 70
     1
102
RTVSPost2010Prop47
 90
       50
102
RTVSPost2010PropOp47
 70
     1
102
RTVSPost2010Prop48
 90
       50
102
RTVSPost2010PropOp48
 70
     1
102
RTVSPost2010Prop49
280
     0
102
RTVSPost2010PropOp49
 70
     1
102
RTVSPost2010Prop50
 90
       50
102
RTVSPost2010PropOp50
 70
     1
102
RTVSPost2010Prop51ColorIndex
 90
      256
102
RTVSPost2010Prop51ColorRGB
 90
-16777216
102
RTVSPost2010PropOp51
 70
     0
102
RTVSPost2010Prop52
140
1.0
102
RTVSPost2010PropOp52
 70
     0
102
RTVSPost2010Prop53
 90
        2
102
RTVSPost2010PropOp53
 70
     1
102
RTVSPost2010Prop54
  1
strokes_ogs.tif
102
RTVSPost2010PropOp54
 70
     1
102
RTVSPost2010Prop55
280
     0
102
RTVSPost2010PropOp55
 70
     1
102
RTVSPost2010Prop56
140
1.0
102
RTVSPost2010PropOp56
 70
     1
102
RTVSPost2010Prop57
140
1.0
102
RTVSPost2010PropOp57
 70
     1
  0
XRECORD
  5
658
102
{ACAD_REACTORS
330
657
102
}
330
657
100
AcDbXrecord
280
     1
102
RTVSPropertyOp0
 70
     1
102
RTVSPropertyOp1
 70
     1
102
RTVSPropertyOp2
 70
     1
102
RTVSPropertyOp3
 70
     1
102
RTVSPropertyOp4
 70
     1
102
RTVSPropertyOp5
 70
     1
102
RTVSPropertyOp6
 70
     1
102
RTVSPropertyOp7
 70
     1
102
RTVSPropertyOp8
 70
     1
102
RTVSPropertyOp9
 70
     1
102
RTVSPropertyOp10
 70
     1
102
RTVSPropertyOp11
 70
     1
102
RTVSPropertyOp12
 70
     1
102
RTVSPropertyOp13
 70
     1
102
RTVSPropertyOp14
 70
     1
102
RTVSPropertyOp15
 70
     1
102
RTVSPropertyOp16
 70
     1
102
RTVSPropertyOp17
 70
     1
102
RTVSPropertyOp18
 70
     1
102
RTVSPropertyOp19
 70
     1
102
RTVSPropertyOp20
 70
     1
102
RTVSPropertyOp21
 70
     1
102
RTVSPropertyOp22
 70
     1
102
RTVSPropertyOp23
 70
     1
102
RTVSPropertyOp24
 70
     1
102
RTVSPropertyOp25
 70
     1
102
RTVSPropertyOp26
 70
     1
102
RTVSPropertyOp27
 70
     1
102
RTVSPropertyOp28
 70
     1
102
RTVSPropertyOp29
 70
     1
102
RTVSPropertyOp30
 70
     1
102
RTVSPropertyOp31
 70
     1
102
RTVSPropertyOp32
 70
     1
102
RTVSPropertyOp33
 70
     1
102
RTVSPropertyOp34
 70
     1
102
RTVSPropertyOp35
 70
     1
102
RTVSPropertyOp36
 70
     1
102
RTVSPropertyOp37
 70
     1
102
RTVSPropertyOp38
 70
     1
102
RTVSPropertyOp39
 70
     1
102
RTVSPropertyOp40
 70
     1
102
RTVSPropertyOp41
 70
     1
102
RTVSPropertyOp42
 70
     1
102
RTVSPropertyOp43
 70
     1
102
RTVSPropertyOp44
 70
     1
102
RTVSPropertyOp45
 70
     1
102
RTVSPropertyOp46
 70
     1
102
RTVSPropertyOp47
 70
     1
102
RTVSPropertyOp48
 70
     1
102
RTVSPropertyOp49
 70
     1
102
RTVSPropertyOp50
 70
     1
102
RTVSPropertyOp51
 70
     0
102
RTVSPropertyOp52
 70
     0
102
RTVSPropertyOp53
 70
     1
102
RTVSPropertyOp54
 70
     1
102
RTVSPropertyOp55
 70
     1
102
RTVSPropertyOp56
 70
     1
102
RTVSPropertyOp57
 70
     1
102
RTVSPost2010Prop28
280
     0
102
RTVSPost2010PropOp28
 70
     1
102
RTVSPost2010Prop29
280
     1
102
RTVSPost2010PropOp29
 70
     1
102
RTVSPost2010Prop30
280
     1
102
RTVSPost2010PropOp30
 70
     1
102
RTVSPost2010Prop31
280
     0
102
RTVSPost2010PropOp31
 70
     1
102
RTVSPost2010Prop32
280
     0
102
RTVSPost2010PropOp32
 70
     1
102
RTVSPost2010Prop33
280
     0
102
RTVSPost2010PropOp33
 70
     1
102
RTVSPost2010Prop34
280
     0
102
RTVSPost2010PropOp34
 70
     1
102
RTVSPost2010Prop35
280
     0
102
RTVSPost2010PropOp35
 70
     1
102
RTVSPost2010Prop36
280
     0
102
RTVSPost2010PropOp36
 70
     1
102
RTVSPost2010Prop37
 90
       50
102
RTVSPost2010PropOp37
 70
     1
102
RTVSPost2010Prop38
140
0.0
102
RTVSPost2010PropOp38
 70
     1
102
RTVSPost2010Prop39
140
1.0
102
RTVSPost2010PropOp39
 70
     1
102
RTVSPost2010Prop40
 90
        0
102
RTVSPost2010PropOp40
 70
     1
102
RTVSPost2010Prop41ColorIndex
 90
       18
102
RTVSPost2010Prop41ColorRGB
 90
        0
102
RTVSPost2010PropOp41
 70
     1
102
RTVSPost2010Prop42
 90
       50
102
RTVSPost2010PropOp42
 70
     1
102
RTVSPost2010Prop43
 90
        3
102
RTVSPost2010PropOp43
 70
     1
102
RTVSPost2010Prop44ColorIndex
 90
        5
102
RTVSPost2010Prop44ColorRGB
 90
      255
102
RTVSPost2010PropOp44
 70
     1
102
RTVSPost2010Prop45
280
     0
102
RTVSPost2010PropOp45
 70
     1
102
RTVSPost2010Prop46
 90
       50
102
RTVSPost2010PropOp46
 70
     1
102
RTVSPost2010Prop47
 90
       50
102
RTVSPost2010PropOp47
 70
     1
102
RTVSPost2010Prop48
 90
       50
102
RTVSPost2010PropOp48
 70
     1
102
RTVSPost2010Prop49
280
     0
102
RTVSPost2010PropOp49
 70
     1
102
RTVSPost2010Prop50
 90
       50
102
RTVSPost2010PropOp50
 70
     1
102
RTVSPost2010Prop51ColorIndex
 90
      256
102
RTVSPost2010Prop51ColorRGB
 90
-16777216
102
RTVSPost2010PropOp51
 70
     0
102
RTVSPost2010Prop52
140
1.0
102
RTVSPost2010PropOp52
 70
     0
102
RTVSPost2010Prop53
 90
        2
102
RTVSPost2010PropOp53
 70
     1
102
RTVSPost2010Prop54
  1
strokes_ogs.tif
102
RTVSPost2010PropOp54
 70
     1
102
RTVSPost2010Prop55
280
     0
102
RTVSPost2010PropOp55
 70
     1
102
RTVSPost2010Prop56
140
1.0
102
RTVSPost2010PropOp56
 70
     1
102
RTVSPost2010Prop57
140
1.0
102
RTVSPost2010PropOp57
 70
     1
  0
XRECORD
  5
660
102
{ACAD_REACTORS
330
65F
102
}
330
65F
100
AcDbXrecord
280
     1
102
RTVSPropertyOp0
 70
     1
102
RTVSPropertyOp1
 70
     1
102
RTVSPropertyOp2
 70
     1
102
RTVSPropertyOp3
 70
     1
102
RTVSPropertyOp4
 70
     1
102
RTVSPropertyOp5
 70
     1
102
RTVSPropertyOp6
 70
     1
102
RTVSPropertyOp7
 70
     1
102
RTVSPropertyOp8
 70
     1
102
RTVSPropertyOp9
 70
     1
102
RTVSPropertyOp10
 70
     1
102
RTVSPropertyOp11
 70
     1
102
RTVSPropertyOp12
 70
     1
102
RTVSPropertyOp13
 70
     1
102
RTVSPropertyOp14
 70
     1
102
RTVSPropertyOp15
 70
     1
102
RTVSPropertyOp16
 70
     1
102
RTVSPropertyOp17
 70
     1
102
RTVSPropertyOp18
 70
     1
102
RTVSPropertyOp19
 70
     1
102
RTVSPropertyOp20
 70
     1
102
RTVSPropertyOp21
 70
     1
102
RTVSPropertyOp22
 70
     1
102
RTVSPropertyOp23
 70
     1
102
RTVSPropertyOp24
 70
     1
102
RTVSPropertyOp25
 70
     1
102
RTVSPropertyOp26
 70
     1
102
RTVSPropertyOp27
 70
     1
102
RTVSPropertyOp28
 70
     1
102
RTVSPropertyOp29
 70
     1
102
RTVSPropertyOp30
 70
     1
102
RTVSPropertyOp31
 70
     1
102
RTVSPropertyOp32
 70
     1
102
RTVSPropertyOp33
 70
     1
102
RTVSPropertyOp34
 70
     1
102
RTVSPropertyOp35
 70
     1
102
RTVSPropertyOp36
 70
     1
102
RTVSPropertyOp37
 70
     1
102
RTVSPropertyOp38
 70
     1
102
RTVSPropertyOp39
 70
     1
102
RTVSPropertyOp40
 70
     1
102
RTVSPropertyOp41
 70
     1
102
RTVSPropertyOp42
 70
     1
102
RTVSPropertyOp43
 70
     1
102
RTVSPropertyOp44
 70
     1
102
RTVSPropertyOp45
 70
     1
102
RTVSPropertyOp46
 70
     1
102
RTVSPropertyOp47
 70
     1
102
RTVSPropertyOp48
 70
     1
102
RTVSPropertyOp49
 70
     1
102
RTVSPropertyOp50
 70
     1
102
RTVSPropertyOp51
 70
     0
102
RTVSPropertyOp52
 70
     0
102
RTVSPropertyOp53
 70
     1
102
RTVSPropertyOp54
 70
     1
102
RTVSPropertyOp55
 70
     1
102
RTVSPropertyOp56
 70
     1
102
RTVSPropertyOp57
 70
     1
102
RTVSPost2010Prop28
280
     0
102
RTVSPost2010PropOp28
 70
     1
102
RTVSPost2010Prop29
280
     1
102
RTVSPost2010PropOp29
 70
     1
102
RTVSPost2010Prop30
280
     1
102
RTVSPost2010PropOp30
 70
     1
102
RTVSPost2010Prop31
280
     0
102
RTVSPost2010PropOp31
 70
     1
102
RTVSPost2010Prop32
280
     0
102
RTVSPost2010PropOp32
 70
     1
102
RTVSPost2010Prop33
280
     0
102
RTVSPost2010PropOp33
 70
     1
102
RTVSPost2010Prop34
280
     0
102
RTVSPost2010PropOp34
 70
     1
102
RTVSPost2010Prop35
280
     0
102
RTVSPost2010PropOp35
 70
     1
102
RTVSPost2010Prop36
280
     0
102
RTVSPost2010PropOp36
 70
     1
102
RTVSPost2010Prop37
 90
       50
102
RTVSPost2010PropOp37
 70
     1
102
RTVSPost2010Prop38
140
0.0
102
RTVSPost2010PropOp38
 70
     1
102
RTVSPost2010Prop39
140
1.0
102
RTVSPost2010PropOp39
 70
     1
102
RTVSPost2010Prop40
 90
        0
102
RTVSPost2010PropOp40
 70
     1
102
RTVSPost2010Prop41ColorIndex
 90
       18
102
RTVSPost2010Prop41ColorRGB
 90
        0
102
RTVSPost2010PropOp41
 70
     1
102
RTVSPost2010Prop42
 90
       50
102
RTVSPost2010PropOp42
 70
     1
102
RTVSPost2010Prop43
 90
        3
102
RTVSPost2010PropOp43
 70
     1
102
RTVSPost2010Prop44ColorIndex
 90
        5
102
RTVSPost2010Prop44ColorRGB
 90
      255
102
RTVSPost2010PropOp44
 70
     1
102
RTVSPost2010Prop45
280
     0
102
RTVSPost2010PropOp45
 70
     1
102
RTVSPost2010Prop46
 90
       50
102
RTVSPost2010PropOp46
 70
     1
102
RTVSPost2010Prop47
 90
       50
102
RTVSPost2010PropOp47
 70
     1
102
RTVSPost2010Prop48
 90
       50
102
RTVSPost2010PropOp48
 70
     1
102
RTVSPost2010Prop49
280
     0
102
RTVSPost2010PropOp49
 70
     1
102
RTVSPost2010Prop50
 90
       50
102
RTVSPost2010PropOp50
 70
     1
102
RTVSPost2010Prop51ColorIndex
 90
      256
102
RTVSPost2010Prop51ColorRGB
 90
-16777216
102
RTVSPost2010PropOp51
 70
     0
102
RTVSPost2010Prop52
140
1.0
102
RTVSPost2010PropOp52
 70
     0
102
RTVSPost2010Prop53
 90
        2
102
RTVSPost2010PropOp53
 70
     1
102
RTVSPost2010Prop54
  1
strokes_ogs.tif
102
RTVSPost2010PropOp54
 70
     1
102
RTVSPost2010Prop55
280
     0
102
RTVSPost2010PropOp55
 70
     1
102
RTVSPost2010Prop56
140
1.0
102
RTVSPost2010PropOp56
 70
     1
102
RTVSPost2010Prop57
140
1.0
102
RTVSPost2010PropOp57
 70
     1
  0
XRECORD
  5
654
102
{ACAD_REACTORS
330
653
102
}
330
653
100
AcDbXrecord
280
     1
102
RTVSPropertyOp0
 70
     1
102
RTVSPropertyOp1
 70
     1
102
RTVSPropertyOp2
 70
     1
102
RTVSPropertyOp3
 70
     1
102
RTVSPropertyOp4
 70
     1
102
RTVSPropertyOp5
 70
     1
102
RTVSPropertyOp6
 70
     1
102
RTVSPropertyOp7
 70
     1
102
RTVSPropertyOp8
 70
     1
102
RTVSPropertyOp9
 70
     1
102
RTVSPropertyOp10
 70
     1
102
RTVSPropertyOp11
 70
     1
102
RTVSPropertyOp12
 70
     1
102
RTVSPropertyOp13
 70
     1
102
RTVSPropertyOp14
 70
     1
102
RTVSPropertyOp15
 70
     1
102
RTVSPropertyOp16
 70
     1
102
RTVSPropertyOp17
 70
     1
102
RTVSPropertyOp18
 70
     1
102
RTVSPropertyOp19
 70
     1
102
RTVSPropertyOp20
 70
     1
102
RTVSPropertyOp21
 70
     1
102
RTVSPropertyOp22
 70
     1
102
RTVSPropertyOp23
 70
     1
102
RTVSPropertyOp24
 70
     1
102
RTVSPropertyOp25
 70
     1
102
RTVSPropertyOp26
 70
     1
102
RTVSPropertyOp27
 70
     1
102
RTVSPropertyOp28
 70
     1
102
RTVSPropertyOp29
 70
     1
102
RTVSPropertyOp30
 70
     1
102
RTVSPropertyOp31
 70
     1
102
RTVSPropertyOp32
 70
     1
102
RTVSPropertyOp33
 70
     1
102
RTVSPropertyOp34
 70
     1
102
RTVSPropertyOp35
 70
     1
102
RTVSPropertyOp36
 70
     1
102
RTVSPropertyOp37
 70
     1
102
RTVSPropertyOp38
 70
     1
102
RTVSPropertyOp39
 70
     1
102
RTVSPropertyOp40
 70
     1
102
RTVSPropertyOp41
 70
     1
102
RTVSPropertyOp42
 70
     1
102
RTVSPropertyOp43
 70
     1
102
RTVSPropertyOp44
 70
     1
102
RTVSPropertyOp45
 70
     1
102
RTVSPropertyOp46
 70
     1
102
RTVSPropertyOp47
 70
     1
102
RTVSPropertyOp48
 70
     1
102
RTVSPropertyOp49
 70
     1
102
RTVSPropertyOp50
 70
     1
102
RTVSPropertyOp51
 70
     0
102
RTVSPropertyOp52
 70
     0
102
RTVSPropertyOp53
 70
     1
102
RTVSPropertyOp54
 70
     1
102
RTVSPropertyOp55
 70
     1
102
RTVSPropertyOp56
 70
     1
102
RTVSPropertyOp57
 70
     1
102
RTVSPost2010Prop28
280
     0
102
RTVSPost2010PropOp28
 70
     1
102
RTVSPost2010Prop29
280
     1
102
RTVSPost2010PropOp29
 70
     1
102
RTVSPost2010Prop30
280
     1
102
RTVSPost2010PropOp30
 70
     1
102
RTVSPost2010Prop31
280
     0
102
RTVSPost2010PropOp31
 70
     1
102
RTVSPost2010Prop32
280
     0
102
RTVSPost2010PropOp32
 70
     1
102
RTVSPost2010Prop33
280
     0
102
RTVSPost2010PropOp33
 70
     1
102
RTVSPost2010Prop34
280
     0
102
RTVSPost2010PropOp34
 70
     1
102
RTVSPost2010Prop35
280
     0
102
RTVSPost2010PropOp35
 70
     1
102
RTVSPost2010Prop36
280
     0
102
RTVSPost2010PropOp36
 70
     1
102
RTVSPost2010Prop37
 90
       50
102
RTVSPost2010PropOp37
 70
     1
102
RTVSPost2010Prop38
140
0.0
102
RTVSPost2010PropOp38
 70
     1
102
RTVSPost2010Prop39
140
1.0
102
RTVSPost2010PropOp39
 70
     1
102
RTVSPost2010Prop40
 90
        0
102
RTVSPost2010PropOp40
 70
     1
102
RTVSPost2010Prop41ColorIndex
 90
       18
102
RTVSPost2010Prop41ColorRGB
 90
        0
102
RTVSPost2010PropOp41
 70
     1
102
RTVSPost2010Prop42
 90
       50
102
RTVSPost2010PropOp42
 70
     1
102
RTVSPost2010Prop43
 90
        3
102
RTVSPost2010PropOp43
 70
     1
102
RTVSPost2010Prop44ColorIndex
 90
        5
102
RTVSPost2010Prop44ColorRGB
 90
      255
102
RTVSPost2010PropOp44
 70
     1
102
RTVSPost2010Prop45
280
     0
102
RTVSPost2010PropOp45
 70
     1
102
RTVSPost2010Prop46
 90
       50
102
RTVSPost2010PropOp46
 70
     1
102
RTVSPost2010Prop47
 90
       50
102
RTVSPost2010PropOp47
 70
     1
102
RTVSPost2010Prop48
 90
       50
102
RTVSPost2010PropOp48
 70
     1
102
RTVSPost2010Prop49
280
     0
102
RTVSPost2010PropOp49
 70
     1
102
RTVSPost2010Prop50
 90
       50
102
RTVSPost2010PropOp50
 70
     1
102
RTVSPost2010Prop51ColorIndex
 90
      256
102
RTVSPost2010Prop51ColorRGB
 90
-16777216
102
RTVSPost2010PropOp51
 70
     0
102
RTVSPost2010Prop52
140
1.0
102
RTVSPost2010PropOp52
 70
     0
102
RTVSPost2010Prop53
 90
        2
102
RTVSPost2010PropOp53
 70
     1
102
RTVSPost2010Prop54
  1
strokes_ogs.tif
102
RTVSPost2010PropOp54
 70
     1
102
RTVSPost2010Prop55
280
     0
102
RTVSPost2010PropOp55
 70
     1
102
RTVSPost2010Prop56
140
1.0
102
RTVSPost2010PropOp56
 70
     1
102
RTVSPost2010Prop57
140
1.0
102
RTVSPost2010PropOp57
 70
     1
  0
XRECORD
  5
656
102
{ACAD_REACTORS
330
655
102
}
330
655
100
AcDbXrecord
280
     1
102
RTVSPropertyOp0
 70
     1
102
RTVSPropertyOp1
 70
     1
102
RTVSPropertyOp2
 70
     1
102
RTVSPropertyOp3
 70
     1
102
RTVSPropertyOp4
 70
     1
102
RTVSPropertyOp5
 70
     1
102
RTVSPropertyOp6
 70
     1
102
RTVSPropertyOp7
 70
     1
102
RTVSPropertyOp8
 70
     1
102
RTVSPropertyOp9
 70
     1
102
RTVSPropertyOp10
 70
     1
102
RTVSPropertyOp11
 70
     1
102
RTVSPropertyOp12
 70
     1
102
RTVSPropertyOp13
 70
     1
102
RTVSPropertyOp14
 70
     1
102
RTVSPropertyOp15
 70
     1
102
RTVSPropertyOp16
 70
     1
102
RTVSPropertyOp17
 70
     1
102
RTVSPropertyOp18
 70
     1
102
RTVSPropertyOp19
 70
     1
102
RTVSPropertyOp20
 70
     1
102
RTVSPropertyOp21
 70
     1
102
RTVSPropertyOp22
 70
     1
102
RTVSPropertyOp23
 70
     1
102
RTVSPropertyOp24
 70
     1
102
RTVSPropertyOp25
 70
     1
102
RTVSPropertyOp26
 70
     1
102
RTVSPropertyOp27
 70
     1
102
RTVSPropertyOp28
 70
     1
102
RTVSPropertyOp29
 70
     1
102
RTVSPropertyOp30
 70
     1
102
RTVSPropertyOp31
 70
     1
102
RTVSPropertyOp32
 70
     1
102
RTVSPropertyOp33
 70
     1
102
RTVSPropertyOp34
 70
     1
102
RTVSPropertyOp35
 70
     1
102
RTVSPropertyOp36
 70
     1
102
RTVSPropertyOp37
 70
     1
102
RTVSPropertyOp38
 70
     1
102
RTVSPropertyOp39
 70
     1
102
RTVSPropertyOp40
 70
     1
102
RTVSPropertyOp41
 70
     1
102
RTVSPropertyOp42
 70
     1
102
RTVSPropertyOp43
 70
     1
102
RTVSPropertyOp44
 70
     1
102
RTVSPropertyOp45
 70
     1
102
RTVSPropertyOp46
 70
     1
102
RTVSPropertyOp47
 70
     1
102
RTVSPropertyOp48
 70
     1
102
RTVSPropertyOp49
 70
     1
102
RTVSPropertyOp50
 70
     1
102
RTVSPropertyOp51
 70
     0
102
RTVSPropertyOp52
 70
     0
102
RTVSPropertyOp53
 70
     1
102
RTVSPropertyOp54
 70
     1
102
RTVSPropertyOp55
 70
     1
102
RTVSPropertyOp56
 70
     1
102
RTVSPropertyOp57
 70
     1
102
RTVSPost2010Prop28
280
     0
102
RTVSPost2010PropOp28
 70
     1
102
RTVSPost2010Prop29
280
     1
102
RTVSPost2010PropOp29
 70
     1
102
RTVSPost2010Prop30
280
     1
102
RTVSPost2010PropOp30
 70
     1
102
RTVSPost2010Prop31
280
     0
102
RTVSPost2010PropOp31
 70
     1
102
RTVSPost2010Prop32
280
     0
102
RTVSPost2010PropOp32
 70
     1
102
RTVSPost2010Prop33
280
     0
102
RTVSPost2010PropOp33
 70
     1
102
RTVSPost2010Prop34
280
     0
102
RTVSPost2010PropOp34
 70
     1
102
RTVSPost2010Prop35
280
     0
102
RTVSPost2010PropOp35
 70
     1
102
RTVSPost2010Prop36
280
     0
102
RTVSPost2010PropOp36
 70
     1
102
RTVSPost2010Prop37
 90
       50
102
RTVSPost2010PropOp37
 70
     1
102
RTVSPost2010Prop38
140
0.0
102
RTVSPost2010PropOp38
 70
     1
102
RTVSPost2010Prop39
140
1.0
102
RTVSPost2010PropOp39
 70
     1
102
RTVSPost2010Prop40
 90
        0
102
RTVSPost2010PropOp40
 70
     1
102
RTVSPost2010Prop41ColorIndex
 90
       18
102
RTVSPost2010Prop41ColorRGB
 90
        0
102
RTVSPost2010PropOp41
 70
     1
102
RTVSPost2010Prop42
 90
       50
102
RTVSPost2010PropOp42
 70
     1
102
RTVSPost2010Prop43
 90
        3
102
RTVSPost2010PropOp43
 70
     1
102
RTVSPost2010Prop44ColorIndex
 90
        5
102
RTVSPost2010Prop44ColorRGB
 90
      255
102
RTVSPost2010PropOp44
 70
     1
102
RTVSPost2010Prop45
280
     0
102
RTVSPost2010PropOp45
 70
     1
102
RTVSPost2010Prop46
 90
       50
102
RTVSPost2010PropOp46
 70
     1
102
RTVSPost2010Prop47
 90
       50
102
RTVSPost2010PropOp47
 70
     1
102
RTVSPost2010Prop48
 90
       50
102
RTVSPost2010PropOp48
 70
     1
102
RTVSPost2010Prop49
280
     0
102
RTVSPost2010PropOp49
 70
     1
102
RTVSPost2010Prop50
 90
       50
102
RTVSPost2010PropOp50
 70
     1
102
RTVSPost2010Prop51ColorIndex
 90
      256
102
RTVSPost2010Prop51ColorRGB
 90
-16777216
102
RTVSPost2010PropOp51
 70
     0
102
RTVSPost2010Prop52
140
1.0
102
RTVSPost2010PropOp52
 70
     0
102
RTVSPost2010Prop53
 90
        2
102
RTVSPost2010PropOp53
 70
     1
102
RTVSPost2010Prop54
  1
strokes_ogs.tif
102
RTVSPost2010PropOp54
 70
     1
102
RTVSPost2010Prop55
280
     0
102
RTVSPost2010PropOp55
 70
     1
102
RTVSPost2010Prop56
140
1.0
102
RTVSPost2010PropOp56
 70
     1
102
RTVSPost2010Prop57
140
1.0
102
RTVSPost2010PropOp57
 70
     1
  0
XRECORD
  5
666
102
{ACAD_REACTORS
330
665
102
}
330
665
100
AcDbXrecord
280
     1
102
RTVSPropertyOp0
 70
     0
102
RTVSPropertyOp1
 70
     0
102
RTVSPropertyOp2
 70
     0
102
RTVSPropertyOp3
 70
     0
102
RTVSPropertyOp4
 70
     0
102
RTVSPropertyOp5
 70
     0
102
RTVSPropertyOp6
 70
     0
102
RTVSPropertyOp7
 70
     0
102
RTVSPropertyOp8
 70
     0
102
RTVSPropertyOp9
 70
     0
102
RTVSPropertyOp10
 70
     0
102
RTVSPropertyOp11
 70
     0
102
RTVSPropertyOp12
 70
     0
102
RTVSPropertyOp13
 70
     0
102
RTVSPropertyOp14
 70
     0
102
RTVSPropertyOp15
 70
     0
102
RTVSPropertyOp16
 70
     0
102
RTVSPropertyOp17
 70
     0
102
RTVSPropertyOp18
 70
     0
102
RTVSPropertyOp19
 70
     0
102
RTVSPropertyOp20
 70
     0
102
RTVSPropertyOp21
 70
     0
102
RTVSPropertyOp22
 70
     0
102
RTVSPropertyOp23
 70
     0
102
RTVSPropertyOp24
 70
     0
102
RTVSPropertyOp25
 70
     0
102
RTVSPropertyOp26
 70
     0
102
RTVSPropertyOp27
 70
     0
102
RTVSPropertyOp28
 70
     1
102
RTVSPropertyOp29
 70
     1
102
RTVSPropertyOp30
 70
     1
102
RTVSPropertyOp31
 70
     1
102
RTVSPropertyOp32
 70
     1
102
RTVSPropertyOp33
 70
     1
102
RTVSPropertyOp34
 70
     1
102
RTVSPropertyOp35
 70
     1
102
RTVSPropertyOp36
 70
     1
102
RTVSPropertyOp37
 70
     1
102
RTVSPropertyOp38
 70
     1
102
RTVSPropertyOp39
 70
     1
102
RTVSPropertyOp40
 70
     1
102
RTVSPropertyOp41
 70
     1
102
RTVSPropertyOp42
 70
     1
102
RTVSPropertyOp43
 70
     1
102
RTVSPropertyOp44
 70
     1
102
RTVSPropertyOp45
 70
     1
102
RTVSPropertyOp46
 70
     1
102
RTVSPropertyOp47
 70
     1
102
RTVSPropertyOp48
 70
     1
102
RTVSPropertyOp49
 70
     1
102
RTVSPropertyOp50
 70
     1
102
RTVSPropertyOp51
 70
     0
102
RTVSPropertyOp52
 70
     0
102
RTVSPropertyOp53
 70
     1
102
RTVSPropertyOp54
 70
     1
102
RTVSPropertyOp55
 70
     1
102
RTVSPropertyOp56
 70
     1
102
RTVSPropertyOp57
 70
     1
102
RTVSPost2010Prop28
280
     0
102
RTVSPost2010PropOp28
 70
     1
102
RTVSPost2010Prop29
280
     1
102
RTVSPost2010PropOp29
 70
     1
102
RTVSPost2010Prop30
280
     1
102
RTVSPost2010PropOp30
 70
     1
102
RTVSPost2010Prop31
280
     0
102
RTVSPost2010PropOp31
 70
     1
102
RTVSPost2010Prop32
280
     0
102
RTVSPost2010PropOp32
 70
     1
102
RTVSPost2010Prop33
280
     0
102
RTVSPost2010PropOp33
 70
     1
102
RTVSPost2010Prop34
280
     0
102
RTVSPost2010PropOp34
 70
     1
102
RTVSPost2010Prop35
280
     0
102
RTVSPost2010PropOp35
 70
     1
102
RTVSPost2010Prop36
280
     0
102
RTVSPost2010PropOp36
 70
     1
102
RTVSPost2010Prop37
 90
       50
102
RTVSPost2010PropOp37
 70
     1
102
RTVSPost2010Prop38
140
0.0
102
RTVSPost2010PropOp38
 70
     1
102
RTVSPost2010Prop39
140
1.0
102
RTVSPost2010PropOp39
 70
     1
102
RTVSPost2010Prop40
 90
        0
102
RTVSPost2010PropOp40
 70
     1
102
RTVSPost2010Prop41ColorIndex
 90
       18
102
RTVSPost2010Prop41ColorRGB
 90
        0
102
RTVSPost2010PropOp41
 70
     1
102
RTVSPost2010Prop42
 90
       50
102
RTVSPost2010PropOp42
 70
     1
102
RTVSPost2010Prop43
 90
        3
102
RTVSPost2010PropOp43
 70
     1
102
RTVSPost2010Prop44ColorIndex
 90
        5
102
RTVSPost2010Prop44ColorRGB
 90
      255
102
RTVSPost2010PropOp44
 70
     1
102
RTVSPost2010Prop45
280
     0
102
RTVSPost2010PropOp45
 70
     1
102
RTVSPost2010Prop46
 90
       50
102
RTVSPost2010PropOp46
 70
     1
102
RTVSPost2010Prop47
 90
       50
102
RTVSPost2010PropOp47
 70
     1
102
RTVSPost2010Prop48
 90
       50
102
RTVSPost2010PropOp48
 70
     1
102
RTVSPost2010Prop49
280
     0
102
RTVSPost2010PropOp49
 70
     1
102
RTVSPost2010Prop50
 90
       50
102
RTVSPost2010PropOp50
 70
     1
102
RTVSPost2010Prop51ColorIndex
 90
      256
102
RTVSPost2010Prop51ColorRGB
 90
-16777216
102
RTVSPost2010PropOp51
 70
     0
102
RTVSPost2010Prop52
140
1.0
102
RTVSPost2010PropOp52
 70
     0
102
RTVSPost2010Prop53
 90
        2
102
RTVSPost2010PropOp53
 70
     1
102
RTVSPost2010Prop54
  1
strokes_ogs.tif
102
RTVSPost2010PropOp54
 70
     1
102
RTVSPost2010Prop55
280
     0
102
RTVSPost2010PropOp55
 70
     1
102
RTVSPost2010Prop56
140
1.0
102
RTVSPost2010PropOp56
 70
     1
102
RTVSPost2010Prop57
140
1.0
102
RTVSPost2010PropOp57
 70
     1
  0
XRECORD
  5
65E
102
{ACAD_REACTORS
330
65D
102
}
330
65D
100
AcDbXrecord
280
     1
102
RTVSPropertyOp0
 70
     1
102
RTVSPropertyOp1
 70
     1
102
RTVSPropertyOp2
 70
     1
102
RTVSPropertyOp3
 70
     1
102
RTVSPropertyOp4
 70
     1
102
RTVSPropertyOp5
 70
     1
102
RTVSPropertyOp6
 70
     1
102
RTVSPropertyOp7
 70
     1
102
RTVSPropertyOp8
 70
     1
102
RTVSPropertyOp9
 70
     1
102
RTVSPropertyOp10
 70
     1
102
RTVSPropertyOp11
 70
     1
102
RTVSPropertyOp12
 70
     1
102
RTVSPropertyOp13
 70
     1
102
RTVSPropertyOp14
 70
     1
102
RTVSPropertyOp15
 70
     1
102
RTVSPropertyOp16
 70
     1
102
RTVSPropertyOp17
 70
     1
102
RTVSPropertyOp18
 70
     1
102
RTVSPropertyOp19
 70
     1
102
RTVSPropertyOp20
 70
     1
102
RTVSPropertyOp21
 70
     1
102
RTVSPropertyOp22
 70
     1
102
RTVSPropertyOp23
 70
     1
102
RTVSPropertyOp24
 70
     1
102
RTVSPropertyOp25
 70
     1
102
RTVSPropertyOp26
 70
     1
102
RTVSPropertyOp27
 70
     1
102
RTVSPropertyOp28
 70
     1
102
RTVSPropertyOp29
 70
     1
102
RTVSPropertyOp30
 70
     1
102
RTVSPropertyOp31
 70
     1
102
RTVSPropertyOp32
 70
     1
102
RTVSPropertyOp33
 70
     1
102
RTVSPropertyOp34
 70
     1
102
RTVSPropertyOp35
 70
     1
102
RTVSPropertyOp36
 70
     1
102
RTVSPropertyOp37
 70
     1
102
RTVSPropertyOp38
 70
     1
102
RTVSPropertyOp39
 70
     1
102
RTVSPropertyOp40
 70
     1
102
RTVSPropertyOp41
 70
     1
102
RTVSPropertyOp42
 70
     1
102
RTVSPropertyOp43
 70
     1
102
RTVSPropertyOp44
 70
     1
102
RTVSPropertyOp45
 70
     1
102
RTVSPropertyOp46
 70
     1
102
RTVSPropertyOp47
 70
     1
102
RTVSPropertyOp48
 70
     1
102
RTVSPropertyOp49
 70
     1
102
RTVSPropertyOp50
 70
     1
102
RTVSPropertyOp51
 70
     0
102
RTVSPropertyOp52
 70
     0
102
RTVSPropertyOp53
 70
     1
102
RTVSPropertyOp54
 70
     1
102
RTVSPropertyOp55
 70
     1
102
RTVSPropertyOp56
 70
     1
102
RTVSPropertyOp57
 70
     1
102
RTVSPost2010Prop28
280
     0
102
RTVSPost2010PropOp28
 70
     1
102
RTVSPost2010Prop29
280
     1
102
RTVSPost2010PropOp29
 70
     1
102
RTVSPost2010Prop30
280
     1
102
RTVSPost2010PropOp30
 70
     1
102
RTVSPost2010Prop31
280
     0
102
RTVSPost2010PropOp31
 70
     1
102
RTVSPost2010Prop32
280
     0
102
RTVSPost2010PropOp32
 70
     1
102
RTVSPost2010Prop33
280
     0
102
RTVSPost2010PropOp33
 70
     1
102
RTVSPost2010Prop34
280
     0
102
RTVSPost2010PropOp34
 70
     1
102
RTVSPost2010Prop35
280
     0
102
RTVSPost2010PropOp35
 70
     1
102
RTVSPost2010Prop36
280
     0
102
RTVSPost2010PropOp36
 70
     1
102
RTVSPost2010Prop37
 90
       50
102
RTVSPost2010PropOp37
 70
     1
102
RTVSPost2010Prop38
140
0.0
102
RTVSPost2010PropOp38
 70
     1
102
RTVSPost2010Prop39
140
1.0
102
RTVSPost2010PropOp39
 70
     1
102
RTVSPost2010Prop40
 90
        0
102
RTVSPost2010PropOp40
 70
     1
102
RTVSPost2010Prop41ColorIndex
 90
       18
102
RTVSPost2010Prop41ColorRGB
 90
        0
102
RTVSPost2010PropOp41
 70
     1
102
RTVSPost2010Prop42
 90
       50
102
RTVSPost2010PropOp42
 70
     1
102
RTVSPost2010Prop43
 90
        3
102
RTVSPost2010PropOp43
 70
     1
102
RTVSPost2010Prop44ColorIndex
 90
        5
102
RTVSPost2010Prop44ColorRGB
 90
      255
102
RTVSPost2010PropOp44
 70
     1
102
RTVSPost2010Prop45
280
     0
102
RTVSPost2010PropOp45
 70
     1
102
RTVSPost2010Prop46
 90
       50
102
RTVSPost2010PropOp46
 70
     1
102
RTVSPost2010Prop47
 90
       50
102
RTVSPost2010PropOp47
 70
     1
102
RTVSPost2010Prop48
 90
       50
102
RTVSPost2010PropOp48
 70
     1
102
RTVSPost2010Prop49
280
     0
102
RTVSPost2010PropOp49
 70
     1
102
RTVSPost2010Prop50
 90
       50
102
RTVSPost2010PropOp50
 70
     1
102
RTVSPost2010Prop51ColorIndex
 90
      256
102
RTVSPost2010Prop51ColorRGB
 90
-16777216
102
RTVSPost2010PropOp51
 70
     0
102
RTVSPost2010Prop52
140
1.0
102
RTVSPost2010PropOp52
 70
     0
102
RTVSPost2010Prop53
 90
        2
102
RTVSPost2010PropOp53
 70
     1
102
RTVSPost2010Prop54
  1
strokes_ogs.tif
102
RTVSPost2010PropOp54
 70
     1
102
RTVSPost2010Prop55
280
     0
102
RTVSPost2010PropOp55
 70
     1
102
RTVSPost2010Prop56
140
1.0
102
RTVSPost2010PropOp56
 70
     1
102
RTVSPost2010Prop57
140
1.0
102
RTVSPost2010PropOp57
 70
     1
  0
XRECORD
  5
644
102
{ACAD_REACTORS
330
643
102
}
330
643
100
AcDbXrecord
280
     1
102
RTVSPropertyOp0
 70
     1
102
RTVSPropertyOp1
 70
     1
102
RTVSPropertyOp2
 70
     1
102
RTVSPropertyOp3
 70
     1
102
RTVSPropertyOp4
 70
     1
102
RTVSPropertyOp5
 70
     1
102
RTVSPropertyOp6
 70
     1
102
RTVSPropertyOp7
 70
     1
102
RTVSPropertyOp8
 70
     1
102
RTVSPropertyOp9
 70
     1
102
RTVSPropertyOp10
 70
     1
102
RTVSPropertyOp11
 70
     1
102
RTVSPropertyOp12
 70
     1
102
RTVSPropertyOp13
 70
     1
102
RTVSPropertyOp14
 70
     1
102
RTVSPropertyOp15
 70
     1
102
RTVSPropertyOp16
 70
     1
102
RTVSPropertyOp17
 70
     1
102
RTVSPropertyOp18
 70
     1
102
RTVSPropertyOp19
 70
     1
102
RTVSPropertyOp20
 70
     1
102
RTVSPropertyOp21
 70
     1
102
RTVSPropertyOp22
 70
     1
102
RTVSPropertyOp23
 70
     1
102
RTVSPropertyOp24
 70
     1
102
RTVSPropertyOp25
 70
     1
102
RTVSPropertyOp26
 70
     1
102
RTVSPropertyOp27
 70
     1
102
RTVSPropertyOp28
 70
     1
102
RTVSPropertyOp29
 70
     1
102
RTVSPropertyOp30
 70
     1
102
RTVSPropertyOp31
 70
     1
102
RTVSPropertyOp32
 70
     1
102
RTVSPropertyOp33
 70
     1
102
RTVSPropertyOp34
 70
     1
102
RTVSPropertyOp35
 70
     1
102
RTVSPropertyOp36
 70
     1
102
RTVSPropertyOp37
 70
     1
102
RTVSPropertyOp38
 70
     1
102
RTVSPropertyOp39
 70
     1
102
RTVSPropertyOp40
 70
     1
102
RTVSPropertyOp41
 70
     1
102
RTVSPropertyOp42
 70
     1
102
RTVSPropertyOp43
 70
     1
102
RTVSPropertyOp44
 70
     1
102
RTVSPropertyOp45
 70
     1
102
RTVSPropertyOp46
 70
     1
102
RTVSPropertyOp47
 70
     1
102
RTVSPropertyOp48
 70
     1
102
RTVSPropertyOp49
 70
     1
102
RTVSPropertyOp50
 70
     1
102
RTVSPropertyOp51
 70
     0
102
RTVSPropertyOp52
 70
     0
102
RTVSPropertyOp53
 70
     1
102
RTVSPropertyOp54
 70
     1
102
RTVSPropertyOp55
 70
     1
102
RTVSPropertyOp56
 70
     1
102
RTVSPropertyOp57
 70
     1
102
RTVSPost2010Prop28
280
     0
102
RTVSPost2010PropOp28
 70
     1
102
RTVSPost2010Prop29
280
     1
102
RTVSPost2010PropOp29
 70
     1
102
RTVSPost2010Prop30
280
     1
102
RTVSPost2010PropOp30
 70
     1
102
RTVSPost2010Prop31
280
     0
102
RTVSPost2010PropOp31
 70
     1
102
RTVSPost2010Prop32
280
     0
102
RTVSPost2010PropOp32
 70
     1
102
RTVSPost2010Prop33
280
     0
102
RTVSPost2010PropOp33
 70
     1
102
RTVSPost2010Prop34
280
     0
102
RTVSPost2010PropOp34
 70
     1
102
RTVSPost2010Prop35
280
     0
102
RTVSPost2010PropOp35
 70
     1
102
RTVSPost2010Prop36
280
     0
102
RTVSPost2010PropOp36
 70
     1
102
RTVSPost2010Prop37
 90
       50
102
RTVSPost2010PropOp37
 70
     1
102
RTVSPost2010Prop38
140
0.0
102
RTVSPost2010PropOp38
 70
     1
102
RTVSPost2010Prop39
140
1.0
102
RTVSPost2010PropOp39
 70
     1
102
RTVSPost2010Prop40
 90
        0
102
RTVSPost2010PropOp40
 70
     1
102
RTVSPost2010Prop41ColorIndex
 90
       18
102
RTVSPost2010Prop41ColorRGB
 90
        0
102
RTVSPost2010PropOp41
 70
     1
102
RTVSPost2010Prop42
 90
       50
102
RTVSPost2010PropOp42
 70
     1
102
RTVSPost2010Prop43
 90
        3
102
RTVSPost2010PropOp43
 70
     1
102
RTVSPost2010Prop44ColorIndex
 90
        5
102
RTVSPost2010Prop44ColorRGB
 90
      255
102
RTVSPost2010PropOp44
 70
     1
102
RTVSPost2010Prop45
280
     0
102
RTVSPost2010PropOp45
 70
     1
102
RTVSPost2010Prop46
 90
       50
102
RTVSPost2010PropOp46
 70
     1
102
RTVSPost2010Prop47
 90
       50
102
RTVSPost2010PropOp47
 70
     1
102
RTVSPost2010Prop48
 90
       50
102
RTVSPost2010PropOp48
 70
     1
102
RTVSPost2010Prop49
280
     0
102
RTVSPost2010PropOp49
 70
     1
102
RTVSPost2010Prop50
 90
       50
102
RTVSPost2010PropOp50
 70
     1
102
RTVSPost2010Prop51ColorIndex
 90
      256
102
RTVSPost2010Prop51ColorRGB
 90
-16777216
102
RTVSPost2010PropOp51
 70
     0
102
RTVSPost2010Prop52
140
1.0
102
RTVSPost2010PropOp52
 70
     0
102
RTVSPost2010Prop53
 90
        2
102
RTVSPost2010PropOp53
 70
     1
102
RTVSPost2010Prop54
  1
strokes_ogs.tif
102
RTVSPost2010PropOp54
 70
     1
102
RTVSPost2010Prop55
280
     0
102
RTVSPost2010PropOp55
 70
     1
102
RTVSPost2010Prop56
140
1.0
102
RTVSPost2010PropOp56
 70
     1
102
RTVSPost2010Prop57
140
1.0
102
RTVSPost2010PropOp57
 70
     1
  0
XRECORD
  5
646
102
{ACAD_REACTORS
330
645
102
}
330
645
100
AcDbXrecord
280
     1
102
RTVSPropertyOp0
 70
     1
102
RTVSPropertyOp1
 70
     1
102
RTVSPropertyOp2
 70
     1
102
RTVSPropertyOp3
 70
     1
102
RTVSPropertyOp4
 70
     1
102
RTVSPropertyOp5
 70
     1
102
RTVSPropertyOp6
 70
     1
102
RTVSPropertyOp7
 70
     1
102
RTVSPropertyOp8
 70
     1
102
RTVSPropertyOp9
 70
     1
102
RTVSPropertyOp10
 70
     1
102
RTVSPropertyOp11
 70
     1
102
RTVSPropertyOp12
 70
     1
102
RTVSPropertyOp13
 70
     1
102
RTVSPropertyOp14
 70
     1
102
RTVSPropertyOp15
 70
     1
102
RTVSPropertyOp16
 70
     1
102
RTVSPropertyOp17
 70
     1
102
RTVSPropertyOp18
 70
     1
102
RTVSPropertyOp19
 70
     1
102
RTVSPropertyOp20
 70
     1
102
RTVSPropertyOp21
 70
     1
102
RTVSPropertyOp22
 70
     1
102
RTVSPropertyOp23
 70
     1
102
RTVSPropertyOp24
 70
     1
102
RTVSPropertyOp25
 70
     1
102
RTVSPropertyOp26
 70
     1
102
RTVSPropertyOp27
 70
     1
102
RTVSPropertyOp28
 70
     1
102
RTVSPropertyOp29
 70
     1
102
RTVSPropertyOp30
 70
     1
102
RTVSPropertyOp31
 70
     1
102
RTVSPropertyOp32
 70
     1
102
RTVSPropertyOp33
 70
     1
102
RTVSPropertyOp34
 70
     1
102
RTVSPropertyOp35
 70
     1
102
RTVSPropertyOp36
 70
     1
102
RTVSPropertyOp37
 70
     1
102
RTVSPropertyOp38
 70
     1
102
RTVSPropertyOp39
 70
     1
102
RTVSPropertyOp40
 70
     1
102
RTVSPropertyOp41
 70
     1
102
RTVSPropertyOp42
 70
     1
102
RTVSPropertyOp43
 70
     1
102
RTVSPropertyOp44
 70
     1
102
RTVSPropertyOp45
 70
     1
102
RTVSPropertyOp46
 70
     1
102
RTVSPropertyOp47
 70
     1
102
RTVSPropertyOp48
 70
     1
102
RTVSPropertyOp49
 70
     1
102
RTVSPropertyOp50
 70
     1
102
RTVSPropertyOp51
 70
     0
102
RTVSPropertyOp52
 70
     0
102
RTVSPropertyOp53
 70
     1
102
RTVSPropertyOp54
 70
     1
102
RTVSPropertyOp55
 70
     1
102
RTVSPropertyOp56
 70
     1
102
RTVSPropertyOp57
 70
     1
102
RTVSPost2010Prop28
280
     0
102
RTVSPost2010PropOp28
 70
     1
102
RTVSPost2010Prop29
280
     1
102
RTVSPost2010PropOp29
 70
     1
102
RTVSPost2010Prop30
280
     1
102
RTVSPost2010PropOp30
 70
     1
102
RTVSPost2010Prop31
280
     0
102
RTVSPost2010PropOp31
 70
     1
102
RTVSPost2010Prop32
280
     0
102
RTVSPost2010PropOp32
 70
     1
102
RTVSPost2010Prop33
280
     0
102
RTVSPost2010PropOp33
 70
     1
102
RTVSPost2010Prop34
280
     0
102
RTVSPost2010PropOp34
 70
     1
102
RTVSPost2010Prop35
280
     0
102
RTVSPost2010PropOp35
 70
     1
102
RTVSPost2010Prop36
280
     0
102
RTVSPost2010PropOp36
 70
     1
102
RTVSPost2010Prop37
 90
       50
102
RTVSPost2010PropOp37
 70
     1
102
RTVSPost2010Prop38
140
0.0
102
RTVSPost2010PropOp38
 70
     1
102
RTVSPost2010Prop39
140
1.0
102
RTVSPost2010PropOp39
 70
     1
102
RTVSPost2010Prop40
 90
        0
102
RTVSPost2010PropOp40
 70
     1
102
RTVSPost2010Prop41ColorIndex
 90
       18
102
RTVSPost2010Prop41ColorRGB
 90
        0
102
RTVSPost2010PropOp41
 70
     1
102
RTVSPost2010Prop42
 90
       50
102
RTVSPost2010PropOp42
 70
     1
102
RTVSPost2010Prop43
 90
        3
102
RTVSPost2010PropOp43
 70
     1
102
RTVSPost2010Prop44ColorIndex
 90
        5
102
RTVSPost2010Prop44ColorRGB
 90
      255
102
RTVSPost2010PropOp44
 70
     1
102
RTVSPost2010Prop45
280
     0
102
RTVSPost2010PropOp45
 70
     1
102
RTVSPost2010Prop46
 90
       50
102
RTVSPost2010PropOp46
 70
     1
102
RTVSPost2010Prop47
 90
       50
102
RTVSPost2010PropOp47
 70
     1
102
RTVSPost2010Prop48
 90
       50
102
RTVSPost2010PropOp48
 70
     1
102
RTVSPost2010Prop49
280
     0
102
RTVSPost2010PropOp49
 70
     1
102
RTVSPost2010Prop50
 90
       50
102
RTVSPost2010PropOp50
 70
     1
102
RTVSPost2010Prop51ColorIndex
 90
      256
102
RTVSPost2010Prop51ColorRGB
 90
-16777216
102
RTVSPost2010PropOp51
 70
     0
102
RTVSPost2010Prop52
140
1.0
102
RTVSPost2010PropOp52
 70
     0
102
RTVSPost2010Prop53
 90
        2
102
RTVSPost2010PropOp53
 70
     1
102
RTVSPost2010Prop54
  1
strokes_ogs.tif
102
RTVSPost2010PropOp54
 70
     1
102
RTVSPost2010Prop55
280
     0
102
RTVSPost2010PropOp55
 70
     1
102
RTVSPost2010Prop56
140
1.0
102
RTVSPost2010PropOp56
 70
     1
102
RTVSPost2010Prop57
140
1.0
102
RTVSPost2010PropOp57
 70
     1
  0
XRECORD
  5
648
102
{ACAD_REACTORS
330
647
102
}
330
647
100
AcDbXrecord
280
     1
102
RTVSPropertyOp0
 70
     1
102
RTVSPropertyOp1
 70
     1
102
RTVSPropertyOp2
 70
     1
102
RTVSPropertyOp3
 70
     1
102
RTVSPropertyOp4
 70
     1
102
RTVSPropertyOp5
 70
     1
102
RTVSPropertyOp6
 70
     1
102
RTVSPropertyOp7
 70
     1
102
RTVSPropertyOp8
 70
     1
102
RTVSPropertyOp9
 70
     1
102
RTVSPropertyOp10
 70
     1
102
RTVSPropertyOp11
 70
     1
102
RTVSPropertyOp12
 70
     1
102
RTVSPropertyOp13
 70
     1
102
RTVSPropertyOp14
 70
     1
102
RTVSPropertyOp15
 70
     1
102
RTVSPropertyOp16
 70
     1
102
RTVSPropertyOp17
 70
     1
102
RTVSPropertyOp18
 70
     1
102
RTVSPropertyOp19
 70
     1
102
RTVSPropertyOp20
 70
     1
102
RTVSPropertyOp21
 70
     1
102
RTVSPropertyOp22
 70
     1
102
RTVSPropertyOp23
 70
     1
102
RTVSPropertyOp24
 70
     1
102
RTVSPropertyOp25
 70
     1
102
RTVSPropertyOp26
 70
     1
102
RTVSPropertyOp27
 70
     1
102
RTVSPropertyOp28
 70
     1
102
RTVSPropertyOp29
 70
     1
102
RTVSPropertyOp30
 70
     1
102
RTVSPropertyOp31
 70
     1
102
RTVSPropertyOp32
 70
     1
102
RTVSPropertyOp33
 70
     1
102
RTVSPropertyOp34
 70
     1
102
RTVSPropertyOp35
 70
     1
102
RTVSPropertyOp36
 70
     1
102
RTVSPropertyOp37
 70
     1
102
RTVSPropertyOp38
 70
     1
102
RTVSPropertyOp39
 70
     1
102
RTVSPropertyOp40
 70
     1
102
RTVSPropertyOp41
 70
     1
102
RTVSPropertyOp42
 70
     1
102
RTVSPropertyOp43
 70
     1
102
RTVSPropertyOp44
 70
     1
102
RTVSPropertyOp45
 70
     1
102
RTVSPropertyOp46
 70
     1
102
RTVSPropertyOp47
 70
     1
102
RTVSPropertyOp48
 70
     1
102
RTVSPropertyOp49
 70
     1
102
RTVSPropertyOp50
 70
     1
102
RTVSPropertyOp51
 70
     0
102
RTVSPropertyOp52
 70
     0
102
RTVSPropertyOp53
 70
     1
102
RTVSPropertyOp54
 70
     1
102
RTVSPropertyOp55
 70
     1
102
RTVSPropertyOp56
 70
     1
102
RTVSPropertyOp57
 70
     1
102
RTVSPost2010Prop28
280
     0
102
RTVSPost2010PropOp28
 70
     1
102
RTVSPost2010Prop29
280
     1
102
RTVSPost2010PropOp29
 70
     1
102
RTVSPost2010Prop30
280
     1
102
RTVSPost2010PropOp30
 70
     1
102
RTVSPost2010Prop31
280
     0
102
RTVSPost2010PropOp31
 70
     1
102
RTVSPost2010Prop32
280
     0
102
RTVSPost2010PropOp32
 70
     1
102
RTVSPost2010Prop33
280
     0
102
RTVSPost2010PropOp33
 70
     1
102
RTVSPost2010Prop34
280
     0
102
RTVSPost2010PropOp34
 70
     1
102
RTVSPost2010Prop35
280
     0
102
RTVSPost2010PropOp35
 70
     1
102
RTVSPost2010Prop36
280
     0
102
RTVSPost2010PropOp36
 70
     1
102
RTVSPost2010Prop37
 90
       50
102
RTVSPost2010PropOp37
 70
     1
102
RTVSPost2010Prop38
140
0.0
102
RTVSPost2010PropOp38
 70
     1
102
RTVSPost2010Prop39
140
1.0
102
RTVSPost2010PropOp39
 70
     1
102
RTVSPost2010Prop40
 90
        0
102
RTVSPost2010PropOp40
 70
     1
102
RTVSPost2010Prop41ColorIndex
 90
       18
102
RTVSPost2010Prop41ColorRGB
 90
        0
102
RTVSPost2010PropOp41
 70
     1
102
RTVSPost2010Prop42
 90
       50
102
RTVSPost2010PropOp42
 70
     1
102
RTVSPost2010Prop43
 90
        3
102
RTVSPost2010PropOp43
 70
     1
102
RTVSPost2010Prop44ColorIndex
 90
        5
102
RTVSPost2010Prop44ColorRGB
 90
      255
102
RTVSPost2010PropOp44
 70
     1
102
RTVSPost2010Prop45
280
     0
102
RTVSPost2010PropOp45
 70
     1
102
RTVSPost2010Prop46
 90
       50
102
RTVSPost2010PropOp46
 70
     1
102
RTVSPost2010Prop47
 90
       50
102
RTVSPost2010PropOp47
 70
     1
102
RTVSPost2010Prop48
 90
       50
102
RTVSPost2010PropOp48
 70
     1
102
RTVSPost2010Prop49
280
     0
102
RTVSPost2010PropOp49
 70
     1
102
RTVSPost2010Prop50
 90
       50
102
RTVSPost2010PropOp50
 70
     1
102
RTVSPost2010Prop51ColorIndex
 90
      256
102
RTVSPost2010Prop51ColorRGB
 90
-16777216
102
RTVSPost2010PropOp51
 70
     0
102
RTVSPost2010Prop52
140
1.0
102
RTVSPost2010PropOp52
 70
     0
102
RTVSPost2010Prop53
 90
        2
102
RTVSPost2010PropOp53
 70
     1
102
RTVSPost2010Prop54
  1
strokes_ogs.tif
102
RTVSPost2010PropOp54
 70
     1
102
RTVSPost2010Prop55
280
     0
102
RTVSPost2010PropOp55
 70
     1
102
RTVSPost2010Prop56
140
1.0
102
RTVSPost2010PropOp56
 70
     1
102
RTVSPost2010Prop57
140
1.0
102
RTVSPost2010PropOp57
 70
     1
  0
XRECORD
  5
64A
102
{ACAD_REACTORS
330
649
102
}
330
649
100
AcDbXrecord
280
     1
102
RTVSPropertyOp0
 70
     1
102
RTVSPropertyOp1
 70
     1
102
RTVSPropertyOp2
 70
     1
102
RTVSPropertyOp3
 70
     1
102
RTVSPropertyOp4
 70
     1
102
RTVSPropertyOp5
 70
     1
102
RTVSPropertyOp6
 70
     1
102
RTVSPropertyOp7
 70
     1
102
RTVSPropertyOp8
 70
     1
102
RTVSPropertyOp9
 70
     1
102
RTVSPropertyOp10
 70
     1
102
RTVSPropertyOp11
 70
     1
102
RTVSPropertyOp12
 70
     1
102
RTVSPropertyOp13
 70
     1
102
RTVSPropertyOp14
 70
     1
102
RTVSPropertyOp15
 70
     1
102
RTVSPropertyOp16
 70
     1
102
RTVSPropertyOp17
 70
     1
102
RTVSPropertyOp18
 70
     1
102
RTVSPropertyOp19
 70
     1
102
RTVSPropertyOp20
 70
     1
102
RTVSPropertyOp21
 70
     1
102
RTVSPropertyOp22
 70
     1
102
RTVSPropertyOp23
 70
     1
102
RTVSPropertyOp24
 70
     1
102
RTVSPropertyOp25
 70
     1
102
RTVSPropertyOp26
 70
     1
102
RTVSPropertyOp27
 70
     1
102
RTVSPropertyOp28
 70
     1
102
RTVSPropertyOp29
 70
     1
102
RTVSPropertyOp30
 70
     1
102
RTVSPropertyOp31
 70
     1
102
RTVSPropertyOp32
 70
     1
102
RTVSPropertyOp33
 70
     1
102
RTVSPropertyOp34
 70
     1
102
RTVSPropertyOp35
 70
     1
102
RTVSPropertyOp36
 70
     1
102
RTVSPropertyOp37
 70
     1
102
RTVSPropertyOp38
 70
     1
102
RTVSPropertyOp39
 70
     1
102
RTVSPropertyOp40
 70
     1
102
RTVSPropertyOp41
 70
     1
102
RTVSPropertyOp42
 70
     1
102
RTVSPropertyOp43
 70
     1
102
RTVSPropertyOp44
 70
     1
102
RTVSPropertyOp45
 70
     1
102
RTVSPropertyOp46
 70
     1
102
RTVSPropertyOp47
 70
     1
102
RTVSPropertyOp48
 70
     1
102
RTVSPropertyOp49
 70
     1
102
RTVSPropertyOp50
 70
     1
102
RTVSPropertyOp51
 70
     0
102
RTVSPropertyOp52
 70
     0
102
RTVSPropertyOp53
 70
     1
102
RTVSPropertyOp54
 70
     1
102
RTVSPropertyOp55
 70
     1
102
RTVSPropertyOp56
 70
     1
102
RTVSPropertyOp57
 70
     1
102
RTVSPost2010Prop28
280
     0
102
RTVSPost2010PropOp28
 70
     1
102
RTVSPost2010Prop29
280
     1
102
RTVSPost2010PropOp29
 70
     1
102
RTVSPost2010Prop30
280
     1
102
RTVSPost2010PropOp30
 70
     1
102
RTVSPost2010Prop31
280
     0
102
RTVSPost2010PropOp31
 70
     1
102
RTVSPost2010Prop32
280
     0
102
RTVSPost2010PropOp32
 70
     1
102
RTVSPost2010Prop33
280
     0
102
RTVSPost2010PropOp33
 70
     1
102
RTVSPost2010Prop34
280
     0
102
RTVSPost2010PropOp34
 70
     1
102
RTVSPost2010Prop35
280
     0
102
RTVSPost2010PropOp35
 70
     1
102
RTVSPost2010Prop36
280
     0
102
RTVSPost2010PropOp36
 70
     1
102
RTVSPost2010Prop37
 90
       50
102
RTVSPost2010PropOp37
 70
     1
102
RTVSPost2010Prop38
140
0.0
102
RTVSPost2010PropOp38
 70
     1
102
RTVSPost2010Prop39
140
1.0
102
RTVSPost2010PropOp39
 70
     1
102
RTVSPost2010Prop40
 90
        0
102
RTVSPost2010PropOp40
 70
     1
102
RTVSPost2010Prop41ColorIndex
 90
       18
102
RTVSPost2010Prop41ColorRGB
 90
        0
102
RTVSPost2010PropOp41
 70
     1
102
RTVSPost2010Prop42
 90
       50
102
RTVSPost2010PropOp42
 70
     1
102
RTVSPost2010Prop43
 90
        3
102
RTVSPost2010PropOp43
 70
     1
102
RTVSPost2010Prop44ColorIndex
 90
        5
102
RTVSPost2010Prop44ColorRGB
 90
      255
102
RTVSPost2010PropOp44
 70
     1
102
RTVSPost2010Prop45
280
     0
102
RTVSPost2010PropOp45
 70
     1
102
RTVSPost2010Prop46
 90
       50
102
RTVSPost2010PropOp46
 70
     1
102
RTVSPost2010Prop47
 90
       50
102
RTVSPost2010PropOp47
 70
     1
102
RTVSPost2010Prop48
 90
       50
102
RTVSPost2010PropOp48
 70
     1
102
RTVSPost2010Prop49
280
     0
102
RTVSPost2010PropOp49
 70
     1
102
RTVSPost2010Prop50
 90
       50
102
RTVSPost2010PropOp50
 70
     1
102
RTVSPost2010Prop51ColorIndex
 90
      256
102
RTVSPost2010Prop51ColorRGB
 90
-16777216
102
RTVSPost2010PropOp51
 70
     0
102
RTVSPost2010Prop52
140
1.0
102
RTVSPost2010PropOp52
 70
     0
102
RTVSPost2010Prop53
 90
        2
102
RTVSPost2010PropOp53
 70
     1
102
RTVSPost2010Prop54
  1
strokes_ogs.tif
102
RTVSPost2010PropOp54
 70
     1
102
RTVSPost2010Prop55
280
     0
102
RTVSPost2010PropOp55
 70
     1
102
RTVSPost2010Prop56
140
1.0
102
RTVSPost2010PropOp56
 70
     1
102
RTVSPost2010Prop57
140
1.0
102
RTVSPost2010PropOp57
 70
     1
  0
XRECORD
  5
64E
102
{ACAD_REACTORS
330
64D
102
}
330
64D
100
AcDbXrecord
280
     1
102
RTVSPropertyOp0
 70
     1
102
RTVSPropertyOp1
 70
     1
102
RTVSPropertyOp2
 70
     1
102
RTVSPropertyOp3
 70
     1
102
RTVSPropertyOp4
 70
     1
102
RTVSPropertyOp5
 70
     1
102
RTVSPropertyOp6
 70
     1
102
RTVSPropertyOp7
 70
     1
102
RTVSPropertyOp8
 70
     1
102
RTVSPropertyOp9
 70
     1
102
RTVSPropertyOp10
 70
     1
102
RTVSPropertyOp11
 70
     1
102
RTVSPropertyOp12
 70
     1
102
RTVSPropertyOp13
 70
     1
102
RTVSPropertyOp14
 70
     1
102
RTVSPropertyOp15
 70
     1
102
RTVSPropertyOp16
 70
     1
102
RTVSPropertyOp17
 70
     1
102
RTVSPropertyOp18
 70
     1
102
RTVSPropertyOp19
 70
     1
102
RTVSPropertyOp20
 70
     1
102
RTVSPropertyOp21
 70
     1
102
RTVSPropertyOp22
 70
     1
102
RTVSPropertyOp23
 70
     1
102
RTVSPropertyOp24
 70
     1
102
RTVSPropertyOp25
 70
     1
102
RTVSPropertyOp26
 70
     1
102
RTVSPropertyOp27
 70
     1
102
RTVSPropertyOp28
 70
     1
102
RTVSPropertyOp29
 70
     1
102
RTVSPropertyOp30
 70
     1
102
RTVSPropertyOp31
 70
     1
102
RTVSPropertyOp32
 70
     1
102
RTVSPropertyOp33
 70
     1
102
RTVSPropertyOp34
 70
     1
102
RTVSPropertyOp35
 70
     1
102
RTVSPropertyOp36
 70
     1
102
RTVSPropertyOp37
 70
     1
102
RTVSPropertyOp38
 70
     1
102
RTVSPropertyOp39
 70
     1
102
RTVSPropertyOp40
 70
     1
102
RTVSPropertyOp41
 70
     1
102
RTVSPropertyOp42
 70
     1
102
RTVSPropertyOp43
 70
     1
102
RTVSPropertyOp44
 70
     1
102
RTVSPropertyOp45
 70
     1
102
RTVSPropertyOp46
 70
     1
102
RTVSPropertyOp47
 70
     1
102
RTVSPropertyOp48
 70
     1
102
RTVSPropertyOp49
 70
     1
102
RTVSPropertyOp50
 70
     1
102
RTVSPropertyOp51
 70
     0
102
RTVSPropertyOp52
 70
     0
102
RTVSPropertyOp53
 70
     1
102
RTVSPropertyOp54
 70
     1
102
RTVSPropertyOp55
 70
     1
102
RTVSPropertyOp56
 70
     1
102
RTVSPropertyOp57
 70
     1
102
RTVSPost2010Prop28
280
     0
102
RTVSPost2010PropOp28
 70
     1
102
RTVSPost2010Prop29
280
     1
102
RTVSPost2010PropOp29
 70
     1
102
RTVSPost2010Prop30
280
     1
102
RTVSPost2010PropOp30
 70
     1
102
RTVSPost2010Prop31
280
     0
102
RTVSPost2010PropOp31
 70
     1
102
RTVSPost2010Prop32
280
     0
102
RTVSPost2010PropOp32
 70
     1
102
RTVSPost2010Prop33
280
     0
102
RTVSPost2010PropOp33
 70
     1
102
RTVSPost2010Prop34
280
     0
102
RTVSPost2010PropOp34
 70
     1
102
RTVSPost2010Prop35
280
     0
102
RTVSPost2010PropOp35
 70
     1
102
RTVSPost2010Prop36
280
     0
102
RTVSPost2010PropOp36
 70
     1
102
RTVSPost2010Prop37
 90
       50
102
RTVSPost2010PropOp37
 70
     1
102
RTVSPost2010Prop38
140
0.0
102
RTVSPost2010PropOp38
 70
     1
102
RTVSPost2010Prop39
140
1.0
102
RTVSPost2010PropOp39
 70
     1
102
RTVSPost2010Prop40
 90
        0
102
RTVSPost2010PropOp40
 70
     1
102
RTVSPost2010Prop41ColorIndex
 90
       18
102
RTVSPost2010Prop41ColorRGB
 90
        0
102
RTVSPost2010PropOp41
 70
     1
102
RTVSPost2010Prop42
 90
       50
102
RTVSPost2010PropOp42
 70
     1
102
RTVSPost2010Prop43
 90
        3
102
RTVSPost2010PropOp43
 70
     1
102
RTVSPost2010Prop44ColorIndex
 90
        5
102
RTVSPost2010Prop44ColorRGB
 90
      255
102
RTVSPost2010PropOp44
 70
     1
102
RTVSPost2010Prop45
280
     0
102
RTVSPost2010PropOp45
 70
     1
102
RTVSPost2010Prop46
 90
       50
102
RTVSPost2010PropOp46
 70
     1
102
RTVSPost2010Prop47
 90
       50
102
RTVSPost2010PropOp47
 70
     1
102
RTVSPost2010Prop48
 90
       50
102
RTVSPost2010PropOp48
 70
     1
102
RTVSPost2010Prop49
280
     0
102
RTVSPost2010PropOp49
 70
     1
102
RTVSPost2010Prop50
 90
       50
102
RTVSPost2010PropOp50
 70
     1
102
RTVSPost2010Prop51ColorIndex
 90
      256
102
RTVSPost2010Prop51ColorRGB
 90
-16777216
102
RTVSPost2010PropOp51
 70
     0
102
RTVSPost2010Prop52
140
1.0
102
RTVSPost2010PropOp52
 70
     0
102
RTVSPost2010Prop53
 90
        2
102
RTVSPost2010PropOp53
 70
     1
102
RTVSPost2010Prop54
  1
strokes_ogs.tif
102
RTVSPost2010PropOp54
 70
     1
102
RTVSPost2010Prop55
280
     0
102
RTVSPost2010PropOp55
 70
     1
102
RTVSPost2010Prop56
140
1.0
102
RTVSPost2010PropOp56
 70
     1
102
RTVSPost2010Prop57
140
1.0
102
RTVSPost2010PropOp57
 70
     1
  0
XRECORD
  5
662
102
{ACAD_REACTORS
330
661
102
}
330
661
100
AcDbXrecord
280
     1
102
RTVSPropertyOp0
 70
     0
102
RTVSPropertyOp1
 70
     0
102
RTVSPropertyOp2
 70
     0
102
RTVSPropertyOp3
 70
     0
102
RTVSPropertyOp4
 70
     0
102
RTVSPropertyOp5
 70
     0
102
RTVSPropertyOp6
 70
     0
102
RTVSPropertyOp7
 70
     0
102
RTVSPropertyOp8
 70
     0
102
RTVSPropertyOp9
 70
     0
102
RTVSPropertyOp10
 70
     0
102
RTVSPropertyOp11
 70
     0
102
RTVSPropertyOp12
 70
     0
102
RTVSPropertyOp13
 70
     0
102
RTVSPropertyOp14
 70
     0
102
RTVSPropertyOp15
 70
     0
102
RTVSPropertyOp16
 70
     0
102
RTVSPropertyOp17
 70
     0
102
RTVSPropertyOp18
 70
     0
102
RTVSPropertyOp19
 70
     0
102
RTVSPropertyOp20
 70
     0
102
RTVSPropertyOp21
 70
     0
102
RTVSPropertyOp22
 70
     0
102
RTVSPropertyOp23
 70
     0
102
RTVSPropertyOp24
 70
     0
102
RTVSPropertyOp25
 70
     0
102
RTVSPropertyOp26
 70
     0
102
RTVSPropertyOp27
 70
     0
102
RTVSPropertyOp28
 70
     1
102
RTVSPropertyOp29
 70
     1
102
RTVSPropertyOp30
 70
     1
102
RTVSPropertyOp31
 70
     1
102
RTVSPropertyOp32
 70
     1
102
RTVSPropertyOp33
 70
     1
102
RTVSPropertyOp34
 70
     1
102
RTVSPropertyOp35
 70
     1
102
RTVSPropertyOp36
 70
     1
102
RTVSPropertyOp37
 70
     1
102
RTVSPropertyOp38
 70
     1
102
RTVSPropertyOp39
 70
     1
102
RTVSPropertyOp40
 70
     1
102
RTVSPropertyOp41
 70
     1
102
RTVSPropertyOp42
 70
     1
102
RTVSPropertyOp43
 70
     1
102
RTVSPropertyOp44
 70
     1
102
RTVSPropertyOp45
 70
     1
102
RTVSPropertyOp46
 70
     1
102
RTVSPropertyOp47
 70
     1
102
RTVSPropertyOp48
 70
     1
102
RTVSPropertyOp49
 70
     1
102
RTVSPropertyOp50
 70
     1
102
RTVSPropertyOp51
 70
     0
102
RTVSPropertyOp52
 70
     0
102
RTVSPropertyOp53
 70
     1
102
RTVSPropertyOp54
 70
     1
102
RTVSPropertyOp55
 70
     1
102
RTVSPropertyOp56
 70
     1
102
RTVSPropertyOp57
 70
     1
102
RTVSPost2010Prop28
280
     0
102
RTVSPost2010PropOp28
 70
     1
102
RTVSPost2010Prop29
280
     1
102
RTVSPost2010PropOp29
 70
     1
102
RTVSPost2010Prop30
280
     1
102
RTVSPost2010PropOp30
 70
     1
102
RTVSPost2010Prop31
280
     0
102
RTVSPost2010PropOp31
 70
     1
102
RTVSPost2010Prop32
280
     0
102
RTVSPost2010PropOp32
 70
     1
102
RTVSPost2010Prop33
280
     0
102
RTVSPost2010PropOp33
 70
     1
102
RTVSPost2010Prop34
280
     0
102
RTVSPost2010PropOp34
 70
     1
102
RTVSPost2010Prop35
280
     0
102
RTVSPost2010PropOp35
 70
     1
102
RTVSPost2010Prop36
280
     0
102
RTVSPost2010PropOp36
 70
     1
102
RTVSPost2010Prop37
 90
       50
102
RTVSPost2010PropOp37
 70
     1
102
RTVSPost2010Prop38
140
0.0
102
RTVSPost2010PropOp38
 70
     1
102
RTVSPost2010Prop39
140
1.0
102
RTVSPost2010PropOp39
 70
     1
102
RTVSPost2010Prop40
 90
        0
102
RTVSPost2010PropOp40
 70
     1
102
RTVSPost2010Prop41ColorIndex
 90
       18
102
RTVSPost2010Prop41ColorRGB
 90
        0
102
RTVSPost2010PropOp41
 70
     1
102
RTVSPost2010Prop42
 90
       50
102
RTVSPost2010PropOp42
 70
     1
102
RTVSPost2010Prop43
 90
        3
102
RTVSPost2010PropOp43
 70
     1
102
RTVSPost2010Prop44ColorIndex
 90
        5
102
RTVSPost2010Prop44ColorRGB
 90
      255
102
RTVSPost2010PropOp44
 70
     1
102
RTVSPost2010Prop45
280
     0
102
RTVSPost2010PropOp45
 70
     1
102
RTVSPost2010Prop46
 90
       50
102
RTVSPost2010PropOp46
 70
     1
102
RTVSPost2010Prop47
 90
       50
102
RTVSPost2010PropOp47
 70
     1
102
RTVSPost2010Prop48
 90
       50
102
RTVSPost2010PropOp48
 70
     1
102
RTVSPost2010Prop49
280
     0
102
RTVSPost2010PropOp49
 70
     1
102
RTVSPost2010Prop50
 90
       50
102
RTVSPost2010PropOp50
 70
     1
102
RTVSPost2010Prop51ColorIndex
 90
      256
102
RTVSPost2010Prop51ColorRGB
 90
-16777216
102
RTVSPost2010PropOp51
 70
     0
102
RTVSPost2010Prop52
140
1.0
102
RTVSPost2010PropOp52
 70
     0
102
RTVSPost2010Prop53
 90
        2
102
RTVSPost2010PropOp53
 70
     1
102
RTVSPost2010Prop54
  1
strokes_ogs.tif
102
RTVSPost2010PropOp54
 70
     1
102
RTVSPost2010Prop55
280
     0
102
RTVSPost2010PropOp55
 70
     1
102
RTVSPost2010Prop56
140
1.0
102
RTVSPost2010PropOp56
 70
     1
102
RTVSPost2010Prop57
140
1.0
102
RTVSPost2010PropOp57
 70
     1
  0
XRECORD
  5
65C
102
{ACAD_REACTORS
330
65B
102
}
330
65B
100
AcDbXrecord
280
     1
102
RTVSPropertyOp0
 70
     1
102
RTVSPropertyOp1
 70
     1
102
RTVSPropertyOp2
 70
     1
102
RTVSPropertyOp3
 70
     1
102
RTVSPropertyOp4
 70
     1
102
RTVSPropertyOp5
 70
     1
102
RTVSPropertyOp6
 70
     1
102
RTVSPropertyOp7
 70
     1
102
RTVSPropertyOp8
 70
     1
102
RTVSPropertyOp9
 70
     1
102
RTVSPropertyOp10
 70
     1
102
RTVSPropertyOp11
 70
     1
102
RTVSPropertyOp12
 70
     1
102
RTVSPropertyOp13
 70
     1
102
RTVSPropertyOp14
 70
     1
102
RTVSPropertyOp15
 70
     1
102
RTVSPropertyOp16
 70
     1
102
RTVSPropertyOp17
 70
     1
102
RTVSPropertyOp18
 70
     1
102
RTVSPropertyOp19
 70
     1
102
RTVSPropertyOp20
 70
     1
102
RTVSPropertyOp21
 70
     1
102
RTVSPropertyOp22
 70
     1
102
RTVSPropertyOp23
 70
     1
102
RTVSPropertyOp24
 70
     1
102
RTVSPropertyOp25
 70
     1
102
RTVSPropertyOp26
 70
     1
102
RTVSPropertyOp27
 70
     1
102
RTVSPropertyOp28
 70
     1
102
RTVSPropertyOp29
 70
     1
102
RTVSPropertyOp30
 70
     1
102
RTVSPropertyOp31
 70
     1
102
RTVSPropertyOp32
 70
     1
102
RTVSPropertyOp33
 70
     1
102
RTVSPropertyOp34
 70
     1
102
RTVSPropertyOp35
 70
     1
102
RTVSPropertyOp36
 70
     1
102
RTVSPropertyOp37
 70
     1
102
RTVSPropertyOp38
 70
     1
102
RTVSPropertyOp39
 70
     1
102
RTVSPropertyOp40
 70
     1
102
RTVSPropertyOp41
 70
     1
102
RTVSPropertyOp42
 70
     1
102
RTVSPropertyOp43
 70
     1
102
RTVSPropertyOp44
 70
     1
102
RTVSPropertyOp45
 70
     1
102
RTVSPropertyOp46
 70
     1
102
RTVSPropertyOp47
 70
     1
102
RTVSPropertyOp48
 70
     1
102
RTVSPropertyOp49
 70
     1
102
RTVSPropertyOp50
 70
     1
102
RTVSPropertyOp51
 70
     0
102
RTVSPropertyOp52
 70
     0
102
RTVSPropertyOp53
 70
     1
102
RTVSPropertyOp54
 70
     1
102
RTVSPropertyOp55
 70
     1
102
RTVSPropertyOp56
 70
     1
102
RTVSPropertyOp57
 70
     1
102
RTVSPost2010Prop28
280
     0
102
RTVSPost2010PropOp28
 70
     1
102
RTVSPost2010Prop29
280
     1
102
RTVSPost2010PropOp29
 70
     1
102
RTVSPost2010Prop30
280
     1
102
RTVSPost2010PropOp30
 70
     1
102
RTVSPost2010Prop31
280
     0
102
RTVSPost2010PropOp31
 70
     1
102
RTVSPost2010Prop32
280
     0
102
RTVSPost2010PropOp32
 70
     1
102
RTVSPost2010Prop33
280
     0
102
RTVSPost2010PropOp33
 70
     1
102
RTVSPost2010Prop34
280
     0
102
RTVSPost2010PropOp34
 70
     1
102
RTVSPost2010Prop35
280
     0
102
RTVSPost2010PropOp35
 70
     1
102
RTVSPost2010Prop36
280
     0
102
RTVSPost2010PropOp36
 70
     1
102
RTVSPost2010Prop37
 90
       50
102
RTVSPost2010PropOp37
 70
     1
102
RTVSPost2010Prop38
140
0.0
102
RTVSPost2010PropOp38
 70
     1
102
RTVSPost2010Prop39
140
1.0
102
RTVSPost2010PropOp39
 70
     1
102
RTVSPost2010Prop40
 90
        0
102
RTVSPost2010PropOp40
 70
     1
102
RTVSPost2010Prop41ColorIndex
 90
       18
102
RTVSPost2010Prop41ColorRGB
 90
        0
102
RTVSPost2010PropOp41
 70
     1
102
RTVSPost2010Prop42
 90
       50
102
RTVSPost2010PropOp42
 70
     1
102
RTVSPost2010Prop43
 90
        3
102
RTVSPost2010PropOp43
 70
     1
102
RTVSPost2010Prop44ColorIndex
 90
        5
102
RTVSPost2010Prop44ColorRGB
 90
      255
102
RTVSPost2010PropOp44
 70
     1
102
RTVSPost2010Prop45
280
     0
102
RTVSPost2010PropOp45
 70
     1
102
RTVSPost2010Prop46
 90
       50
102
RTVSPost2010PropOp46
 70
     1
102
RTVSPost2010Prop47
 90
       50
102
RTVSPost2010PropOp47
 70
     1
102
RTVSPost2010Prop48
 90
       50
102
RTVSPost2010PropOp48
 70
     1
102
RTVSPost2010Prop49
280
     0
102
RTVSPost2010PropOp49
 70
     1
102
RTVSPost2010Prop50
 90
       50
102
RTVSPost2010PropOp50
 70
     1
102
RTVSPost2010Prop51ColorIndex
 90
      256
102
RTVSPost2010Prop51ColorRGB
 90
-16777216
102
RTVSPost2010PropOp51
 70
     0
102
RTVSPost2010Prop52
140
1.0
102
RTVSPost2010PropOp52
 70
     0
102
RTVSPost2010Prop53
 90
        2
102
RTVSPost2010PropOp53
 70
     1
102
RTVSPost2010Prop54
  1
strokes_ogs.tif
102
RTVSPost2010PropOp54
 70
     1
102
RTVSPost2010Prop55
280
     0
102
RTVSPost2010PropOp55
 70
     1
102
RTVSPost2010Prop56
140
1.0
102
RTVSPost2010PropOp56
 70
     1
102
RTVSPost2010Prop57
140
1.0
102
RTVSPost2010PropOp57
 70
     1
  0
XRECORD
  5
664
102
{ACAD_REACTORS
330
663
102
}
330
663
100
AcDbXrecord
280
     1
102
RTVSPropertyOp0
 70
     0
102
RTVSPropertyOp1
 70
     0
102
RTVSPropertyOp2
 70
     0
102
RTVSPropertyOp3
 70
     0
102
RTVSPropertyOp4
 70
     0
102
RTVSPropertyOp5
 70
     0
102
RTVSPropertyOp6
 70
     0
102
RTVSPropertyOp7
 70
     0
102
RTVSPropertyOp8
 70
     0
102
RTVSPropertyOp9
 70
     0
102
RTVSPropertyOp10
 70
     0
102
RTVSPropertyOp11
 70
     0
102
RTVSPropertyOp12
 70
     0
102
RTVSPropertyOp13
 70
     0
102
RTVSPropertyOp14
 70
     0
102
RTVSPropertyOp15
 70
     0
102
RTVSPropertyOp16
 70
     0
102
RTVSPropertyOp17
 70
     0
102
RTVSPropertyOp18
 70
     0
102
RTVSPropertyOp19
 70
     0
102
RTVSPropertyOp20
 70
     0
102
RTVSPropertyOp21
 70
     0
102
RTVSPropertyOp22
 70
     0
102
RTVSPropertyOp23
 70
     0
102
RTVSPropertyOp24
 70
     0
102
RTVSPropertyOp25
 70
     0
102
RTVSPropertyOp26
 70
     0
102
RTVSPropertyOp27
 70
     0
102
RTVSPropertyOp28
 70
     1
102
RTVSPropertyOp29
 70
     1
102
RTVSPropertyOp30
 70
     1
102
RTVSPropertyOp31
 70
     1
102
RTVSPropertyOp32
 70
     1
102
RTVSPropertyOp33
 70
     1
102
RTVSPropertyOp34
 70
     1
102
RTVSPropertyOp35
 70
     1
102
RTVSPropertyOp36
 70
     1
102
RTVSPropertyOp37
 70
     1
102
RTVSPropertyOp38
 70
     1
102
RTVSPropertyOp39
 70
     1
102
RTVSPropertyOp40
 70
     1
102
RTVSPropertyOp41
 70
     1
102
RTVSPropertyOp42
 70
     1
102
RTVSPropertyOp43
 70
     1
102
RTVSPropertyOp44
 70
     1
102
RTVSPropertyOp45
 70
     1
102
RTVSPropertyOp46
 70
     1
102
RTVSPropertyOp47
 70
     1
102
RTVSPropertyOp48
 70
     1
102
RTVSPropertyOp49
 70
     1
102
RTVSPropertyOp50
 70
     1
102
RTVSPropertyOp51
 70
     0
102
RTVSPropertyOp52
 70
     0
102
RTVSPropertyOp53
 70
     1
102
RTVSPropertyOp54
 70
     1
102
RTVSPropertyOp55
 70
     1
102
RTVSPropertyOp56
 70
     1
102
RTVSPropertyOp57
 70
     1
102
RTVSPost2010Prop28
280
     0
102
RTVSPost2010PropOp28
 70
     1
102
RTVSPost2010Prop29
280
     1
102
RTVSPost2010PropOp29
 70
     1
102
RTVSPost2010Prop30
280
     1
102
RTVSPost2010PropOp30
 70
     1
102
RTVSPost2010Prop31
280
     0
102
RTVSPost2010PropOp31
 70
     1
102
RTVSPost2010Prop32
280
     0
102
RTVSPost2010PropOp32
 70
     1
102
RTVSPost2010Prop33
280
     0
102
RTVSPost2010PropOp33
 70
     1
102
RTVSPost2010Prop34
280
     0
102
RTVSPost2010PropOp34
 70
     1
102
RTVSPost2010Prop35
280
     0
102
RTVSPost2010PropOp35
 70
     1
102
RTVSPost2010Prop36
280
     0
102
RTVSPost2010PropOp36
 70
     1
102
RTVSPost2010Prop37
 90
       50
102
RTVSPost2010PropOp37
 70
     1
102
RTVSPost2010Prop38
140
0.0
102
RTVSPost2010PropOp38
 70
     1
102
RTVSPost2010Prop39
140
1.0
102
RTVSPost2010PropOp39
 70
     1
102
RTVSPost2010Prop40
 90
        0
102
RTVSPost2010PropOp40
 70
     1
102
RTVSPost2010Prop41ColorIndex
 90
       18
102
RTVSPost2010Prop41ColorRGB
 90
        0
102
RTVSPost2010PropOp41
 70
     1
102
RTVSPost2010Prop42
 90
       50
102
RTVSPost2010PropOp42
 70
     1
102
RTVSPost2010Prop43
 90
        3
102
RTVSPost2010PropOp43
 70
     1
102
RTVSPost2010Prop44ColorIndex
 90
        5
102
RTVSPost2010Prop44ColorRGB
 90
      255
102
RTVSPost2010PropOp44
 70
     1
102
RTVSPost2010Prop45
280
     0
102
RTVSPost2010PropOp45
 70
     1
102
RTVSPost2010Prop46
 90
       50
102
RTVSPost2010PropOp46
 70
     1
102
RTVSPost2010Prop47
 90
       50
102
RTVSPost2010PropOp47
 70
     1
102
RTVSPost2010Prop48
 90
       50
102
RTVSPost2010PropOp48
 70
     1
102
RTVSPost2010Prop49
280
     0
102
RTVSPost2010PropOp49
 70
     1
102
RTVSPost2010Prop50
 90
       50
102
RTVSPost2010PropOp50
 70
     1
102
RTVSPost2010Prop51ColorIndex
 90
      256
102
RTVSPost2010Prop51ColorRGB
 90
-16777216
102
RTVSPost2010PropOp51
 70
     0
102
RTVSPost2010Prop52
140
1.0
102
RTVSPost2010PropOp52
 70
     0
102
RTVSPost2010Prop53
 90
        2
102
RTVSPost2010PropOp53
 70
     1
102
RTVSPost2010Prop54
  1
strokes_ogs.tif
102
RTVSPost2010PropOp54
 70
     1
102
RTVSPost2010Prop55
280
     0
102
RTVSPost2010PropOp55
 70
     1
102
RTVSPost2010Prop56
140
1.0
102
RTVSPost2010PropOp56
 70
     1
102
RTVSPost2010Prop57
140
1.0
102
RTVSPost2010PropOp57
 70
     1
  0
XRECORD
  5
652
102
{ACAD_REACTORS
330
651
102
}
330
651
100
AcDbXrecord
280
     1
102
RTVSPropertyOp0
 70
     1
102
RTVSPropertyOp1
 70
     1
102
RTVSPropertyOp2
 70
     1
102
RTVSPropertyOp3
 70
     1
102
RTVSPropertyOp4
 70
     1
102
RTVSPropertyOp5
 70
     1
102
RTVSPropertyOp6
 70
     1
102
RTVSPropertyOp7
 70
     1
102
RTVSPropertyOp8
 70
     1
102
RTVSPropertyOp9
 70
     1
102
RTVSPropertyOp10
 70
     1
102
RTVSPropertyOp11
 70
     1
102
RTVSPropertyOp12
 70
     1
102
RTVSPropertyOp13
 70
     1
102
RTVSPropertyOp14
 70
     1
102
RTVSPropertyOp15
 70
     1
102
RTVSPropertyOp16
 70
     1
102
RTVSPropertyOp17
 70
     1
102
RTVSPropertyOp18
 70
     1
102
RTVSPropertyOp19
 70
     1
102
RTVSPropertyOp20
 70
     1
102
RTVSPropertyOp21
 70
     1
102
RTVSPropertyOp22
 70
     1
102
RTVSPropertyOp23
 70
     1
102
RTVSPropertyOp24
 70
     1
102
RTVSPropertyOp25
 70
     1
102
RTVSPropertyOp26
 70
     1
102
RTVSPropertyOp27
 70
     1
102
RTVSPropertyOp28
 70
     1
102
RTVSPropertyOp29
 70
     1
102
RTVSPropertyOp30
 70
     1
102
RTVSPropertyOp31
 70
     1
102
RTVSPropertyOp32
 70
     1
102
RTVSPropertyOp33
 70
     1
102
RTVSPropertyOp34
 70
     1
102
RTVSPropertyOp35
 70
     1
102
RTVSPropertyOp36
 70
     1
102
RTVSPropertyOp37
 70
     1
102
RTVSPropertyOp38
 70
     1
102
RTVSPropertyOp39
 70
     1
102
RTVSPropertyOp40
 70
     1
102
RTVSPropertyOp41
 70
     1
102
RTVSPropertyOp42
 70
     1
102
RTVSPropertyOp43
 70
     1
102
RTVSPropertyOp44
 70
     1
102
RTVSPropertyOp45
 70
     1
102
RTVSPropertyOp46
 70
     1
102
RTVSPropertyOp47
 70
     1
102
RTVSPropertyOp48
 70
     1
102
RTVSPropertyOp49
 70
     1
102
RTVSPropertyOp50
 70
     1
102
RTVSPropertyOp51
 70
     0
102
RTVSPropertyOp52
 70
     0
102
RTVSPropertyOp53
 70
     1
102
RTVSPropertyOp54
 70
     1
102
RTVSPropertyOp55
 70
     1
102
RTVSPropertyOp56
 70
     1
102
RTVSPropertyOp57
 70
     1
102
RTVSPost2010Prop28
280
     0
102
RTVSPost2010PropOp28
 70
     1
102
RTVSPost2010Prop29
280
     1
102
RTVSPost2010PropOp29
 70
     1
102
RTVSPost2010Prop30
280
     1
102
RTVSPost2010PropOp30
 70
     1
102
RTVSPost2010Prop31
280
     0
102
RTVSPost2010PropOp31
 70
     1
102
RTVSPost2010Prop32
280
     0
102
RTVSPost2010PropOp32
 70
     1
102
RTVSPost2010Prop33
280
     0
102
RTVSPost2010PropOp33
 70
     1
102
RTVSPost2010Prop34
280
     0
102
RTVSPost2010PropOp34
 70
     1
102
RTVSPost2010Prop35
280
     0
102
RTVSPost2010PropOp35
 70
     1
102
RTVSPost2010Prop36
280
     0
102
RTVSPost2010PropOp36
 70
     1
102
RTVSPost2010Prop37
 90
       50
102
RTVSPost2010PropOp37
 70
     1
102
RTVSPost2010Prop38
140
0.0
102
RTVSPost2010PropOp38
 70
     1
102
RTVSPost2010Prop39
140
1.0
102
RTVSPost2010PropOp39
 70
     1
102
RTVSPost2010Prop40
 90
        0
102
RTVSPost2010PropOp40
 70
     1
102
RTVSPost2010Prop41ColorIndex
 90
       18
102
RTVSPost2010Prop41ColorRGB
 90
        0
102
RTVSPost2010PropOp41
 70
     1
102
RTVSPost2010Prop42
 90
       50
102
RTVSPost2010PropOp42
 70
     1
102
RTVSPost2010Prop43
 90
        3
102
RTVSPost2010PropOp43
 70
     1
102
RTVSPost2010Prop44ColorIndex
 90
        5
102
RTVSPost2010Prop44ColorRGB
 90
      255
102
RTVSPost2010PropOp44
 70
     1
102
RTVSPost2010Prop45
280
     0
102
RTVSPost2010PropOp45
 70
     1
102
RTVSPost2010Prop46
 90
       50
102
RTVSPost2010PropOp46
 70
     1
102
RTVSPost2010Prop47
 90
       50
102
RTVSPost2010PropOp47
 70
     1
102
RTVSPost2010Prop48
 90
       50
102
RTVSPost2010PropOp48
 70
     1
102
RTVSPost2010Prop49
280
     0
102
RTVSPost2010PropOp49
 70
     1
102
RTVSPost2010Prop50
 90
       50
102
RTVSPost2010PropOp50
 70
     1
102
RTVSPost2010Prop51ColorIndex
 90
      256
102
RTVSPost2010Prop51ColorRGB
 90
-16777216
102
RTVSPost2010PropOp51
 70
     0
102
RTVSPost2010Prop52
140
1.0
102
RTVSPost2010PropOp52
 70
     0
102
RTVSPost2010Prop53
 90
        2
102
RTVSPost2010PropOp53
 70
     1
102
RTVSPost2010Prop54
  1
strokes_ogs.tif
102
RTVSPost2010PropOp54
 70
     1
102
RTVSPost2010Prop55
280
     0
102
RTVSPost2010PropOp55
 70
     1
102
RTVSPost2010Prop56
140
1.0
102
RTVSPost2010PropOp56
 70
     1
102
RTVSPost2010Prop57
140
1.0
102
RTVSPost2010PropOp57
 70
     1
  0
XRECORD
  5
670
102
{ACAD_REACTORS
330
66F
102
}
330
66F
100
AcDbXrecord
280
     1
102
RTVSPropertyOp0
 70
     1
102
RTVSPropertyOp1
 70
     1
102
RTVSPropertyOp2
 70
     1
102
RTVSPropertyOp3
 70
     1
102
RTVSPropertyOp4
 70
     1
102
RTVSPropertyOp5
 70
     1
102
RTVSPropertyOp6
 70
     1
102
RTVSPropertyOp7
 70
     1
102
RTVSPropertyOp8
 70
     1
102
RTVSPropertyOp9
 70
     1
102
RTVSPropertyOp10
 70
     1
102
RTVSPropertyOp11
 70
     1
102
RTVSPropertyOp12
 70
     1
102
RTVSPropertyOp13
 70
     1
102
RTVSPropertyOp14
 70
     1
102
RTVSPropertyOp15
 70
     1
102
RTVSPropertyOp16
 70
     1
102
RTVSPropertyOp17
 70
     1
102
RTVSPropertyOp18
 70
     1
102
RTVSPropertyOp19
 70
     1
102
RTVSPropertyOp20
 70
     1
102
RTVSPropertyOp21
 70
     1
102
RTVSPropertyOp22
 70
     1
102
RTVSPropertyOp23
 70
     1
102
RTVSPropertyOp24
 70
     1
102
RTVSPropertyOp25
 70
     1
102
RTVSPropertyOp26
 70
     1
102
RTVSPropertyOp27
 70
     1
102
RTVSPropertyOp28
 70
     1
102
RTVSPropertyOp29
 70
     1
102
RTVSPropertyOp30
 70
     1
102
RTVSPropertyOp31
 70
     1
102
RTVSPropertyOp32
 70
     1
102
RTVSPropertyOp33
 70
     1
102
RTVSPropertyOp34
 70
     1
102
RTVSPropertyOp35
 70
     1
102
RTVSPropertyOp36
 70
     1
102
RTVSPropertyOp37
 70
     1
102
RTVSPropertyOp38
 70
     1
102
RTVSPropertyOp39
 70
     1
102
RTVSPropertyOp40
 70
     1
102
RTVSPropertyOp41
 70
     1
102
RTVSPropertyOp42
 70
     1
102
RTVSPropertyOp43
 70
     1
102
RTVSPropertyOp44
 70
     1
102
RTVSPropertyOp45
 70
     1
102
RTVSPropertyOp46
 70
     1
102
RTVSPropertyOp47
 70
     1
102
RTVSPropertyOp48
 70
     1
102
RTVSPropertyOp49
 70
     1
102
RTVSPropertyOp50
 70
     1
102
RTVSPropertyOp51
 70
     0
102
RTVSPropertyOp52
 70
     0
102
RTVSPropertyOp53
 70
     1
102
RTVSPropertyOp54
 70
     1
102
RTVSPropertyOp55
 70
     1
102
RTVSPropertyOp56
 70
     1
102
RTVSPropertyOp57
 70
     1
102
RTVSPost2010Prop28
280
     0
102
RTVSPost2010PropOp28
 70
     1
102
RTVSPost2010Prop29
280
     1
102
RTVSPost2010PropOp29
 70
     1
102
RTVSPost2010Prop30
280
     1
102
RTVSPost2010PropOp30
 70
     1
102
RTVSPost2010Prop31
280
     0
102
RTVSPost2010PropOp31
 70
     1
102
RTVSPost2010Prop32
280
     0
102
RTVSPost2010PropOp32
 70
     1
102
RTVSPost2010Prop33
280
     0
102
RTVSPost2010PropOp33
 70
     1
102
RTVSPost2010Prop34
280
     0
102
RTVSPost2010PropOp34
 70
     1
102
RTVSPost2010Prop35
280
     0
102
RTVSPost2010PropOp35
 70
     1
102
RTVSPost2010Prop36
280
     0
102
RTVSPost2010PropOp36
 70
     1
102
RTVSPost2010Prop37
 90
       50
102
RTVSPost2010PropOp37
 70
     1
102
RTVSPost2010Prop38
140
0.0
102
RTVSPost2010PropOp38
 70
     1
102
RTVSPost2010Prop39
140
1.0
102
RTVSPost2010PropOp39
 70
     1
102
RTVSPost2010Prop40
 90
        0
102
RTVSPost2010PropOp40
 70
     1
102
RTVSPost2010Prop41ColorIndex
 90
       18
102
RTVSPost2010Prop41ColorRGB
 90
        0
102
RTVSPost2010PropOp41
 70
     1
102
RTVSPost2010Prop42
 90
       50
102
RTVSPost2010PropOp42
 70
     1
102
RTVSPost2010Prop43
 90
        3
102
RTVSPost2010PropOp43
 70
     1
102
RTVSPost2010Prop44ColorIndex
 90
        5
102
RTVSPost2010Prop44ColorRGB
 90
      255
102
RTVSPost2010PropOp44
 70
     1
102
RTVSPost2010Prop45
280
     0
102
RTVSPost2010PropOp45
 70
     1
102
RTVSPost2010Prop46
 90
       50
102
RTVSPost2010PropOp46
 70
     1
102
RTVSPost2010Prop47
 90
       50
102
RTVSPost2010PropOp47
 70
     1
102
RTVSPost2010Prop48
 90
       50
102
RTVSPost2010PropOp48
 70
     1
102
RTVSPost2010Prop49
280
     0
102
RTVSPost2010PropOp49
 70
     1
102
RTVSPost2010Prop50
 90
       50
102
RTVSPost2010PropOp50
 70
     1
102
RTVSPost2010Prop51ColorIndex
 90
      256
102
RTVSPost2010Prop51ColorRGB
 90
-16777216
102
RTVSPost2010PropOp51
 70
     0
102
RTVSPost2010Prop52
140
1.0
102
RTVSPost2010PropOp52
 70
     0
102
RTVSPost2010Prop53
 90
        2
102
RTVSPost2010PropOp53
 70
     1
102
RTVSPost2010Prop54
  1
strokes_ogs.tif
102
RTVSPost2010PropOp54
 70
     1
102
RTVSPost2010Prop55
280
     0
102
RTVSPost2010PropOp55
 70
     1
102
RTVSPost2010Prop56
140
1.0
102
RTVSPost2010PropOp56
 70
     1
102
RTVSPost2010Prop57
140
1.0
102
RTVSPost2010PropOp57
 70
     1
  0
XRECORD
  5
66E
102
{ACAD_REACTORS
330
66D
102
}
330
66D
100
AcDbXrecord
280
     1
102
RTVSPropertyOp0
 70
     1
102
RTVSPropertyOp1
 70
     1
102
RTVSPropertyOp2
 70
     1
102
RTVSPropertyOp3
 70
     1
102
RTVSPropertyOp4
 70
     1
102
RTVSPropertyOp5
 70
     1
102
RTVSPropertyOp6
 70
     1
102
RTVSPropertyOp7
 70
     1
102
RTVSPropertyOp8
 70
     1
102
RTVSPropertyOp9
 70
     1
102
RTVSPropertyOp10
 70
     1
102
RTVSPropertyOp11
 70
     1
102
RTVSPropertyOp12
 70
     1
102
RTVSPropertyOp13
 70
     1
102
RTVSPropertyOp14
 70
     1
102
RTVSPropertyOp15
 70
     1
102
RTVSPropertyOp16
 70
     1
102
RTVSPropertyOp17
 70
     1
102
RTVSPropertyOp18
 70
     1
102
RTVSPropertyOp19
 70
     1
102
RTVSPropertyOp20
 70
     1
102
RTVSPropertyOp21
 70
     1
102
RTVSPropertyOp22
 70
     1
102
RTVSPropertyOp23
 70
     1
102
RTVSPropertyOp24
 70
     1
102
RTVSPropertyOp25
 70
     1
102
RTVSPropertyOp26
 70
     1
102
RTVSPropertyOp27
 70
     1
102
RTVSPropertyOp28
 70
     1
102
RTVSPropertyOp29
 70
     1
102
RTVSPropertyOp30
 70
     1
102
RTVSPropertyOp31
 70
     1
102
RTVSPropertyOp32
 70
     1
102
RTVSPropertyOp33
 70
     1
102
RTVSPropertyOp34
 70
     1
102
RTVSPropertyOp35
 70
     1
102
RTVSPropertyOp36
 70
     1
102
RTVSPropertyOp37
 70
     1
102
RTVSPropertyOp38
 70
     1
102
RTVSPropertyOp39
 70
     1
102
RTVSPropertyOp40
 70
     1
102
RTVSPropertyOp41
 70
     1
102
RTVSPropertyOp42
 70
     1
102
RTVSPropertyOp43
 70
     1
102
RTVSPropertyOp44
 70
     1
102
RTVSPropertyOp45
 70
     1
102
RTVSPropertyOp46
 70
     1
102
RTVSPropertyOp47
 70
     1
102
RTVSPropertyOp48
 70
     1
102
RTVSPropertyOp49
 70
     1
102
RTVSPropertyOp50
 70
     1
102
RTVSPropertyOp51
 70
     0
102
RTVSPropertyOp52
 70
     0
102
RTVSPropertyOp53
 70
     1
102
RTVSPropertyOp54
 70
     1
102
RTVSPropertyOp55
 70
     1
102
RTVSPropertyOp56
 70
     1
102
RTVSPropertyOp57
 70
     1
102
RTVSPost2010Prop28
280
     0
102
RTVSPost2010PropOp28
 70
     1
102
RTVSPost2010Prop29
280
     1
102
RTVSPost2010PropOp29
 70
     1
102
RTVSPost2010Prop30
280
     1
102
RTVSPost2010PropOp30
 70
     1
102
RTVSPost2010Prop31
280
     0
102
RTVSPost2010PropOp31
 70
     1
102
RTVSPost2010Prop32
280
     0
102
RTVSPost2010PropOp32
 70
     1
102
RTVSPost2010Prop33
280
     0
102
RTVSPost2010PropOp33
 70
     1
102
RTVSPost2010Prop34
280
     0
102
RTVSPost2010PropOp34
 70
     1
102
RTVSPost2010Prop35
280
     0
102
RTVSPost2010PropOp35
 70
     1
102
RTVSPost2010Prop36
280
     0
102
RTVSPost2010PropOp36
 70
     1
102
RTVSPost2010Prop37
 90
       50
102
RTVSPost2010PropOp37
 70
     1
102
RTVSPost2010Prop38
140
0.0
102
RTVSPost2010PropOp38
 70
     1
102
RTVSPost2010Prop39
140
1.0
102
RTVSPost2010PropOp39
 70
     1
102
RTVSPost2010Prop40
 90
        0
102
RTVSPost2010PropOp40
 70
     1
102
RTVSPost2010Prop41ColorIndex
 90
       18
102
RTVSPost2010Prop41ColorRGB
 90
        0
102
RTVSPost2010PropOp41
 70
     1
102
RTVSPost2010Prop42
 90
       50
102
RTVSPost2010PropOp42
 70
     1
102
RTVSPost2010Prop43
 90
        3
102
RTVSPost2010PropOp43
 70
     1
102
RTVSPost2010Prop44ColorIndex
 90
        5
102
RTVSPost2010Prop44ColorRGB
 90
      255
102
RTVSPost2010PropOp44
 70
     1
102
RTVSPost2010Prop45
280
     0
102
RTVSPost2010PropOp45
 70
     1
102
RTVSPost2010Prop46
 90
       50
102
RTVSPost2010PropOp46
 70
     1
102
RTVSPost2010Prop47
 90
       50
102
RTVSPost2010PropOp47
 70
     1
102
RTVSPost2010Prop48
 90
       50
102
RTVSPost2010PropOp48
 70
     1
102
RTVSPost2010Prop49
280
     0
102
RTVSPost2010PropOp49
 70
     1
102
RTVSPost2010Prop50
 90
       50
102
RTVSPost2010PropOp50
 70
     1
102
RTVSPost2010Prop51ColorIndex
 90
      256
102
RTVSPost2010Prop51ColorRGB
 90
-16777216
102
RTVSPost2010PropOp51
 70
     0
102
RTVSPost2010Prop52
140
1.0
102
RTVSPost2010PropOp52
 70
     0
102
RTVSPost2010Prop53
 90
        2
102
RTVSPost2010PropOp53
 70
     1
102
RTVSPost2010Prop54
  1
strokes_ogs.tif
102
RTVSPost2010PropOp54
 70
     1
102
RTVSPost2010Prop55
280
     0
102
RTVSPost2010PropOp55
 70
     1
102
RTVSPost2010Prop56
140
1.0
102
RTVSPost2010PropOp56
 70
     1
102
RTVSPost2010Prop57
140
1.0
102
RTVSPost2010PropOp57
 70
     1
  0
XRECORD
  5
668
102
{ACAD_REACTORS
330
667
102
}
330
667
100
AcDbXrecord
280
     1
102
RTVSPropertyOp0
 70
     1
102
RTVSPropertyOp1
 70
     1
102
RTVSPropertyOp2
 70
     1
102
RTVSPropertyOp3
 70
     1
102
RTVSPropertyOp4
 70
     1
102
RTVSPropertyOp5
 70
     1
102
RTVSPropertyOp6
 70
     1
102
RTVSPropertyOp7
 70
     1
102
RTVSPropertyOp8
 70
     1
102
RTVSPropertyOp9
 70
     1
102
RTVSPropertyOp10
 70
     1
102
RTVSPropertyOp11
 70
     1
102
RTVSPropertyOp12
 70
     1
102
RTVSPropertyOp13
 70
     1
102
RTVSPropertyOp14
 70
     1
102
RTVSPropertyOp15
 70
     1
102
RTVSPropertyOp16
 70
     1
102
RTVSPropertyOp17
 70
     1
102
RTVSPropertyOp18
 70
     1
102
RTVSPropertyOp19
 70
     1
102
RTVSPropertyOp20
 70
     1
102
RTVSPropertyOp21
 70
     1
102
RTVSPropertyOp22
 70
     1
102
RTVSPropertyOp23
 70
     1
102
RTVSPropertyOp24
 70
     1
102
RTVSPropertyOp25
 70
     1
102
RTVSPropertyOp26
 70
     1
102
RTVSPropertyOp27
 70
     1
102
RTVSPropertyOp28
 70
     1
102
RTVSPropertyOp29
 70
     1
102
RTVSPropertyOp30
 70
     1
102
RTVSPropertyOp31
 70
     1
102
RTVSPropertyOp32
 70
     1
102
RTVSPropertyOp33
 70
     1
102
RTVSPropertyOp34
 70
     1
102
RTVSPropertyOp35
 70
     1
102
RTVSPropertyOp36
 70
     1
102
RTVSPropertyOp37
 70
     1
102
RTVSPropertyOp38
 70
     1
102
RTVSPropertyOp39
 70
     1
102
RTVSPropertyOp40
 70
     1
102
RTVSPropertyOp41
 70
     1
102
RTVSPropertyOp42
 70
     1
102
RTVSPropertyOp43
 70
     1
102
RTVSPropertyOp44
 70
     1
102
RTVSPropertyOp45
 70
     1
102
RTVSPropertyOp46
 70
     1
102
RTVSPropertyOp47
 70
     1
102
RTVSPropertyOp48
 70
     1
102
RTVSPropertyOp49
 70
     1
102
RTVSPropertyOp50
 70
     1
102
RTVSPropertyOp51
 70
     0
102
RTVSPropertyOp52
 70
     0
102
RTVSPropertyOp53
 70
     1
102
RTVSPropertyOp54
 70
     1
102
RTVSPropertyOp55
 70
     1
102
RTVSPropertyOp56
 70
     1
102
RTVSPropertyOp57
 70
     1
102
RTVSPost2010Prop28
280
     0
102
RTVSPost2010PropOp28
 70
     1
102
RTVSPost2010Prop29
280
     1
102
RTVSPost2010PropOp29
 70
     1
102
RTVSPost2010Prop30
280
     1
102
RTVSPost2010PropOp30
 70
     1
102
RTVSPost2010Prop31
280
     0
102
RTVSPost2010PropOp31
 70
     1
102
RTVSPost2010Prop32
280
     0
102
RTVSPost2010PropOp32
 70
     1
102
RTVSPost2010Prop33
280
     0
102
RTVSPost2010PropOp33
 70
     1
102
RTVSPost2010Prop34
280
     0
102
RTVSPost2010PropOp34
 70
     1
102
RTVSPost2010Prop35
280
     0
102
RTVSPost2010PropOp35
 70
     1
102
RTVSPost2010Prop36
280
     0
102
RTVSPost2010PropOp36
 70
     1
102
RTVSPost2010Prop37
 90
       50
102
RTVSPost2010PropOp37
 70
     1
102
RTVSPost2010Prop38
140
0.0
102
RTVSPost2010PropOp38
 70
     1
102
RTVSPost2010Prop39
140
1.0
102
RTVSPost2010PropOp39
 70
     1
102
RTVSPost2010Prop40
 90
        0
102
RTVSPost2010PropOp40
 70
     1
102
RTVSPost2010Prop41ColorIndex
 90
       18
102
RTVSPost2010Prop41ColorRGB
 90
        0
102
RTVSPost2010PropOp41
 70
     1
102
RTVSPost2010Prop42
 90
       50
102
RTVSPost2010PropOp42
 70
     1
102
RTVSPost2010Prop43
 90
        3
102
RTVSPost2010PropOp43
 70
     1
102
RTVSPost2010Prop44ColorIndex
 90
        5
102
RTVSPost2010Prop44ColorRGB
 90
      255
102
RTVSPost2010PropOp44
 70
     1
102
RTVSPost2010Prop45
280
     0
102
RTVSPost2010PropOp45
 70
     1
102
RTVSPost2010Prop46
 90
       50
102
RTVSPost2010PropOp46
 70
     1
102
RTVSPost2010Prop47
 90
       50
102
RTVSPost2010PropOp47
 70
     1
102
RTVSPost2010Prop48
 90
       50
102
RTVSPost2010PropOp48
 70
     1
102
RTVSPost2010Prop49
280
     0
102
RTVSPost2010PropOp49
 70
     1
102
RTVSPost2010Prop50
 90
       50
102
RTVSPost2010PropOp50
 70
     1
102
RTVSPost2010Prop51ColorIndex
 90
      256
102
RTVSPost2010Prop51ColorRGB
 90
-16777216
102
RTVSPost2010PropOp51
 70
     0
102
RTVSPost2010Prop52
140
1.0
102
RTVSPost2010PropOp52
 70
     0
102
RTVSPost2010Prop53
 90
        2
102
RTVSPost2010PropOp53
 70
     1
102
RTVSPost2010Prop54
  1
strokes_ogs.tif
102
RTVSPost2010PropOp54
 70
     1
102
RTVSPost2010Prop55
280
     0
102
RTVSPost2010PropOp55
 70
     1
102
RTVSPost2010Prop56
140
1.0
102
RTVSPost2010PropOp56
 70
     1
102
RTVSPost2010Prop57
140
1.0
102
RTVSPost2010PropOp57
 70
     1
  0
XRECORD
  5
66A
102
{ACAD_REACTORS
330
669
102
}
330
669
100
AcDbXrecord
280
     1
102
RTVSPropertyOp0
 70
     1
102
RTVSPropertyOp1
 70
     1
102
RTVSPropertyOp2
 70
     1
102
RTVSPropertyOp3
 70
     1
102
RTVSPropertyOp4
 70
     1
102
RTVSPropertyOp5
 70
     1
102
RTVSPropertyOp6
 70
     1
102
RTVSPropertyOp7
 70
     1
102
RTVSPropertyOp8
 70
     1
102
RTVSPropertyOp9
 70
     1
102
RTVSPropertyOp10
 70
     1
102
RTVSPropertyOp11
 70
     1
102
RTVSPropertyOp12
 70
     1
102
RTVSPropertyOp13
 70
     1
102
RTVSPropertyOp14
 70
     1
102
RTVSPropertyOp15
 70
     1
102
RTVSPropertyOp16
 70
     1
102
RTVSPropertyOp17
 70
     1
102
RTVSPropertyOp18
 70
     1
102
RTVSPropertyOp19
 70
     1
102
RTVSPropertyOp20
 70
     1
102
RTVSPropertyOp21
 70
     1
102
RTVSPropertyOp22
 70
     1
102
RTVSPropertyOp23
 70
     1
102
RTVSPropertyOp24
 70
     1
102
RTVSPropertyOp25
 70
     1
102
RTVSPropertyOp26
 70
     1
102
RTVSPropertyOp27
 70
     1
102
RTVSPropertyOp28
 70
     1
102
RTVSPropertyOp29
 70
     1
102
RTVSPropertyOp30
 70
     1
102
RTVSPropertyOp31
 70
     1
102
RTVSPropertyOp32
 70
     1
102
RTVSPropertyOp33
 70
     1
102
RTVSPropertyOp34
 70
     1
102
RTVSPropertyOp35
 70
     1
102
RTVSPropertyOp36
 70
     1
102
RTVSPropertyOp37
 70
     1
102
RTVSPropertyOp38
 70
     1
102
RTVSPropertyOp39
 70
     1
102
RTVSPropertyOp40
 70
     1
102
RTVSPropertyOp41
 70
     1
102
RTVSPropertyOp42
 70
     1
102
RTVSPropertyOp43
 70
     1
102
RTVSPropertyOp44
 70
     1
102
RTVSPropertyOp45
 70
     1
102
RTVSPropertyOp46
 70
     1
102
RTVSPropertyOp47
 70
     1
102
RTVSPropertyOp48
 70
     1
102
RTVSPropertyOp49
 70
     1
102
RTVSPropertyOp50
 70
     1
102
RTVSPropertyOp51
 70
     0
102
RTVSPropertyOp52
 70
     0
102
RTVSPropertyOp53
 70
     1
102
RTVSPropertyOp54
 70
     1
102
RTVSPropertyOp55
 70
     1
102
RTVSPropertyOp56
 70
     1
102
RTVSPropertyOp57
 70
     1
102
RTVSPost2010Prop28
280
     0
102
RTVSPost2010PropOp28
 70
     1
102
RTVSPost2010Prop29
280
     1
102
RTVSPost2010PropOp29
 70
     1
102
RTVSPost2010Prop30
280
     1
102
RTVSPost2010PropOp30
 70
     1
102
RTVSPost2010Prop31
280
     0
102
RTVSPost2010PropOp31
 70
     1
102
RTVSPost2010Prop32
280
     0
102
RTVSPost2010PropOp32
 70
     1
102
RTVSPost2010Prop33
280
     0
102
RTVSPost2010PropOp33
 70
     1
102
RTVSPost2010Prop34
280
     0
102
RTVSPost2010PropOp34
 70
     1
102
RTVSPost2010Prop35
280
     0
102
RTVSPost2010PropOp35
 70
     1
102
RTVSPost2010Prop36
280
     0
102
RTVSPost2010PropOp36
 70
     1
102
RTVSPost2010Prop37
 90
       50
102
RTVSPost2010PropOp37
 70
     1
102
RTVSPost2010Prop38
140
0.0
102
RTVSPost2010PropOp38
 70
     1
102
RTVSPost2010Prop39
140
1.0
102
RTVSPost2010PropOp39
 70
     1
102
RTVSPost2010Prop40
 90
        0
102
RTVSPost2010PropOp40
 70
     1
102
RTVSPost2010Prop41ColorIndex
 90
       18
102
RTVSPost2010Prop41ColorRGB
 90
        0
102
RTVSPost2010PropOp41
 70
     1
102
RTVSPost2010Prop42
 90
       50
102
RTVSPost2010PropOp42
 70
     1
102
RTVSPost2010Prop43
 90
        3
102
RTVSPost2010PropOp43
 70
     1
102
RTVSPost2010Prop44ColorIndex
 90
        5
102
RTVSPost2010Prop44ColorRGB
 90
      255
102
RTVSPost2010PropOp44
 70
     1
102
RTVSPost2010Prop45
280
     0
102
RTVSPost2010PropOp45
 70
     1
102
RTVSPost2010Prop46
 90
       50
102
RTVSPost2010PropOp46
 70
     1
102
RTVSPost2010Prop47
 90
       50
102
RTVSPost2010PropOp47
 70
     1
102
RTVSPost2010Prop48
 90
       50
102
RTVSPost2010PropOp48
 70
     1
102
RTVSPost2010Prop49
280
     0
102
RTVSPost2010PropOp49
 70
     1
102
RTVSPost2010Prop50
 90
       50
102
RTVSPost2010PropOp50
 70
     1
102
RTVSPost2010Prop51ColorIndex
 90
      256
102
RTVSPost2010Prop51ColorRGB
 90
-16777216
102
RTVSPost2010PropOp51
 70
     0
102
RTVSPost2010Prop52
140
1.0
102
RTVSPost2010PropOp52
 70
     0
102
RTVSPost2010Prop53
 90
        2
102
RTVSPost2010PropOp53
 70
     1
102
RTVSPost2010Prop54
  1
strokes_ogs.tif
102
RTVSPost2010PropOp54
 70
     1
102
RTVSPost2010Prop55
280
     0
102
RTVSPost2010PropOp55
 70
     1
102
RTVSPost2010Prop56
140
1.0
102
RTVSPost2010PropOp56
 70
     1
102
RTVSPost2010Prop57
140
1.0
102
RTVSPost2010PropOp57
 70
     1
  0
XRECORD
  5
65A
102
{ACAD_REACTORS
330
659
102
}
330
659
100
AcDbXrecord
280
     1
102
RTVSPropertyOp0
 70
     1
102
RTVSPropertyOp1
 70
     1
102
RTVSPropertyOp2
 70
     1
102
RTVSPropertyOp3
 70
     1
102
RTVSPropertyOp4
 70
     1
102
RTVSPropertyOp5
 70
     1
102
RTVSPropertyOp6
 70
     1
102
RTVSPropertyOp7
 70
     1
102
RTVSPropertyOp8
 70
     1
102
RTVSPropertyOp9
 70
     1
102
RTVSPropertyOp10
 70
     1
102
RTVSPropertyOp11
 70
     1
102
RTVSPropertyOp12
 70
     1
102
RTVSPropertyOp13
 70
     1
102
RTVSPropertyOp14
 70
     1
102
RTVSPropertyOp15
 70
     1
102
RTVSPropertyOp16
 70
     1
102
RTVSPropertyOp17
 70
     1
102
RTVSPropertyOp18
 70
     1
102
RTVSPropertyOp19
 70
     1
102
RTVSPropertyOp20
 70
     1
102
RTVSPropertyOp21
 70
     1
102
RTVSPropertyOp22
 70
     1
102
RTVSPropertyOp23
 70
     1
102
RTVSPropertyOp24
 70
     1
102
RTVSPropertyOp25
 70
     1
102
RTVSPropertyOp26
 70
     1
102
RTVSPropertyOp27
 70
     1
102
RTVSPropertyOp28
 70
     1
102
RTVSPropertyOp29
 70
     1
102
RTVSPropertyOp30
 70
     1
102
RTVSPropertyOp31
 70
     1
102
RTVSPropertyOp32
 70
     1
102
RTVSPropertyOp33
 70
     1
102
RTVSPropertyOp34
 70
     1
102
RTVSPropertyOp35
 70
     1
102
RTVSPropertyOp36
 70
     1
102
RTVSPropertyOp37
 70
     1
102
RTVSPropertyOp38
 70
     1
102
RTVSPropertyOp39
 70
     1
102
RTVSPropertyOp40
 70
     1
102
RTVSPropertyOp41
 70
     1
102
RTVSPropertyOp42
 70
     1
102
RTVSPropertyOp43
 70
     1
102
RTVSPropertyOp44
 70
     1
102
RTVSPropertyOp45
 70
     1
102
RTVSPropertyOp46
 70
     1
102
RTVSPropertyOp47
 70
     1
102
RTVSPropertyOp48
 70
     1
102
RTVSPropertyOp49
 70
     1
102
RTVSPropertyOp50
 70
     1
102
RTVSPropertyOp51
 70
     0
102
RTVSPropertyOp52
 70
     0
102
RTVSPropertyOp53
 70
     1
102
RTVSPropertyOp54
 70
     1
102
RTVSPropertyOp55
 70
     1
102
RTVSPropertyOp56
 70
     1
102
RTVSPropertyOp57
 70
     1
102
RTVSPost2010Prop28
280
     0
102
RTVSPost2010PropOp28
 70
     1
102
RTVSPost2010Prop29
280
     1
102
RTVSPost2010PropOp29
 70
     1
102
RTVSPost2010Prop30
280
     1
102
RTVSPost2010PropOp30
 70
     1
102
RTVSPost2010Prop31
280
     0
102
RTVSPost2010PropOp31
 70
     1
102
RTVSPost2010Prop32
280
     0
102
RTVSPost2010PropOp32
 70
     1
102
RTVSPost2010Prop33
280
     0
102
RTVSPost2010PropOp33
 70
     1
102
RTVSPost2010Prop34
280
     0
102
RTVSPost2010PropOp34
 70
     1
102
RTVSPost2010Prop35
280
     0
102
RTVSPost2010PropOp35
 70
     1
102
RTVSPost2010Prop36
280
     0
102
RTVSPost2010PropOp36
 70
     1
102
RTVSPost2010Prop37
 90
       50
102
RTVSPost2010PropOp37
 70
     1
102
RTVSPost2010Prop38
140
0.0
102
RTVSPost2010PropOp38
 70
     1
102
RTVSPost2010Prop39
140
1.0
102
RTVSPost2010PropOp39
 70
     1
102
RTVSPost2010Prop40
 90
        0
102
RTVSPost2010PropOp40
 70
     1
102
RTVSPost2010Prop41ColorIndex
 90
       18
102
RTVSPost2010Prop41ColorRGB
 90
        0
102
RTVSPost2010PropOp41
 70
     1
102
RTVSPost2010Prop42
 90
       50
102
RTVSPost2010PropOp42
 70
     1
102
RTVSPost2010Prop43
 90
        3
102
RTVSPost2010PropOp43
 70
     1
102
RTVSPost2010Prop44ColorIndex
 90
        5
102
RTVSPost2010Prop44ColorRGB
 90
      255
102
RTVSPost2010PropOp44
 70
     1
102
RTVSPost2010Prop45
280
     0
102
RTVSPost2010PropOp45
 70
     1
102
RTVSPost2010Prop46
 90
       50
102
RTVSPost2010PropOp46
 70
     1
102
RTVSPost2010Prop47
 90
       50
102
RTVSPost2010PropOp47
 70
     1
102
RTVSPost2010Prop48
 90
       50
102
RTVSPost2010PropOp48
 70
     1
102
RTVSPost2010Prop49
280
     0
102
RTVSPost2010PropOp49
 70
     1
102
RTVSPost2010Prop50
 90
       50
102
RTVSPost2010PropOp50
 70
     1
102
RTVSPost2010Prop51ColorIndex
 90
      256
102
RTVSPost2010Prop51ColorRGB
 90
-16777216
102
RTVSPost2010PropOp51
 70
     0
102
RTVSPost2010Prop52
140
1.0
102
RTVSPost2010PropOp52
 70
     0
102
RTVSPost2010Prop53
 90
        2
102
RTVSPost2010PropOp53
 70
     1
102
RTVSPost2010Prop54
  1
strokes_ogs.tif
102
RTVSPost2010PropOp54
 70
     1
102
RTVSPost2010Prop55
280
     0
102
RTVSPost2010PropOp55
 70
     1
102
RTVSPost2010Prop56
140
1.0
102
RTVSPost2010PropOp56
 70
     1
102
RTVSPost2010Prop57
140
1.0
102
RTVSPost2010PropOp57
 70
     1
  0
XRECORD
  5
64C
102
{ACAD_REACTORS
330
64B
102
}
330
64B
100
AcDbXrecord
280
     1
102
RTVSPropertyOp0
 70
     1
102
RTVSPropertyOp1
 70
     1
102
RTVSPropertyOp2
 70
     1
102
RTVSPropertyOp3
 70
     1
102
RTVSPropertyOp4
 70
     1
102
RTVSPropertyOp5
 70
     1
102
RTVSPropertyOp6
 70
     1
102
RTVSPropertyOp7
 70
     1
102
RTVSPropertyOp8
 70
     1
102
RTVSPropertyOp9
 70
     1
102
RTVSPropertyOp10
 70
     1
102
RTVSPropertyOp11
 70
     1
102
RTVSPropertyOp12
 70
     1
102
RTVSPropertyOp13
 70
     1
102
RTVSPropertyOp14
 70
     1
102
RTVSPropertyOp15
 70
     1
102
RTVSPropertyOp16
 70
     1
102
RTVSPropertyOp17
 70
     1
102
RTVSPropertyOp18
 70
     1
102
RTVSPropertyOp19
 70
     1
102
RTVSPropertyOp20
 70
     1
102
RTVSPropertyOp21
 70
     1
102
RTVSPropertyOp22
 70
     1
102
RTVSPropertyOp23
 70
     1
102
RTVSPropertyOp24
 70
     1
102
RTVSPropertyOp25
 70
     1
102
RTVSPropertyOp26
 70
     1
102
RTVSPropertyOp27
 70
     1
102
RTVSPropertyOp28
 70
     1
102
RTVSPropertyOp29
 70
     1
102
RTVSPropertyOp30
 70
     1
102
RTVSPropertyOp31
 70
     1
102
RTVSPropertyOp32
 70
     1
102
RTVSPropertyOp33
 70
     1
102
RTVSPropertyOp34
 70
     1
102
RTVSPropertyOp35
 70
     1
102
RTVSPropertyOp36
 70
     1
102
RTVSPropertyOp37
 70
     1
102
RTVSPropertyOp38
 70
     1
102
RTVSPropertyOp39
 70
     1
102
RTVSPropertyOp40
 70
     1
102
RTVSPropertyOp41
 70
     1
102
RTVSPropertyOp42
 70
     1
102
RTVSPropertyOp43
 70
     1
102
RTVSPropertyOp44
 70
     1
102
RTVSPropertyOp45
 70
     1
102
RTVSPropertyOp46
 70
     1
102
RTVSPropertyOp47
 70
     1
102
RTVSPropertyOp48
 70
     1
102
RTVSPropertyOp49
 70
     1
102
RTVSPropertyOp50
 70
     1
102
RTVSPropertyOp51
 70
     0
102
RTVSPropertyOp52
 70
     0
102
RTVSPropertyOp53
 70
     1
102
RTVSPropertyOp54
 70
     1
102
RTVSPropertyOp55
 70
     1
102
RTVSPropertyOp56
 70
     1
102
RTVSPropertyOp57
 70
     1
102
RTVSPost2010Prop28
280
     0
102
RTVSPost2010PropOp28
 70
     1
102
RTVSPost2010Prop29
280
     1
102
RTVSPost2010PropOp29
 70
     1
102
RTVSPost2010Prop30
280
     1
102
RTVSPost2010PropOp30
 70
     1
102
RTVSPost2010Prop31
280
     0
102
RTVSPost2010PropOp31
 70
     1
102
RTVSPost2010Prop32
280
     0
102
RTVSPost2010PropOp32
 70
     1
102
RTVSPost2010Prop33
280
     0
102
RTVSPost2010PropOp33
 70
     1
102
RTVSPost2010Prop34
280
     0
102
RTVSPost2010PropOp34
 70
     1
102
RTVSPost2010Prop35
280
     0
102
RTVSPost2010PropOp35
 70
     1
102
RTVSPost2010Prop36
280
     0
102
RTVSPost2010PropOp36
 70
     1
102
RTVSPost2010Prop37
 90
       50
102
RTVSPost2010PropOp37
 70
     1
102
RTVSPost2010Prop38
140
0.0
102
RTVSPost2010PropOp38
 70
     1
102
RTVSPost2010Prop39
140
1.0
102
RTVSPost2010PropOp39
 70
     1
102
RTVSPost2010Prop40
 90
        0
102
RTVSPost2010PropOp40
 70
     1
102
RTVSPost2010Prop41ColorIndex
 90
       18
102
RTVSPost2010Prop41ColorRGB
 90
        0
102
RTVSPost2010PropOp41
 70
     1
102
RTVSPost2010Prop42
 90
       50
102
RTVSPost2010PropOp42
 70
     1
102
RTVSPost2010Prop43
 90
        3
102
RTVSPost2010PropOp43
 70
     1
102
RTVSPost2010Prop44ColorIndex
 90
        5
102
RTVSPost2010Prop44ColorRGB
 90
      255
102
RTVSPost2010PropOp44
 70
     1
102
RTVSPost2010Prop45
280
     0
102
RTVSPost2010PropOp45
 70
     1
102
RTVSPost2010Prop46
 90
       50
102
RTVSPost2010PropOp46
 70
     1
102
RTVSPost2010Prop47
 90
       50
102
RTVSPost2010PropOp47
 70
     1
102
RTVSPost2010Prop48
 90
       50
102
RTVSPost2010PropOp48
 70
     1
102
RTVSPost2010Prop49
280
     0
102
RTVSPost2010PropOp49
 70
     1
102
RTVSPost2010Prop50
 90
       50
102
RTVSPost2010PropOp50
 70
     1
102
RTVSPost2010Prop51ColorIndex
 90
      256
102
RTVSPost2010Prop51ColorRGB
 90
-16777216
102
RTVSPost2010PropOp51
 70
     0
102
RTVSPost2010Prop52
140
1.0
102
RTVSPost2010PropOp52
 70
     0
102
RTVSPost2010Prop53
 90
        2
102
RTVSPost2010PropOp53
 70
     1
102
RTVSPost2010Prop54
  1
strokes_ogs.tif
102
RTVSPost2010PropOp54
 70
     1
102
RTVSPost2010Prop55
280
     0
102
RTVSPost2010PropOp55
 70
     1
102
RTVSPost2010Prop56
140
1.0
102
RTVSPost2010PropOp56
 70
     1
102
RTVSPost2010Prop57
140
1.0
102
RTVSPost2010PropOp57
 70
     1
  0
XRECORD
  5
66C
102
{ACAD_REACTORS
330
66B
102
}
330
66B
100
AcDbXrecord
280
     1
102
RTVSPropertyOp0
 70
     1
102
RTVSPropertyOp1
 70
     1
102
RTVSPropertyOp2
 70
     1
102
RTVSPropertyOp3
 70
     1
102
RTVSPropertyOp4
 70
     1
102
RTVSPropertyOp5
 70
     1
102
RTVSPropertyOp6
 70
     1
102
RTVSPropertyOp7
 70
     1
102
RTVSPropertyOp8
 70
     1
102
RTVSPropertyOp9
 70
     1
102
RTVSPropertyOp10
 70
     1
102
RTVSPropertyOp11
 70
     1
102
RTVSPropertyOp12
 70
     1
102
RTVSPropertyOp13
 70
     1
102
RTVSPropertyOp14
 70
     1
102
RTVSPropertyOp15
 70
     1
102
RTVSPropertyOp16
 70
     1
102
RTVSPropertyOp17
 70
     1
102
RTVSPropertyOp18
 70
     1
102
RTVSPropertyOp19
 70
     1
102
RTVSPropertyOp20
 70
     1
102
RTVSPropertyOp21
 70
     1
102
RTVSPropertyOp22
 70
     1
102
RTVSPropertyOp23
 70
     1
102
RTVSPropertyOp24
 70
     1
102
RTVSPropertyOp25
 70
     1
102
RTVSPropertyOp26
 70
     1
102
RTVSPropertyOp27
 70
     1
102
RTVSPropertyOp28
 70
     1
102
RTVSPropertyOp29
 70
     1
102
RTVSPropertyOp30
 70
     1
102
RTVSPropertyOp31
 70
     1
102
RTVSPropertyOp32
 70
     1
102
RTVSPropertyOp33
 70
     1
102
RTVSPropertyOp34
 70
     1
102
RTVSPropertyOp35
 70
     1
102
RTVSPropertyOp36
 70
     1
102
RTVSPropertyOp37
 70
     1
102
RTVSPropertyOp38
 70
     1
102
RTVSPropertyOp39
 70
     1
102
RTVSPropertyOp40
 70
     1
102
RTVSPropertyOp41
 70
     1
102
RTVSPropertyOp42
 70
     1
102
RTVSPropertyOp43
 70
     1
102
RTVSPropertyOp44
 70
     1
102
RTVSPropertyOp45
 70
     1
102
RTVSPropertyOp46
 70
     1
102
RTVSPropertyOp47
 70
     1
102
RTVSPropertyOp48
 70
     1
102
RTVSPropertyOp49
 70
     1
102
RTVSPropertyOp50
 70
     1
102
RTVSPropertyOp51
 70
     0
102
RTVSPropertyOp52
 70
     0
102
RTVSPropertyOp53
 70
     1
102
RTVSPropertyOp54
 70
     1
102
RTVSPropertyOp55
 70
     1
102
RTVSPropertyOp56
 70
     1
102
RTVSPropertyOp57
 70
     1
102
RTVSPost2010Prop28
280
     0
102
RTVSPost2010PropOp28
 70
     1
102
RTVSPost2010Prop29
280
     1
102
RTVSPost2010PropOp29
 70
     1
102
RTVSPost2010Prop30
280
     1
102
RTVSPost2010PropOp30
 70
     1
102
RTVSPost2010Prop31
280
     0
102
RTVSPost2010PropOp31
 70
     1
102
RTVSPost2010Prop32
280
     0
102
RTVSPost2010PropOp32
 70
     1
102
RTVSPost2010Prop33
280
     0
102
RTVSPost2010PropOp33
 70
     1
102
RTVSPost2010Prop34
280
     0
102
RTVSPost2010PropOp34
 70
     1
102
RTVSPost2010Prop35
280
     0
102
RTVSPost2010PropOp35
 70
     1
102
RTVSPost2010Prop36
280
     0
102
RTVSPost2010PropOp36
 70
     1
102
RTVSPost2010Prop37
 90
       50
102
RTVSPost2010PropOp37
 70
     1
102
RTVSPost2010Prop38
140
0.0
102
RTVSPost2010PropOp38
 70
     1
102
RTVSPost2010Prop39
140
1.0
102
RTVSPost2010PropOp39
 70
     1
102
RTVSPost2010Prop40
 90
        0
102
RTVSPost2010PropOp40
 70
     1
102
RTVSPost2010Prop41ColorIndex
 90
       18
102
RTVSPost2010Prop41ColorRGB
 90
        0
102
RTVSPost2010PropOp41
 70
     1
102
RTVSPost2010Prop42
 90
       50
102
RTVSPost2010PropOp42
 70
     1
102
RTVSPost2010Prop43
 90
        3
102
RTVSPost2010PropOp43
 70
     1
102
RTVSPost2010Prop44ColorIndex
 90
        5
102
RTVSPost2010Prop44ColorRGB
 90
      255
102
RTVSPost2010PropOp44
 70
     1
102
RTVSPost2010Prop45
280
     0
102
RTVSPost2010PropOp45
 70
     1
102
RTVSPost2010Prop46
 90
       50
102
RTVSPost2010PropOp46
 70
     1
102
RTVSPost2010Prop47
 90
       50
102
RTVSPost2010PropOp47
 70
     1
102
RTVSPost2010Prop48
 90
       50
102
RTVSPost2010PropOp48
 70
     1
102
RTVSPost2010Prop49
280
     0
102
RTVSPost2010PropOp49
 70
     1
102
RTVSPost2010Prop50
 90
       50
102
RTVSPost2010PropOp50
 70
     1
102
RTVSPost2010Prop51ColorIndex
 90
      256
102
RTVSPost2010Prop51ColorRGB
 90
-16777216
102
RTVSPost2010PropOp51
 70
     0
102
RTVSPost2010Prop52
140
1.0
102
RTVSPost2010PropOp52
 70
     0
102
RTVSPost2010Prop53
 90
        2
102
RTVSPost2010PropOp53
 70
     1
102
RTVSPost2010Prop54
  1
strokes_ogs.tif
102
RTVSPost2010PropOp54
 70
     1
102
RTVSPost2010Prop55
280
     0
102
RTVSPost2010PropOp55
 70
     1
102
RTVSPost2010Prop56
140
1.0
102
RTVSPost2010PropOp56
 70
     1
102
RTVSPost2010Prop57
140
1.0
102
RTVSPost2010PropOp57
 70
     1
  0
ENDSEC
  0
SECTION
  2
THUMBNAILIMAGE
 90
    16364
310
28000000B4000000550000000100080000000000C43B000000000000000000000001000000010000FFFFFF000000FF0000FFFF0000FF0000FFFF0000FF000000FF00FF000000000080808000C0C0C0000000FF007F7FFF000000A5005252A50000007F003F3F7F0000004C0026264C000000260013132600003FFF007F9FFF
310
000029A5005267A500001F7F003F4F7F0000134C00262F4C000009260013172600007FFF007FBFFF000052A500527CA500003F7F003F5F7F0000264C0026394C0000132600131C260000BFFF007FDFFF00007CA5005291A500005F7F003F6F7F0000394C0026424C00001C26001321260000FFFF007FFFFF0000A5A50052A5
310
A500007F7F003F7F7F00004C4C00264C4C00002626001326260000FFBF007FFFDF0000A57C0052A59100007F5F003F7F6F00004C3900264C420000261C001326210000FF7F007FFFBF0000A5520052A57C00007F3F003F7F5F00004C2600264C39000026130013261C0000FF3F007FFF9F0000A5290052A56700007F1F003F
310
7F4F00004C1300264C2F00002609001326170000FF00007FFF7F0000A5000052A55200007F00003F7F3F00004C0000264C260000260000132613003FFF00009FFF7F0029A5000067A552001F7F00004F7F3F00134C00002F4C260009260000172613007FFF0000BFFF7F0052A500007CA552003F7F00005F7F3F00264C0000
310
394C2600132600001C261300BFFF0000DFFF7F007CA5000091A552005F7F00006F7F3F00394C0000424C26001C26000021261300FFFF0000FFFF7F00A5A50000A5A552007F7F00007F7F3F004C4C00004C4C26002626000026261300FFBF0000FFDF7F00A57C0000A59152007F5F00007F6F3F004C3900004C422600261C00
310
0026211300FF7F0000FFBF7F00A5520000A57C52007F3F00007F5F3F004C2600004C39260026130000261C1300FF3F0000FF9F7F00A5290000A56752007F1F00007F4F3F004C1300004C2F26002609000026171300FF000000FF7F7F00A5000000A55252007F0000007F3F3F004C0000004C2626002600000026131300FF00
310
3F00FF7F9F00A5002900A55267007F001F007F3F4F004C0013004C262F002600090026131700FF007F00FF7FBF00A5005200A5527C007F003F007F3F5F004C0026004C2639002600130026131C00FF00BF00FF7FDF00A5007C00A55291007F005F007F3F6F004C0039004C26420026001C0026132100FF00FF00FF7FFF00A5
310
00A500A552A5007F007F007F3F7F004C004C004C264C002600260026132600BF00FF00DF7FFF007C00A5009152A5005F007F006F3F7F0039004C0042264C001C002600211326007F00FF00BF7FFF005200A5007C52A5003F007F005F3F7F0026004C0039264C00130026001C1326003F00FF009F7FFF002900A5006752A500
310
1F007F004F3F7F0013004C002F264C000900260017132600000000002D2D2D005B5B5B0089898900B7B7B700B3B3B30000000000000000000000000000000000000000000000000000000000000000000000000000000000000000000000000000000000000000000000000000000000000000000000000000000000000000
310
00000000000000000000000000000000000000000000000000000000000000000000000000000000000000000000000000000000000000000000000000000000000000000000000000000000000000000000000000000000000000000000000000000000000000000000000000000000000000000000000000000000000000
310
00000000000000000000000000000000000000000000000000000000000000000000000000000000000000000000000000000000000000000000000000000000000000000000000000000000000000000000000000000000000000000000000000000000000000000000000000000000000000000000000000000000000000
310
00000000000000000000000000000000000000000000000000000000000000000000000000000000000000000000000000000000000000000000000000000000000000000000000000000000000000000000000000000000000000000000000000000000000000000000000000000000000000000000000000000000000000
310
00000000000000000000000000000000000000000000000000000000000000000000000000000000000000000000000000000000000000000000000000000000000000000000000000000000000000000000000000000000000000000000000000000000000000000000000000000000000000000000000000000000000000
310
00000000000000000000000000000000000000000000000000000000000000000000000000000000000000000000000000000000000000000000000000000000000000000000000000000000000000000000000000000000000000000000000000000000000000000000000000000000000000000000000000000000000000
310
00000000000000000000000000000000000000000000000000000000000000000000000000000000000000000000000000000000000000000000000000000000000000000000000000000000000000000000000000000000000000000000000000000000000000000000000000000000000000000000000000000000000000
310
00000000000000000000000000000000000000000000000000000000000000000000000000000000000000000000000000000000000000000000000000000000000000000000000000000000000000000000000000000000000000000000000000010000000000000000000000000000000000000000000000000000000000
310
00000000000000000000000000000000000000000000000000000000000000000000000000000000000000000000000000000000000000000000000000000000000000000000000000000000000000000000000000000000000000000000000000000000000000000000000000000000000000000000000000000000000000
310
00000000000000000000000000000000000000000003030303000000000000000000000000000000000000000000000000000000000000000000000000000000000000000000000000000000000000000000000000000000000000000000000000000000000000000000000000000000000000000000000000000000000000
310
00000000000000000000000000000000000000000000000000000000000000000000000000000000000000000000000000000000000000000000000000000000000000000000000000000300010300000000000000000000000000000000000000000000000000000000000000000000000000000000000000000000000000
310
00000000000000000000000000000000000000000000000000000000000000000000000000000000000000000000000000000000000000000000000000000000000000000000000000000000000000000000000000000000000000000000000000000000000000000000000000000000000000000000000000000000000001
310
01010101010000000000000000000000000000000000000000000000000000000000000000000000000000000000000000000000000000000000000000000000000000000000000000000000000000000000000000000000000000000000000000000000000000000000000000000000000000000000000000000000000000
310
00000000000000000000000000000000000000000000000000000000000000000000000000000000000000000000000000000000000303010300000000000000000000000000000000000000000000000000000000000000000000000000000000000000000000000000000000000000000000000000000000000000000000
310
00000000000000000000000000000000000000000000000000000000000000000000000000000000000000000000000000000000000000000000000000000000000000000000000000000000000000000000000000000000000000000000000000000000000000000000000303000000000000000000000000000000000000
310
00000000000000000000000000000000000000000000000000000000000000000000000000000000000000000000000000000000000000000000000000000000000000000000000000000000000000000000000000000000000000000000000000000000000000000000000000000000000000000000000000000000000000
310
00000000000000000000000000000000000000000000000000000000000000000000000000000000000000000000000000000000000000000000000000020202020202000000000000000000000000000000000000000000000000000000000000000000000000000000000000000000000000000000000000000000000000
310
00000000000000000000000000000000000000000000000000000000000000000000000000000000000000000000000000000000000000000000000000000000000000000000000000000000000000000000000000000000000000000000000000000000000000000000000000000000000002020202020200000000000000
310
00000000000000000000000000000000000000000000000000000000000000000000000000000000000000000000000000000000000000000000000000000000000000000000000000000000000000000000000000000000000000000000000000000000000000000000000000000000000000000000000000000000000000
310
00000000000000000000000000010000000000000000000000000000000000000000000000000000000000000000000000000000000000000000000000000000000000000000010000000000000000000000000000000000000000000000000000000000000000000000000000000000000000000000000000000000000000
310
00000000000000000000000000000000000000000000000000000000000000000000000000000000000000000000000000000000000000000000000000000000030303030300000000000000000000000000000000000000000000000000000000000000000000000000000000000000000000000000000000030303030300
310
00000000000000000000000000000000000000000000000000000000000000000000000000000000000000000000000000000000000000000000000000000000000000000000000000000000000000000000000000000000000000000000000000000000000000000000000000000000000000000003030300030000000000
310
00000000000000000000000000000000000000000000000000000000000000000000000000000000000000000000000300010003000000000000000000000000000000000000000000000000000000000000000000000000000000000000000000000000000000000000000000000000000000000000000000000000000000
310
00000000000000000000000000000000000000000000000000000000000000000000000000000000000000030303000300000000000000000000000000000000000000000000000000000000000000000000000000000000000000000000000000000000030001000300000000000000000000000000000000000000000000
310
00000000000000000000000000000000000000000000000000000000000000000000000000000000000000000000000000000000000000000000000000000000000000000000000000000000000000000000000000000000000000000000000003030300030000000000000000000000000000000000000000000000000000
310
00000000000000000000000000000000000000000000000000000300010003000000000000000000000000000000000000000000000000000000000000000000000000000000000000000000000000000000000000000000000000000000000000000000000000000000000000000000000000000000000000000000000000
310
00000000000000000000000000000000000000000000030303000300000000000000000000000000000000000000000000000000000000000000000000000000000000000000000000000000000000030001000300000000000000000000000000000000000000000000000000000000000000000000000000000000000000
310
00000000000000000000000000000000000000000000000000000000000000000000000000000000000000000000000000000000000000000000000000000000000000000000010000000003030300030000000000000000000000000100000000000000000000000000000000000000000000000000000001000000000000
310
00000000000300010003000000000000000000000100000000000000000000000000000000000000000000000000000000000000000000000000000000000000000000000000000000000000000000000000000000000000000000000000000000000000000000000000000000000000000000000000000303030301030303
310
03030303000300000000000000000303030301030303030000000000000000000000000000000000000000000303010303030303030300000000030001000300000003030303030303010303000000000000000000000000000000000000000000000000000000000000000000000000000000000000000000000000000000
310
00000000000000000000000000000000000000000000000000000000000000000000000000000000000000000003030303010303030303030303030401030000000001030303030103030303000000000000000000000000000000000000000000030301030303030303030003030303030303030303030303030303030303
310
03030000000000000000000000000000000000000000000000000000000000000000000000000000000000000000000000000000000000000000000000000000000000000000000000000000000000000000000000000000000000000000000000000303000001000000000303010303010103030303030303000000010000
310
03030000000000000000000000000000000000000000000303010000000000000303030301030103030301030303000100030003030300000000000000000000000000000000000000000000000000000000000000000000000000000000000000000000000000000000000000000000000000000000000000000000000000
310
00000000000000000000000000000000000000000000000303000000000000000000000100000101000000000001000000000000000003030000000000000000000000000000000000000000030000000000000000000000000100010103030103030303010303030000030000000000000000000000000000000000000000
310
00000000000000000000000000000000000000000000000000000000000000000000000000000000000000000000000000000000000000000000000000000000000000000000000000000000030300000000000000000000010000000100000000000100000000000000000303000000000000000000000000000000000000
310
00000300000000000000000000000000000101000000000300030303000300010100000000000000000000000000000000000000000000000000000000000000000000000000000000000000000000000000000000000000000000000000000000000000000000000000000000000000000000000000000000000000000000
310
00000303000000000000000000000100000001000000000001000000000000000003030303030303030000000000000000000000000000030000000000000000000000000000010100000000030303030303030000030000000000000000000000000000000000000000000000000000000000000000000000000000000000
310
00000000000000000000000000000000000000000000000000000000000000000000000000000000000000000000000000000000000000030101010101010101010101010101010101010101010101010101010101010103010101010101000000000000000000000000000003000000000000000000000000000001010000
310
00010103030103030101000300000000000000000000000000000000000000000000000000000000000000000000000000000000000000000000000000000000000000000000000000000000000000000000000000000000000000000000000000000000000000000000000003030000000000000000000001000000010000
310
00000001000000000000000003030303030303030000000000000000000000000000030000000000000000000000000000010100000000030303030303030000030000000000000000000000000000000000000000000000000000000000000000000000000000000000000000000000000000000000000000000000000000
310
00000000000000000000000000000000000000000000000000000000000000000000030300000000000000000000010000000100000000000100000000000000000303000000000000000000000000000000000000000003000000000000000000000000000001010000000003030303030303000003000000000000000000
310
00000000000000000000000000000000000000000000000000000000000000000000000000000000000000000000000000000000000000000000000000000000000000000000000000000000000000000000000000000003030000000000000000000001000000010000000000010000000000000000030300000000000000
310
00000000000000000000000000030000000000000000000000000000010103030303030303010303030000030300000000000000000000000000000000000000000000000000000000000000000000000000000000000000000000000000000000000000000000000000000000000000000000000000000000000000000000
310
00000000000000000000000000000300000000000000000000010000000100000000000100000000000000000300000000000000000000000000000000000000000003000000000000000000000000000001010000000000000001000000000101010000000000000000000000000000000000000000000000000000000000
310
00000000000000000000000000000000000000000000000000000000000000000000000000000000000000000000000000000000000000000000000000000000000000030000000000000000000001000000010000000000010000000000000000030000000000000000000000000000000000000000000300000000000000
310
00000000000000010100000000000000000000000000030300000000000000000000000000000000000000000000000000000000000000000000000000000000000000000000000000000000000000000000000000000000000000000000000000000000000000000000000000000000000000000000000003010000000000
310
00010000010000000100000000000101000000000000010300000000000000000000000000000000000000000003000001000000000000000000000001010000000000000000000001000003000000000000000000000000000000000000000000000000000000000000000000000000000000000000000000000000000000
310
00000000000000000000000000000000000000000000000000000000000000000000000000000000000000000000030103030303030301030301030301010303030303010103030303030301030000000000000000000000000000000000000000000303030103030303030103030301030101030301030303030303030103
310
03030000000000000000000000000000000000000000000000000000000000000000000000000000000000000000000000000000000000000000000000000000000000000000000000000000000000000000000000000000000000000000000000000003030303030303030303030103030303030303030303010303030303
310
03010300000000000000000000000000000000000000000003030301030303030301030303010303030303010303030303030301030303000000000000000000000000000000000000000000000000000000000000000000000000000000000000000000000000000000000000000000000000000000000000000000000000
310
00000000000000000000000000000000000000000000000000000303000000030404030301030301010100000000030103000000000301030000000000000000000000000000000000000000000001030101010000000100030301030303030301030300000001030101010000000000000000000000000000000000000000
310
00000000000000000000000000000000000000000000000000000000000000000000000000000000000000000000000000000000000000000000000000000000000000000000000000000000000000000000000000000100000000000101000000000000000000000000000000000000000000000000000000000000000000
310
00000000000301030000000000000000010000000000010000000000030301030000000000000000000000000000000000000000000000000000000000000000000000000000000000000000000000000000000000000000000000000000000000000000000000000000000000000000000000000000000000000000000000
310
00000000000000000000000000000000000000010000000000000000000000000000000000000000000000000000000000000000000000000000030103000000000000000000000000000000000000000000030100000000000000000000000000000000000000000000000000000000000000000000000000000000000000
310
00000000000000000000000000000000000000000000000000000000000000000000000000000000000000000000000000000000000000000000000000000000000000000000000000000000000000000000000000000000000000000000000000000000000000000000000000000000000000000000000000000000000000
310
00000000000000000000000000000000000000000000000000000000000000000000000000000000000000000000000000000000000000000000000000000000000000000000000000000000000000000000000000000000000000000000000000000000000000000000000000000000000000000000000000000000000000
310
00000000000000000000000000000000000000000000000000000000000000000000000000000000000000000000000000000000000000000000000000000000000000000000000000000000000000000000000000000000000000000000000000000000000000000000000000000000000000000000000000000000000000
310
00000000000000000000000000000000000000000000000000000000000000000000000000000000000000000000000000000000000000000000000000000000000000000000000000000000000000000000000000000000000000000000000000000000000000000000000000000000000000000000000000000000000000
310
00000000000000000000000000000000000000000000000000000000000000000000000000000000000000000000000000000000000000000000000000000000000000000000000000000000000000000000000000000000000000000000000000000000000000000000000000000000000000000000000000000000000000
310
00000000000000000000000000000000000000000000000000000000000000000000000000000000000000000000000000000000000000000000000000000000000000000000000000000000000000000000000000000000000000000000000000000000000000000000000000000000000000000000000000000000000000
310
00000000000000000000000000000000000000000000000000000000000000000000000000000000000000000000000000000000000000000000000000000000000000000000000000000000000000000000000000000000000000000000000000000000000000000000000000000000000000000000000000000000000000
310
00000000000000000000000000000000000000000000000000000000000000000000000000000000000000000000000000000000000000000000000000000000000000000000000000000000000000000000000000000000000000000000000000000000000000000000000000000000000000000000000000000000000000
310
00000000000000000000000000000000000000000000000000000000000000000000000000000000000000000000000000000000000000000000000000000000000000000000000000000000000000000000000000000000000000000000000000000000000000000000000000000000000000000000000000000000000000
310
00000000000000000000000000000000000000000000000000000000000000000000000000000000000000000000000000000000000000000000000000000000000000000000000000000000000000000000000000000000000000000000000000000000000000000000000000000000000000000000000000000000000000
310
00000000000000000000000000000000000000000000000000000000000000000000000000000000000000000000000000000000000000000000000000000000000000000000000000000000000000000000000000000000000000000000000000000000000000000000000000000000000000000000000000000000000000
310
00000000000000000000000000000000000000000000000000000000000000000000000000000000000000000000000000000000000000000000000000000000000000000000000000000000000000000000000000000000000000000000000000000000000000000000000000000000000000000000000000000000000000
310
00000000000000000000000000000000000000000000000000000000000000000000000000000000000000000000000000000000000000000000000000000000000000000000000000000000000000000000000000000000000000000000000000000000000000000000000000000000000000000000000000000000000000
310
00000000000000000000000000000000000000000000000000000000000000000000000000000000000000000000000000000000000000000000000000000000000000000000000000000000000000000000000000000000000000000000000000000000000000000000000000000000000000000000000000000000000000
310
00000000000000000000000000000000000000000000000000000000000000000000000000000000000000000000000000000000000000000000000000000000000000000000000000000000000000000000000000000000000000000000000000000000000000000000000000000000000000000000000000000000000000
310
00000000000000000000000000000000000000000000000000000000000000000000000000000000000000000000000000000000000000000000000000000000000000000000000000000000000000000000000000000000000000000000000000000000000000000000000000000000000000000000000000000000000000
310
00000000000000000000000000000000000000000000000000000000000000000000000000000000000000000000000000000000000000000000000000000000000000000000000000000000000000000000000000000000000000000000000000000000000000000000000000000000000000000000000000000000000000
310
00000000000000000000000000000000000000000000000000000000000000000000000000000000000000000000000000000000000000000000000000000000000000000000000000010000000000000000000000000000000000000000000000000000000000000000000000000000000000000000000000000000000000
310
00000000000000000000000000000000000000000000000000000000000000000000000000000000000000000000000000000000000000000000000000000000000000000000000000000000000000000000000000000000000000000000000000000000000000000000000000000003030303030303030000000003030303
310
03030300000000030303030303030300000000000000000000000000000000000000000000000000000000000000000000000000000000000000000000000000000000000000000000000000000000000000000000000000000000000000000000000000000000000000000000000000000000000000000000000000000000
310
00000000000000000000000000000000000000000000000000000000000000000000000000030000000100000003030303030101010101030303030300000001030000030000000000000000000000000000000000000000000000000000000000000000000000000000000000000000000000000000000000000000000000
310
00000000000000000000000000000000000000000000000000000000000000000000000000000000000000000000000000000000000000000000000000000000000000000000000000000000000000000000000000000000000003000101010103010301010103030303030303010101030103010103010003000000000000
310
00000000000000000000000000000000000000000000000000000000000000000000000000000000000000000000000000000000000000000000000000000000000000000000000000000000000000000000000000000000000000000000000000000000000000000000000000000000000000000000000000000000000000
310
00000000000000000000000000000000030000000103000303030303000103030301000303030303000301030000030000000000000000000000000000000000000000000000000000000000000000000000000000000000000000000000000000000000000000000000000000000000000000000000000000000000000000
310
00000000000000000000000000000000000000000000000000000000000000000000000000000000000000000000000000000000000000000000000000000000000000000003000000030003010303000000000303030000000003030103030300000003000000000000000000000000000000000000000000000000000000
310
00000000000000000000000000000000000000000000000000000000000000000000000000000000000000000000000000000000000000000000000000000000000000000000000000000000000000000000000000000000000000000000000000000000000000000000000000000000000000000000000000000300000300
310
03010300000000000000030000000000000003010103030000030000000000000000000000000000000000000000000000000000000000000000000000000000000000000000000000000000000000000000000000000000000000000000000000000000000000000000000000000000000000000000000000000000000000
310
00000000000000000000000000000000000000000000000000000000000000000000000000000000000000000000000003000003030103000000000000000001000000000000000003000103000003000000000000000000000000000000000000000000000000000000000000000000000000000000000000000000000000
310
00000000000000000000000000000000000000000000000000000000000000000000000000000000000000000000000000000000000000000000000000000000000000000000000000000000000000000000000000000000000000000000000000000000000300030301030000000000000000000100000000000000000003
310
01030300030000000000000000000000000000000000000000000000000000000000000000000000000000000000000000000000000000000000000000000000000000000000000000000000000000000000000000000000000000000000000000000000000000000000000000000000000000000000000000000000000000
310
00000000000000000000000000000000000000000000000000000003000301030000000000000000000303030000000000000000000301030003000000000000000000000000000000000000000000000000000000000000000000000000000000000000000000000000000000000000000000000000000000000000000000
310
00000000000000000000000000000000000000000000000000000000000000000000000000000000000000000000000000000000000000000000000000000000000000000000000000000000000000000303010300000000000000000001030103010000000000000000000301030300000000000000000000000000000000
310
00000000000000000000000000000000000000000000000000000000000000000000000000000000000000000000000000000000000000000000000000000000000000000000000000000000000000000000000000000000000000000000000000000000000000000000000000000000000000000000000000000000000000
310
00000000000000030103000000000303030103000303030003030303030300000003010300000000000000000000000000000000000000000000000000000000000000000000000000000000000000000000000000000000000000000000000000000000000000000000000000000000000000000000000000000000000000
310
00000000000000000000000000000000000000000000000000000000000000000000000000000000000000000000000000000000000000000000000303010300030303000003010300000100000000000100000303000003030300000000000000000000000000000000000000000000000000000000000000000000000000
310
00000000000000000000000000000000000000000000000000000000000000000000000000000000000000000000000000000000000000000000000000000000000000000000000000000000000000000000000000000000000000000000000000000000000000000000000000000000030103030300000303010101010103
310
01000000030301030000000303030103000000000000000000000000000000000000000000000000000000000000000000000000000000000000000000000000000000000000000000000000000000000000000000000000000000000000000000000000000000000000000000000000000000000000000000000000000000
310
00000000000000000000000000000000000000000000000000000000000000000000000000000301030000000001040303030303040300000303030103030000000003010300000000000000000000000000000000000000000000000000000000000000000000000000000000000000000000000000000000000000000000
310
00000000000000000000000000000000000000000000000000000000000000000000000000000000000000000000000000000000000000000000000000000000000000000000000000000000000000000000000000000000000000030303000000030103000001000303030000030300010303030000000303030000000000
310
00000000000000000000000000000000000000000000000000000000000000000000000000000000000000000000000000000000000000000000000000000000000000000000000000000000000000000000000000000000000000000000000000000000000000000000000000000000000000000000000000000000000000
310
00000000000000000000000000000000010303030101010103010101010101030103030301010101030301010103030301000000000000000000000000000000000000000000000000000000000000000000000000000000000000000000000000000000000000000000000000000000000000000000000000000000000000
310
00000000000000000000000000000000000000000000000000000000000000000000000000000000000000000000000000000000000000000000000000000000000000000000030303000001010301010101010103010301030000010003030000000303030000000000000000000000000000000000000000000000000000
310
00000000000000000000000000000000000000000000000000000000000000000000000000000000000000000000000000000000000000000000000000000000000000000000000000000000000000000000000000000000000000000000000000000000000000000000000000000000000000000000000000000003010300
310
00000103000000010000030103000303000103030300000003010300000000000000000000000000000000000000000000000000000000000000000000000000000000000000000000000000000000000000000000000000000000000000000000000000000000000000000000000000000000000000000000000000000000
310
00000000000000000000000000000000000000000000000000000000000000000000000000000000000000000000000000030103000000030303000001000003010000030303010303000000000301030000000000000000000000000000000000000000000000000000000000000000000000000000000000000000000000
310
00000000000000000000000000000000000000000000000000000000000000000000000000000000000000000000000000000000000000000000000000000000000000000000000000000000000000000000000000000000000000000000000000000000000003030103000003040303000100030403000000030301030000
310
00000003030300000000000000000000000000000000000000000000000000000000000000000000000000000000000000000000000000000000000000000000000000000000000000000000000000000000000000000000000000000000000000000000000000000000000000000000000000000000000000000000000000
310
00000000000000000000000000000000000000000000000000000000030301030000000104030303030104030000000000010000000000030103030000000000000000000000000000000000000000000000000000000000000000000000000000000000000000000000000000000000000000000000000000000000000000
310
00000000000000000000000000000000000000000000000000000000000000000000000000000000000000000000000000000000000000000000000000000000000000000000000000000000000000000303030103030300000303010103030001000000000000000000030303010303030000000000000000000000000000
310
00000000000000000000000000000000000000000000000000000000000000000000000000000000000000000000000000000000000000000000000000000000000000000000000000000000000000000000000000000000000000000000000000000000000000000000000000000000000000000000000000000000000000
310
00000000000003000003010300030303030001000000030000000000030303030003010300000300000000000000000000000000000000000000000000000000000000000000000000000000000000000000000000000000000000000000000000000000000000000000000000000000000000000000000000000000000000
310
00000000000000000000000000000000000000000000000000000000000000000000000000000000000000000000000000000000000000000000000300000303010300000000030303030303030303030300000000030103030000030303030303030000000000000000000000000000000000000000000000000000000000
310
00000000000000000000000000000000000000000000000000000000000000000000000000000000000000000000000000000000000000000000000000000000000000000000000000000000000000000000000000000000000000000000000000000000000000000000000000000000030101030103010301010101010101
310
03010301010101010101030101030301010303030303030300000000000000000000000000000000000000000000000000000000000000000000000000000000000000000000000000000000000000000000000000000000000000000000000000000000000000000000000000000000000000000000000000000000000000
310
00000000000000000000000000000000000000000000000000000000000000000000000000000300000003030100030000000000000303030000000000000300010003000000030303030303030000000000000000000000000000000000000000000000000000000000000000000000000000000000000000000000000000
310
00000000000000000000000000000000000000000000000000000000000000000000000000000000000000000000000000000000000000000000000000000000000000000000000000000000000000000000000000000000000000030000000003030101030100000000030303000000000103010103030000000003000000
310
00000000000000000000000000000000000000000000000000000000000000000000000000000000000000000000000000000000000000000000000000000000000000000000000000000000000000000000000000000000000000000000000000000000000000000000000000000000000000000000000000000000000000
310
00000000000000000000000000000000000303030303010303030303030000010303030100000303030303030303030303030000000000000000000000000000000000000000000000000000000000000000000000000000000000000000000000000000000000000000000000000000000000000000000000000000000000
310
00000000000000000000000000000000000000000000000000000000000000000000000000000000000000000000000000000000000000000000000000000000000000000000000300000003000301030101030303030303030303010103010300010300000300000000000000000000000000000000000000000000000000
310
00000000000000000000000000000000000000000000000000000000000000000000000000000000000000000000000000000000000000000000000000000000000000000000000000000000000000000000000000000000000000000000000000000000000000000000000000000000000000000000000000000000030000
310
03030100000303030301010101010101030303030000010103010003000000000000000000000000000000000000000000000000000000000000000000000000000000000000000000000000000000000000000000000000000000000000000000000000000000000000000000000000000000000000000000000000000000
310
00000000000000000000000000000000000000000000000000000000000000000000000000000000000000000000000000000300000003000000030000030303030303030303030003000000010300000300000000000000000000000000000000000000000000000000000000000000000000000000000000000000000000
310
00000000000000000000000000000000000000000000000000000000000000000000000000000000000000000000000000000000000000000000000000000000000000000000000000000000000000000000000000000000000000000000000000000000000000030303030303030300000000000003030300000000000003
310
03030303030303000000000000000000000000000000000000000000000000000000000000000000000000000000000000000000000000000000000000000000000000000000000000000000000000000000000000000000000000000000000000000000000000000000000000000000000000000000000000000000000000
310
00000000000000000000000000000000000000000000000000000000000000000000000000000000000000000100000000000000000000000000000000000000000000000000000000000000000000000000000000000000000000000000000000000000000000000000000000000000000000000000000000000000000000
310
00000000000000000000000000000000000000000000000000000000000000000000000000000000000000000000000000000000000000000000000000000000000000000000000000000000000000000000000000000000000000000000000000000000000000000000000000000000000000000000000000000000000000
310
000000000000000000000000000000000000000000000000000000000000000000000000000000000000000000000000000000000000000000000000000000000000000000000000000000000000000000000000000000000000000000000000000000000000000000000000
  0
ENDSEC
  0
EOF
