  0
SECTION
  2
HEADER
  9
$ACADVER
  1
AC1015
  9
$ACADMAINTVER
 70
     6
  9
$DWGCODEPAGE
  3
ANSI_932
  9
$INSBASE
 10
2242.452377269216
 20
1355.939648254432
 30
0.0
  9
$EXTMIN
 10
185.9832753262817
 20
41.54332767351548
 30
0.0
  9
$EXTMAX
 10
1858.317158903334
 20
1357.746530067866
 30
0.0
  9
$LIMMIN
 10
0.0
 20
0.0
  9
$LIMMAX
 10
816.5000000000001
 20
565.0
  9
$ORTHOMODE
 70
     1
  9
$REGENMODE
 70
     1
  9
$FILLMODE
 70
     1
  9
$QTEXTMODE
 70
     0
  9
$MIRRTEXT
 70
     1
  9
$LTSCALE
 40
8.0
  9
$ATTMODE
 70
     1
  9
$TEXTSIZE
 40
15.0
  9
$TRACEWID
 40
0.05
  9
$TEXTSTYLE
  7
KANJI
  9
$CLAYER
  8
2
  9
$CELTYPE
  6
BYLAYER
  9
$CECOLOR
 62
   256
  9
$CELTSCALE
 40
1.0
  9
$DISPSILH
 70
     0
  9
$DIMSCALE
 40
5.0
  9
$DIMASZ
 40
2.0
  9
$DIMEXO
 40
0.5
  9
$DIMDLI
 40
0.0
  9
$DIMRND
 40
0.0
  9
$DIMDLE
 40
0.0
  9
$DIMEXE
 40
1.0
  9
$DIMTP
 40
0.0
  9
$DIMTM
 40
0.0
  9
$DIMTXT
 40
3.0
  9
$DIMCEN
 40
0.09
  9
$DIMTSZ
 40
0.0
  9
$DIMTOL
 70
     0
  9
$DIMLIM
 70
     0
  9
$DIMTIH
 70
     0
  9
$DIMTOH
 70
     0
  9
$DIMSE1
 70
     0
  9
$DIMSE2
 70
     0
  9
$DIMTAD
 70
     0
  9
$DIMZIN
 70
     8
  9
$DIMBLK
  1

  9
$DIMASO
 70
     0
  9
$DIMSHO
 70
     0
  9
$DIMPOST
  1

  9
$DIMAPOST
  1

  9
$DIMALT
 70
     0
  9
$DIMALTD
 70
     2
  9
$DIMALTF
 40
25.4
  9
$DIMLFAC
 40
1.0
  9
$DIMTOFL
 70
     1
  9
$DIMTVP
 40
1.0
  9
$DIMTIX
 70
     1
  9
$DIMSOXD
 70
     1
  9
$DIMSAH
 70
     0
  9
$DIMBLK1
  1

  9
$DIMBLK2
  1

  9
$DIMSTYLE
  2
STANDARD
  9
$DIMCLRD
 70
   256
  9
$DIMCLRE
 70
   256
  9
$DIMCLRT
 70
   256
  9
$DIMTFAC
 40
1.0
  9
$DIMGAP
 40
0.09
  9
$DIMJUST
 70
     0
  9
$DIMSD1
 70
     0
  9
$DIMSD2
 70
     0
  9
$DIMTOLJ
 70
     1
  9
$DIMTZIN
 70
     0
  9
$DIMALTZ
 70
     0
  9
$DIMALTTZ
 70
     0
  9
$DIMUPT
 70
     0
  9
$DIMDEC
 70
     1
  9
$DIMTDEC
 70
     4
  9
$DIMALTU
 70
     2
  9
$DIMALTTD
 70
     2
  9
$DIMTXSTY
  7
STANDARD
  9
$DIMAUNIT
 70
     0
  9
$DIMADEC
 70
     0
  9
$DIMALTRND
 40
0.0
  9
$DIMAZIN
 70
     0
  9
$DIMDSEP
 70
    46
  9
$DIMATFIT
 70
     3
  9
$DIMFRAC
 70
     0
  9
$DIMLDRBLK
  1

  9
$DIMLUNIT
 70
     2
  9
$DIMLWD
 70
    -2
  9
$DIMLWE
 70
    -2
  9
$DIMTMOVE
 70
     0
  9
$LUNITS
 70
     2
  9
$LUPREC
 70
     3
  9
$SKETCHINC
 40
0.1
  9
$FILLETRAD
 40
2.0
  9
$AUNITS
 70
     0
  9
$AUPREC
 70
     3
  9
$MENU
  1
C:\R13\WIN\SUPPORT\ACADFULL
  9
$ELEVATION
 40
0.0
  9
$PELEVATION
 40
0.0
  9
$THICKNESS
 40
0.0
  9
$LIMCHECK
 70
     0
  9
$CHAMFERA
 40
0.0
  9
$CHAMFERB
 40
0.0
  9
$CHAMFERC
 40
0.0
  9
$CHAMFERD
 40
0.0
  9
$SKPOLY
 70
     0
  9
$TDCREATE
 40
2457407.586298704
  9
$TDUCREATE
 40
2457407.211298704
  9
$TDUPDATE
 40
2458115.645155197
  9
$TDUUPDATE
 40
2458115.270155197
  9
$TDINDWG
 40
0.0714607986
  9
$TDUSRTIMER
 40
0.0714595718
  9
$USRTIMER
 70
     1
  9
$ANGBASE
 50
0.0
  9
$ANGDIR
 70
     0
  9
$PDMODE
 70
     0
  9
$PDSIZE
 40
0.0
  9
$PLINEWID
 40
0.0
  9
$SPLFRAME
 70
     0
  9
$SPLINETYPE
 70
     6
  9
$SPLINESEGS
 70
     8
  9
$HANDSEED
  5
712
  9
$SURFTAB1
 70
     6
  9
$SURFTAB2
 70
     6
  9
$SURFTYPE
 70
     6
  9
$SURFU
 70
     6
  9
$SURFV
 70
     6
  9
$UCSBASE
  2

  9
$UCSNAME
  2

  9
$UCSORG
 10
0.0
 20
0.0
 30
0.0
  9
$UCSXDIR
 10
1.0
 20
0.0
 30
0.0
  9
$UCSYDIR
 10
0.0
 20
1.0
 30
0.0
  9
$UCSORTHOREF
  2

  9
$UCSORTHOVIEW
 70
     0
  9
$UCSORGTOP
 10
0.0
 20
0.0
 30
0.0
  9
$UCSORGBOTTOM
 10
0.0
 20
0.0
 30
0.0
  9
$UCSORGLEFT
 10
0.0
 20
0.0
 30
0.0
  9
$UCSORGRIGHT
 10
0.0
 20
0.0
 30
0.0
  9
$UCSORGFRONT
 10
0.0
 20
0.0
 30
0.0
  9
$UCSORGBACK
 10
0.0
 20
0.0
 30
0.0
  9
$PUCSBASE
  2

  9
$PUCSNAME
  2

  9
$PUCSORG
 10
0.0
 20
0.0
 30
0.0
  9
$PUCSXDIR
 10
1.0
 20
0.0
 30
0.0
  9
$PUCSYDIR
 10
0.0
 20
1.0
 30
0.0
  9
$PUCSORTHOREF
  2

  9
$PUCSORTHOVIEW
 70
     0
  9
$PUCSORGTOP
 10
0.0
 20
0.0
 30
0.0
  9
$PUCSORGBOTTOM
 10
0.0
 20
0.0
 30
0.0
  9
$PUCSORGLEFT
 10
0.0
 20
0.0
 30
0.0
  9
$PUCSORGRIGHT
 10
0.0
 20
0.0
 30
0.0
  9
$PUCSORGFRONT
 10
0.0
 20
0.0
 30
0.0
  9
$PUCSORGBACK
 10
0.0
 20
0.0
 30
0.0
  9
$USERI1
 70
     0
  9
$USERI2
 70
     0
  9
$USERI3
 70
     0
  9
$USERI4
 70
     0
  9
$USERI5
 70
     0
  9
$USERR1
 40
0.0
  9
$USERR2
 40
0.0
  9
$USERR3
 40
0.0
  9
$USERR4
 40
2448925.372986111
  9
$USERR5
 40
0.04166667
  9
$WORLDVIEW
 70
     1
  9
$SHADEDGE
 70
     3
  9
$SHADEDIF
 70
    70
  9
$TILEMODE
 70
     1
  9
$MAXACTVP
 70
    16
  9
$PINSBASE
 10
0.0
 20
0.0
 30
0.0
  9
$PLIMCHECK
 70
     0
  9
$PEXTMIN
 10
1000000000000000E+20
 20
1000000000000000E+20
 30
1000000000000000E+20
  9
$PEXTMAX
 10
-1000000000000000E+20
 20
-1000000000000000E+20
 30
-1000000000000000E+20
  9
$PLIMMIN
 10
0.0
 20
0.0
  9
$PLIMMAX
 10
12.0
 20
9.0
  9
$UNITMODE
 70
     0
  9
$VISRETAIN
 70
     0
  9
$PLINEGEN
 70
     0
  9
$PSLTSCALE
 70
     0
  9
$TREEDEPTH
 70
  3020
  9
$CMLSTYLE
  2
STANDARD
  9
$CMLJUST
 70
     0
  9
$CMLSCALE
 40
1.0
  9
$PROXYGRAPHICS
 70
     1
  9
$MEASUREMENT
 70
     0
  9
$CELWEIGHT
370
    -1
  9
$ENDCAPS
280
     0
  9
$JOINSTYLE
280
     0
  9
$LWDISPLAY
290
     0
  9
$INSUNITS
 70
     0
  9
$HYPERLINKBASE
  1

  9
$STYLESHEET
  1

  9
$XEDIT
290
     1
  9
$CEPSNTYPE
380
     0
  9
$PSTYLEMODE
290
     1
  9
$FINGERPRINTGUID
  2
{C2B2CB2A-30DC-4003-B742-17D26F9AF104}
  9
$VERSIONGUID
  2
{282423BA-AA45-442C-9A98-778408CC42AB}
  9
$EXTNAMES
290
     1
  9
$PSVPSCALE
 40
0.0
  9
$OLESTARTUP
290
     0
  0
ENDSEC
  0
SECTION
  2
CLASSES
  0
CLASS
  1
ACDBDICTIONARYWDFLT
  2
AcDbDictionaryWithDefault
  3
ObjectDBX Classes
 90
        0
280
     0
281
     0
  0
CLASS
  1
MATERIAL
  2
AcDbMaterial
  3
ObjectDBX Classes
 90
     1153
280
     0
281
     0
  0
CLASS
  1
SORTENTSTABLE
  2
AcDbSortentsTable
  3
ObjectDBX Classes
 90
        0
280
     0
281
     0
  0
CLASS
  1
SCALE
  2
AcDbScale
  3
ObjectDBX Classes
 90
     1153
280
     0
281
     0
  0
CLASS
  1
DICTIONARYVAR
  2
AcDbDictionaryVar
  3
ObjectDBX Classes
 90
        0
280
     0
281
     0
  0
CLASS
  1
VISUALSTYLE
  2
AcDbVisualStyle
  3
ObjectDBX Classes
 90
     4095
280
     0
281
     0
  0
CLASS
  1
MLEADERSTYLE
  2
AcDbMLeaderStyle
  3
ACDB_MLEADERSTYLE_CLASS
 90
     4095
280
     0
281
     0
  0
CLASS
  1
TABLESTYLE
  2
AcDbTableStyle
  3
ObjectDBX Classes
 90
     4095
280
     0
281
     0
  0
CLASS
  1
ACDBPLACEHOLDER
  2
AcDbPlaceHolder
  3
ObjectDBX Classes
 90
        0
280
     0
281
     0
  0
CLASS
  1
LAYOUT
  2
AcDbLayout
  3
ObjectDBX Classes
 90
        0
280
     0
281
     0
  0
ENDSEC
  0
SECTION
  2
TABLES
  0
TABLE
  2
VPORT
  5
2C
102
{ACAD_XDICTIONARY
360
6D7
102
}
330
0
100
AcDbSymbolTable
 70
     1
  0
VPORT
  5
31
330
2C
100
AcDbSymbolTableRecord
100
AcDbViewportTableRecord
  2
*ACTIVE
 70
     0
 10
0.0
 20
0.0
 11
1.0
 21
1.0
 12
1674.323123001869
 22
660.796421272457
 13
0.0
 23
0.0
 14
1.0
 24
1.0
 15
50.0
 25
50.0
 16
0.0
 26
0.0
 36
1.0
 17
0.0
 27
0.0
 37
0.0
 40
1857.748021374543
 41
1.82716049382716
 42
50.0
 43
0.0
 44
0.0
 50
0.0
 51
0.0
 71
     0
 72
  5000
 73
     1
 74
     0
 75
     0
 76
     0
 77
     0
 78
     0
281
     0
 65
     1
110
0.0
120
0.0
130
0.0
111
1.0
121
0.0
131
0.0
112
0.0
122
1.0
132
0.0
 79
     0
146
0.0
1001
ACAD_NAV_VCDISPLAY
1070
     3
  0
ENDTAB
  0
TABLE
  2
LTYPE
  5
F
330
0
100
AcDbSymbolTable
 70
     2
  0
LTYPE
  5
10
330
F
100
AcDbSymbolTableRecord
100
AcDbLinetypeTableRecord
  2
BYBLOCK
 70
     0
  3

 72
    65
 73
     0
 40
0.0
  0
LTYPE
  5
11
330
F
100
AcDbSymbolTableRecord
100
AcDbLinetypeTableRecord
  2
BYLAYER
 70
     0
  3

 72
    65
 73
     0
 40
0.0
  0
LTYPE
  5
E
330
F
100
AcDbSymbolTableRecord
100
AcDbLinetypeTableRecord
  2
CONTINUOUS
 70
     0
  3
Solid line
 72
    65
 73
     0
 40
0.0
  0
LTYPE
  5
6C
330
F
100
AcDbSymbolTableRecord
100
AcDbLinetypeTableRecord
  2
CENTER
 70
     0
  3
____ _ ____ _ ____ _ ____ _ ____ _ ____ _ ____
 72
    65
 73
     4
 40
2.0
 49
1.25
 74
     0
 49
-0.25
 74
     0
 49
0.25
 74
     0
 49
-0.25
 74
     0
  0
ENDTAB
  0
TABLE
  2
LAYER
  5
2
102
{ACAD_XDICTIONARY
360
3
102
}
330
0
100
AcDbSymbolTable
 70
    10
  0
LAYER
  5
1F
102
{ACAD_XDICTIONARY
360
20
102
}
330
2
100
AcDbSymbolTableRecord
100
AcDbLayerTableRecord
  2
0
 70
     0
 62
     7
  6
CONTINUOUS
370
    -3
390
7
  0
LAYER
  5
51A
102
{ACAD_XDICTIONARY
360
51B
102
}
330
2
100
AcDbSymbolTableRecord
100
AcDbLayerTableRecord
  2
1
 70
     0
 62
     9
  6
CONTINUOUS
370
    -3
390
7
  0
LAYER
  5
1
102
{ACAD_XDICTIONARY
360
5
102
}
330
2
100
AcDbSymbolTableRecord
100
AcDbLayerTableRecord
  2
2
 70
     0
 62
     4
  6
CONTINUOUS
370
    -3
390
7
  0
LAYER
  5
6E
102
{ACAD_XDICTIONARY
360
6F
102
}
330
2
100
AcDbSymbolTableRecord
100
AcDbLayerTableRecord
  2
4
 70
     0
 62
     3
  6
CONTINUOUS
370
    -3
390
7
  0
LAYER
  5
69
102
{ACAD_XDICTIONARY
360
6A
102
}
330
2
100
AcDbSymbolTableRecord
100
AcDbLayerTableRecord
  2
L-CENTER
 70
     0
 62
     1
  6
CENTER
370
    -3
390
7
  0
LAYER
  5
19B
102
{ACAD_XDICTIONARY
360
19C
102
}
330
2
100
AcDbSymbolTableRecord
100
AcDbLayerTableRecord
  2
3
 70
     0
 62
     2
  6
CONTINUOUS
370
    -3
390
7
  0
LAYER
  5
5CE
102
{ACAD_XDICTIONARY
360
5CF
102
}
330
2
100
AcDbSymbolTableRecord
100
AcDbLayerTableRecord
  2
5
 70
     0
 62
     6
  6
CONTINUOUS
370
    -3
390
7
  0
LAYER
  5
694
330
2
100
AcDbSymbolTableRecord
100
AcDbLayerTableRecord
  2
Defpoints
 70
     0
 62
     7
  6
CONTINUOUS
290
     0
370
    -3
390
7
  0
ENDTAB
  0
TABLE
  2
STYLE
  5
13
330
0
100
AcDbSymbolTable
 70
     2
  0
STYLE
  5
17
330
13
100
AcDbSymbolTableRecord
100
AcDbTextStyleTableRecord
  2
STANDARD
 70
     0
 40
0.0
 41
1.0
 50
0.0
 71
     0
 42
9.0
  3
TXT
  4

  0
STYLE
  5
12
330
13
100
AcDbSymbolTableRecord
100
AcDbTextStyleTableRecord
  2
KANJI
 70
     0
 40
0.0
 41
1.0
 50
0.0
 71
     0
 42
15.0
  3
TXT
  4
BIGFONT
  0
ENDTAB
  0
TABLE
  2
VIEW
  5
2A
330
0
100
AcDbSymbolTable
 70
     0
  0
ENDTAB
  0
TABLE
  2
UCS
  5
2B
330
0
100
AcDbSymbolTable
 70
     0
  0
ENDTAB
  0
TABLE
  2
APPID
  5
D
330
0
100
AcDbSymbolTable
 70
     6
  0
APPID
  5
C
330
D
100
AcDbSymbolTableRecord
100
AcDbRegAppTableRecord
  2
ACAD
 70
     0
  0
APPID
  5
32
330
D
100
AcDbSymbolTableRecord
100
AcDbRegAppTableRecord
  2
ACAD_NAV_VCDISPLAY
 70
     0
  0
APPID
  5
25
330
D
100
AcDbSymbolTableRecord
100
AcDbRegAppTableRecord
  2
ACAD_PSEXT
 70
     0
  0
APPID
  5
63C
330
D
100
AcDbSymbolTableRecord
100
AcDbRegAppTableRecord
  2
ACAD_MLEADERVER
 70
     0
  0
ENDTAB
  0
TABLE
  2
DIMSTYLE
  5
16
330
0
100
AcDbSymbolTable
 70
     1
100
AcDbDimStyleTable
  0
DIMSTYLE
105
15
330
16
100
AcDbSymbolTableRecord
100
AcDbDimStyleTableRecord
  2
STANDARD
 70
     0
178
     0
340
17
  0
ENDTAB
  0
TABLE
  2
BLOCK_RECORD
  5
1A
330
0
100
AcDbSymbolTable
 70
     0
  0
BLOCK_RECORD
  5
1B
102
{ACAD_XDICTIONARY
360
1C
102
}
330
1A
100
AcDbSymbolTableRecord
100
AcDbBlockTableRecord
  2
*MODEL_SPACE
340
23
  0
BLOCK_RECORD
  5
26
330
1A
100
AcDbSymbolTableRecord
100
AcDbBlockTableRecord
  2
*PAPER_SPACE
340
29
  0
ENDTAB
  0
ENDSEC
  0
SECTION
  2
BLOCKS
  0
BLOCK
  5
1E
330
1B
100
AcDbEntity
  8
0
100
AcDbBlockBegin
  2
*MODEL_SPACE
 70
     0
 10
0.0
 20
0.0
 30
0.0
  3
*MODEL_SPACE
  1

  0
ENDBLK
  5
22
330
1B
100
AcDbEntity
  8
0
100
AcDbBlockEnd
  0
BLOCK
  5
27
330
26
100
AcDbEntity
 67
     1
  8
0
100
AcDbBlockBegin
  2
*PAPER_SPACE
 70
     0
 10
0.0
 20
0.0
 30
0.0
  3
*PAPER_SPACE
  1

  0
ENDBLK
  5
28
330
26
100
AcDbEntity
 67
     1
  8
0
100
AcDbBlockEnd
  0
ENDSEC
  0
SECTION
  2
ENTITIES
  0
LINE
  5
68
330
1B
100
AcDbEntity
  8
L-CENTER
 48
3.0
100
AcDbLine
 10
281.191730481461
 20
191.5433276735153
 30
0.0
 11
997.2638445471028
 21
191.5433276735153
 31
0.0
  0
LINE
  5
6D
330
1B
100
AcDbEntity
  8
4
100
AcDbLine
 10
990.6907419865832
 20
254.0433276735155
 30
0.0
 11
975.7907419865833
 21
254.0433276735155
 31
0.0
  0
LINE
  5
71
330
1B
100
AcDbEntity
  8
4
100
AcDbLine
 10
990.6907419865832
 20
129.0433276735153
 30
0.0
 11
975.7907419865833
 21
129.0433276735153
 31
0.0
  0
ARC
  5
72
330
1B
100
AcDbEntity
  8
4
100
AcDbCircle
 10
970.7907419865833
 20
125.5433276735153
 30
0.0
 40
5.0
100
AcDbArc
 50
270.0
 51
0.0
  0
LINE
  5
73
330
1B
100
AcDbEntity
  8
4
100
AcDbLine
 10
642.3808319865834
 20
495.5433276735155
 30
0.0
 11
614.3808319865839
 21
495.5433276735155
 31
0.0
  0
LINE
  5
74
330
1B
100
AcDbEntity
  8
4
100
AcDbLine
 10
641.3808319865839
 20
496.5433276735155
 30
0.0
 11
567.3808319865839
 21
496.5433276735155
 31
0.0
  0
LINE
  5
75
330
1B
100
AcDbEntity
  8
4
100
AcDbLine
 10
644.3808319865839
 20
371.5433276735155
 30
0.0
 11
564.3808319865839
 21
371.5433276735155
 31
0.0
  0
LINE
  5
76
330
1B
100
AcDbEntity
  8
4
100
AcDbLine
 10
652.9054425496424
 20
358.7433276735155
 30
0.0
 11
555.8562214235249
 21
358.7433276735154
 31
0.0
  0
LINE
  5
77
330
1B
100
AcDbEntity
  8
4
100
AcDbLine
 10
671.1498719865835
 20
345.8433276735152
 30
0.0
 11
566.7603971011868
 21
345.8433276735152
 31
0.0
  0
LINE
  5
78
330
1B
100
AcDbEntity
  8
2
100
AcDbLine
 10
663.7907419865837
 20
346.1433276735152
 30
0.0
 11
566.7603971011868
 21
346.1433276735152
 31
0.0
  0
LINE
  5
79
330
1B
100
AcDbEntity
  8
4
100
AcDbLine
 10
544.8210868719812
 20
345.8433276735152
 30
0.0
 11
509.3808319865839
 21
345.8433276735152
 31
0.0
  0
LINE
  5
7A
330
1B
100
AcDbEntity
  8
2
100
AcDbLine
 10
544.8210868719812
 20
346.1433276735152
 30
0.0
 11
509.3808319865839
 21
346.1433276735152
 31
0.0
  0
LINE
  5
7B
330
1B
100
AcDbEntity
  8
4
100
AcDbLine
 10
510.3808319865839
 20
357.7433276735152
 30
0.0
 11
679.5407419865837
 21
357.7433276735152
 31
0.0
  0
LINE
  5
7C
330
1B
100
AcDbEntity
  8
4
100
AcDbLine
 10
397.7907419865833
 20
314.5433276735153
 30
0.0
 11
973.7907419865833
 21
314.5433276735153
 31
0.0
  0
LINE
  5
7D
330
1B
100
AcDbEntity
  8
4
100
AcDbLine
 10
410.7907419865833
 20
317.5433276735153
 30
0.0
 11
960.7907419865833
 21
317.5433276735153
 31
0.0
  0
LINE
  5
7E
330
1B
100
AcDbEntity
  8
2
100
AcDbLine
 10
410.7907419865833
 20
317.8433276735152
 30
0.0
 11
960.7907419865833
 21
317.8433276735152
 31
0.0
  0
LINE
  5
7F
330
1B
100
AcDbEntity
  8
4
100
AcDbLine
 10
412.7907419865833
 20
339.8433276735152
 30
0.0
 11
958.7907419865833
 21
339.8433276735152
 31
0.0
  0
LINE
  5
80
330
1B
100
AcDbEntity
  8
4
100
AcDbLine
 10
570.7907419865837
 20
103.6433276735153
 30
0.0
 11
698.3808319865839
 21
103.6433276735153
 31
0.0
  0
LINE
  5
81
330
1B
100
AcDbEntity
  8
4
100
AcDbLine
 10
570.7907419865837
 20
115.5433276735153
 30
0.0
 11
699.3808319865839
 21
115.5433276735153
 31
0.0
  0
LINE
  5
82
330
1B
100
AcDbEntity
  8
4
100
AcDbLine
 10
800.7907419865837
 20
120.5433276735153
 30
0.0
 11
570.7907419865837
 21
120.5433276735153
 31
0.0
  0
LINE
  5
83
330
1B
100
AcDbEntity
  8
L-CENTER
 48
3.0
100
AcDbLine
 10
604.3808319865839
 20
505.481653199429
 30
0.0
 11
604.3808319865839
 21
98.14464821232787
 31
0.0
  0
LINE
  5
84
330
1B
100
AcDbEntity
  8
4
100
AcDbLine
 10
395.7907419865833
 20
312.5433276735153
 30
0.0
 11
395.7907419865833
 21
125.5433276735153
 31
0.0
  0
LINE
  5
85
330
1B
100
AcDbEntity
  8
4
100
AcDbLine
 10
433.7907419865837
 20
96.54332767351548
 30
0.0
 11
567.7907419865833
 21
96.54332767351548
 31
0.0
  0
LINE
  5
86
330
1B
100
AcDbEntity
  8
4
100
AcDbLine
 10
430.7907419865833
 20
61.54332767351548
 30
0.0
 11
570.7907419865837
 21
61.54332767351548
 31
0.0
  0
LINE
  5
87
330
1B
100
AcDbEntity
  8
4
100
AcDbLine
 10
380.8907419865833
 20
254.0433276735155
 30
0.0
 11
380.8907419865833
 21
129.0433276735153
 31
0.0
  0
LINE
  5
88
330
1B
100
AcDbEntity
  8
4
100
AcDbLine
 10
390.7907419865833
 20
129.0433276735153
 30
0.0
 11
390.7907419865833
 21
254.0433276735155
 31
0.0
  0
LINE
  5
89
330
1B
100
AcDbEntity
  8
2
100
AcDbLine
 10
390.4907419865833
 20
129.0433276735153
 30
0.0
 11
390.4907419865833
 21
254.0433276735155
 31
0.0
  0
LINE
  5
8A
330
1B
100
AcDbEntity
  8
4
100
AcDbLine
 10
442.7907419865833
 20
120.5433276735153
 30
0.0
 11
400.7907419865833
 21
120.5433276735153
 31
0.0
  0
ARC
  5
8B
330
1B
100
AcDbEntity
  8
4
100
AcDbCircle
 10
400.7907419865833
 20
125.5433276735153
 30
0.0
 40
5.0
100
AcDbArc
 50
180.0
 51
270.0
  0
LINE
  5
8C
330
1B
100
AcDbEntity
  8
4
100
AcDbLine
 10
380.8907419865833
 20
129.0433276735153
 30
0.0
 11
395.7907419865833
 21
129.0433276735153
 31
0.0
  0
ARC
  5
8D
330
1B
100
AcDbEntity
  8
4
100
AcDbCircle
 10
442.7907419865833
 20
108.5433276735153
 30
0.0
 40
12.0
100
AcDbArc
 50
0.0
 51
90.0
  0
ARC
  5
8E
330
1B
100
AcDbEntity
  8
4
100
AcDbCircle
 10
442.7907419865833
 20
108.5433276735153
 30
0.0
 40
12.0
100
AcDbArc
 50
270.0
 51
0.0
  0
ARC
  5
8F
330
1B
100
AcDbEntity
  8
4
100
AcDbCircle
 10
433.7907419865837
 20
93.54332767351548
 30
0.0
 40
3.0
100
AcDbArc
 50
90.0
 51
180.0
  0
LINE
  5
90
330
1B
100
AcDbEntity
  8
4
100
AcDbLine
 10
430.7907419865833
 20
93.54332767351548
 30
0.0
 11
430.7907419865833
 21
61.54332767351548
 31
0.0
  0
LINE
  5
91
330
1B
100
AcDbEntity
  8
4
100
AcDbLine
 10
380.8907419865833
 20
254.0433276735155
 30
0.0
 11
395.7907419865833
 21
254.0433276735155
 31
0.0
  0
LINE
  5
92
330
1B
100
AcDbEntity
  8
L-CENTER
 48
3.0
100
AcDbLine
 10
475.7907419865833
 20
41.54332767351548
 30
0.0
 11
475.7907419865833
 21
116.5433276735155
 31
0.0
  0
ARC
  5
93
330
1B
100
AcDbEntity
  8
4
100
AcDbCircle
 10
545.7907419865837
 20
186.5433276735153
 30
0.0
 40
5.0
100
AcDbArc
 50
0.0
 51
90.0
  0
ARC
  5
94
330
1B
100
AcDbEntity
  8
4
100
AcDbCircle
 10
540.7907419865837
 20
106.5433276735153
 30
0.0
 40
10.0
100
AcDbArc
 50
270.0
 51
0.0
  0
LINE
  5
95
330
1B
100
AcDbEntity
  8
4
100
AcDbLine
 10
570.7907419865837
 20
186.5433276735153
 30
0.0
 11
570.7907419865837
 21
61.54332767351548
 31
0.0
  0
LINE
  5
96
330
1B
100
AcDbEntity
  8
4
100
AcDbLine
 10
550.7907419865837
 20
186.5433276735153
 30
0.0
 11
550.7907419865837
 21
106.5433276735153
 31
0.0
  0
ARC
  5
97
330
1B
100
AcDbEntity
  8
4
100
AcDbCircle
 10
567.7907419865833
 20
93.54332767351548
 30
0.0
 40
3.0
100
AcDbArc
 50
0.0
 51
90.0
  0
ARC
  5
98
330
1B
100
AcDbEntity
  8
4
100
AcDbCircle
 10
575.7907419865837
 20
186.5433276735153
 30
0.0
 40
5.0
100
AcDbArc
 50
90.0
 51
180.0
  0
LINE
  5
99
330
1B
100
AcDbEntity
  8
4
100
AcDbLine
 10
410.7907419865833
 20
314.5433276735153
 30
0.0
 11
410.7907419865833
 21
337.8433276735152
 31
0.0
  0
LINE
  5
9A
330
1B
100
AcDbEntity
  8
4
100
AcDbLine
 10
509.3808319865839
 20
339.8433276735152
 30
0.0
 11
509.3808319865839
 21
356.7433276735152
 31
0.0
  0
ARC
  5
9B
330
1B
100
AcDbEntity
  8
4
100
AcDbCircle
 10
604.3808319865839
 20
396.5433276735155
 30
0.0
 40
10.0
100
AcDbArc
 50
180.0
 51
270.0
  0
ARC
  5
9C
330
1B
100
AcDbEntity
  8
4
100
AcDbCircle
 10
604.3808319865839
 20
396.5433276735155
 30
0.0
 40
10.0
100
AcDbArc
 50
270.0
 51
0.0
  0
LINE
  5
9D
330
1B
100
AcDbEntity
  8
4
100
AcDbLine
 10
566.3808319865839
 20
371.5433276735155
 30
0.0
 11
566.3808319865839
 21
495.5433276735155
 31
0.0
  0
LINE
  5
9E
330
1B
100
AcDbEntity
  8
4
100
AcDbLine
 10
564.3808319865839
 20
358.7433276735154
 30
0.0
 11
564.3808319865839
 21
371.5433276735155
 31
0.0
  0
LINE
  5
9F
330
1B
100
AcDbEntity
  8
4
100
AcDbLine
 10
566.3808319865839
 20
495.5433276735155
 30
0.0
 11
594.3808319865839
 21
495.5433276735155
 31
0.0
  0
LINE
  5
A0
330
1B
100
AcDbEntity
  8
4
100
AcDbLine
 10
567.3808319865839
 20
496.5433276735155
 30
0.0
 11
566.3808319865839
 21
495.5433276735155
 31
0.0
  0
LINE
  5
A1
330
1B
100
AcDbEntity
  8
4
100
AcDbLine
 10
614.3808319865839
 20
496.5433276735155
 30
0.0
 11
614.3808319865839
 21
396.5433276735155
 31
0.0
  0
LINE
  5
A2
330
1B
100
AcDbEntity
  8
4
100
AcDbLine
 10
594.3808319865839
 20
496.5433276735155
 30
0.0
 11
594.3808319865839
 21
396.5433276735155
 31
0.0
  0
LINE
  5
A3
330
1B
100
AcDbEntity
  8
L-CENTER
 48
3.0
100
AcDbLine
 10
685.7907419865837
 20
410.1933313550699
 30
0.0
 11
685.7907419865837
 21
98.14464821232787
 31
0.0
  0
LINE
  5
A4
330
1B
100
AcDbEntity
  8
L-CENTER
 48
3.0
100
AcDbLine
 10
795.7907419865837
 20
379.5687176735155
 30
0.0
 11
795.7907419865837
 21
98.14464821232798
 31
0.0
  0
LINE
  5
A5
330
1B
100
AcDbEntity
  8
4
100
AcDbLine
 10
975.7907419865833
 20
312.5433276735153
 30
0.0
 11
975.7907419865833
 21
125.5433276735153
 31
0.0
  0
LINE
  5
A6
330
1B
100
AcDbEntity
  8
4
100
AcDbLine
 10
937.7907419865837
 20
96.54332767351548
 30
0.0
 11
803.7907419865837
 21
96.54332767351548
 31
0.0
  0
LINE
  5
A7
330
1B
100
AcDbEntity
  8
4
100
AcDbLine
 10
940.7907419865833
 20
61.54332767351548
 30
0.0
 11
800.7907419865837
 21
61.54332767351548
 31
0.0
  0
LINE
  5
A8
330
1B
100
AcDbEntity
  8
4
100
AcDbLine
 10
716.7907419865837
 20
103.6433276735153
 30
0.0
 11
800.7907419865837
 21
103.6433276735153
 31
0.0
  0
LINE
  5
A9
330
1B
100
AcDbEntity
  8
4
100
AcDbLine
 10
715.7907419865837
 20
115.5433276735153
 30
0.0
 11
800.7907419865837
 21
115.5433276735153
 31
0.0
  0
LINE
  5
AA
330
1B
100
AcDbEntity
  8
4
100
AcDbLine
 10
715.7907419865837
 20
104.6433276735153
 30
0.0
 11
715.7907419865837
 21
120.5433276735153
 31
0.0
  0
LINE
  5
AB
330
1B
100
AcDbEntity
  8
4
100
AcDbLine
 10
699.3808319865839
 20
104.6433276735153
 30
0.0
 11
699.3808319865839
 21
120.5433276735153
 31
0.0
  0
LINE
  5
AC
330
1B
100
AcDbEntity
  8
4
100
AcDbLine
 10
800.7907419865837
 20
186.5433276735153
 30
0.0
 11
800.7907419865837
 21
61.54332767351548
 31
0.0
  0
ARC
  5
AD
330
1B
100
AcDbEntity
  8
4
100
AcDbCircle
 10
803.7907419865837
 20
93.54332767351548
 30
0.0
 40
3.0
100
AcDbArc
 50
90.0
 51
180.0
  0
ARC
  5
AE
330
1B
100
AcDbEntity
  8
4
100
AcDbCircle
 10
795.7907419865837
 20
186.5433276735153
 30
0.0
 40
5.0
100
AcDbArc
 50
0.0
 51
90.0
  0
LINE
  5
AF
330
1B
100
AcDbEntity
  8
L-CENTER
 48
3.0
100
AcDbLine
 10
895.7907419865833
 20
41.54332767351548
 30
0.0
 11
895.7907419865833
 21
116.5433276735155
 31
0.0
  0
LINE
  5
B0
330
1B
100
AcDbEntity
  8
4
100
AcDbLine
 10
820.7907419865837
 20
186.5433276735153
 30
0.0
 11
820.7907419865837
 21
106.5433276735153
 31
0.0
  0
ARC
  5
B1
330
1B
100
AcDbEntity
  8
4
100
AcDbCircle
 10
830.7907419865837
 20
106.5433276735153
 30
0.0
 40
10.0
100
AcDbArc
 50
180.0
 51
270.0
  0
ARC
  5
B2
330
1B
100
AcDbEntity
  8
4
100
AcDbCircle
 10
825.7907419865837
 20
186.5433276735153
 30
0.0
 40
5.0
100
AcDbArc
 50
90.0
 51
180.0
  0
LINE
  5
B3
330
1B
100
AcDbEntity
  8
4
100
AcDbLine
 10
928.7907419865837
 20
120.5433276735153
 30
0.0
 11
970.7907419865833
 21
120.5433276735153
 31
0.0
  0
ARC
  5
B4
330
1B
100
AcDbEntity
  8
4
100
AcDbCircle
 10
928.7907419865837
 20
108.5433276735153
 30
0.0
 40
12.0
100
AcDbArc
 50
90.0
 51
180.0
  0
ARC
  5
B5
330
1B
100
AcDbEntity
  8
4
100
AcDbCircle
 10
928.7907419865837
 20
108.5433276735153
 30
0.0
 40
12.0
100
AcDbArc
 50
180.0
 51
270.0
  0
ARC
  5
B6
330
1B
100
AcDbEntity
  8
4
100
AcDbCircle
 10
937.7907419865837
 20
93.54332767351548
 30
0.0
 40
3.0
100
AcDbArc
 50
0.0
 51
90.0
  0
LINE
  5
B7
330
1B
100
AcDbEntity
  8
4
100
AcDbLine
 10
940.7907419865833
 20
93.54332767351548
 30
0.0
 11
940.7907419865833
 21
61.54332767351548
 31
0.0
  0
LINE
  5
B8
330
1B
100
AcDbEntity
  8
4
100
AcDbLine
 10
715.7907419865837
 20
345.8433276735152
 30
0.0
 11
804.8210868719807
 21
345.8433276735152
 31
0.0
  0
LINE
  5
B9
330
1B
100
AcDbEntity
  8
2
100
AcDbLine
 10
715.7907419865837
 20
346.1433276735152
 30
0.0
 11
804.8210868719807
 21
346.1433276735152
 31
0.0
  0
LINE
  5
BA
330
1B
100
AcDbEntity
  8
4
100
AcDbLine
 10
826.7603971011858
 20
345.8433276735152
 30
0.0
 11
875.7907419865837
 21
345.8433276735152
 31
0.0
  0
LINE
  5
BB
330
1B
100
AcDbEntity
  8
2
100
AcDbLine
 10
826.7603971011858
 20
346.1433276735152
 30
0.0
 11
875.7907419865837
 21
346.1433276735152
 31
0.0
  0
LINE
  5
BC
330
1B
100
AcDbEntity
  8
4
100
AcDbLine
 10
716.7907419865837
 20
357.7433276735152
 30
0.0
 11
874.7907419865837
 21
357.7433276735152
 31
0.0
  0
LINE
  5
BD
330
1B
100
AcDbEntity
  8
4
100
AcDbLine
 10
679.5407419865837
 20
343.4915226735154
 30
0.0
 11
679.5407419865837
 21
392.7415226735154
 31
0.0
  0
LINE
  5
BE
330
1B
100
AcDbEntity
  8
4
100
AcDbLine
 10
692.0407419865837
 20
343.4915226735154
 30
0.0
 11
692.0407419865837
 21
392.7415226735154
 31
0.0
  0
LINE
  5
BF
330
1B
100
AcDbEntity
  8
4
100
AcDbLine
 10
642.3808319865834
 20
371.5433276735155
 30
0.0
 11
642.3808319865834
 21
495.5433276735155
 31
0.0
  0
LINE
  5
C0
330
1B
100
AcDbEntity
  8
L-CENTER
 48
5.0
100
AcDbLine
 10
671.382777523223
 20
368.9915226735154
 30
0.0
 11
700.198706449944
 21
368.9915226735154
 31
0.0
  0
ARC
  5
C1
330
1B
100
AcDbEntity
  8
4
100
AcDbCircle
 10
677.5407419865837
 20
343.4915226735154
 30
0.0
 40
2.0
100
AcDbArc
 50
270.0
 51
0.0
  0
LINE
  5
C2
330
1B
100
AcDbEntity
  8
4
100
AcDbLine
 10
671.3674019865839
 20
349.9915226735154
 30
0.0
 11
679.5407419865837
 21
349.9915226735154
 31
0.0
  0
LINE
  5
C3
330
1B
100
AcDbEntity
  8
4
100
AcDbLine
 10
679.5407419865837
 20
350.8416226735153
 30
0.0
 11
671.3674019865839
 21
349.9915226735154
 31
0.0
  0
LINE
  5
C4
330
1B
100
AcDbEntity
  8
4
100
AcDbLine
 10
644.3808319865839
 20
371.5433276735155
 30
0.0
 11
644.3808319865839
 21
358.7433276735155
 31
0.0
  0
LINE
  5
C5
330
1B
100
AcDbEntity
  8
4
100
AcDbLine
 10
670.8353967021562
 20
339.8433276735152
 30
0.0
 11
671.3674019865839
 21
349.9915226735154
 31
0.0
  0
LINE
  5
C6
330
1B
100
AcDbEntity
  8
4
100
AcDbLine
 10
692.0407419865837
 20
357.7433276735152
 30
0.0
 11
698.3808319865839
 21
357.7433276735152
 31
0.0
  0
LINE
  5
C7
330
1B
100
AcDbEntity
  8
4
100
AcDbLine
 10
692.0407419865837
 20
349.9915226735154
 30
0.0
 11
700.2143269865837
 21
349.9915226735154
 31
0.0
  0
LINE
  5
C8
330
1B
100
AcDbEntity
  8
4
100
AcDbLine
 10
692.0407419865837
 20
350.8416226735153
 30
0.0
 11
700.2143269865837
 21
349.9915226735154
 31
0.0
  0
ARC
  5
C9
330
1B
100
AcDbEntity
  8
4
100
AcDbCircle
 10
694.0407419865837
 20
343.4915226735154
 30
0.0
 40
2.0
100
AcDbArc
 50
180.0
 51
270.0
  0
LINE
  5
CA
330
1B
100
AcDbEntity
  8
4
100
AcDbLine
 10
715.7907419865837
 20
339.8433276735152
 30
0.0
 11
715.7907419865837
 21
356.7433276735152
 31
0.0
  0
LINE
  5
CB
330
1B
100
AcDbEntity
  8
4
100
AcDbLine
 10
700.7461062430311
 20
339.8433276735152
 30
0.0
 11
700.2143269865837
 21
349.9915226735154
 31
0.0
  0
LINE
  5
CC
330
1B
100
AcDbEntity
  8
4
100
AcDbLine
 10
699.3808319865839
 20
356.8433276735154
 30
0.0
 11
699.3808319865839
 21
356.8433276735152
 31
0.0
  0
LINE
  5
CD
330
1B
100
AcDbEntity
  8
4
100
AcDbLine
 10
641.3808319865839
 20
496.5433276735155
 30
0.0
 11
642.3808319865834
 21
495.5433276735155
 31
0.0
  0
ARC
  5
CE
330
1B
100
AcDbEntity
  8
4
100
AcDbCircle
 10
685.7907419865837
 20
392.7415226735154
 30
0.0
 40
6.25
100
AcDbArc
 50
0.0
 51
180.0
  0
LINE
  5
CF
330
1B
100
AcDbEntity
  8
4
100
AcDbLine
 10
875.7907419865837
 20
339.8433276735152
 30
0.0
 11
875.7907419865837
 21
356.7433276735152
 31
0.0
  0
LINE
  5
D0
330
1B
100
AcDbEntity
  8
4
100
AcDbLine
 10
960.7907419865833
 20
314.5433276735153
 30
0.0
 11
960.7907419865833
 21
337.8433276735152
 31
0.0
  0
LINE
  5
D1
330
1B
100
AcDbEntity
  8
4
100
AcDbLine
 10
1821.012223903334
 20
317.5433276735153
 30
0.0
 11
1271.012223903334
 21
317.5433276735153
 31
0.0
  0
LINE
  5
D2
330
1B
100
AcDbEntity
  8
2
100
AcDbLine
 10
1821.012223903334
 20
317.8433276735152
 30
0.0
 11
1271.012223903334
 21
317.8433276735152
 31
0.0
  0
LINE
  5
D3
330
1B
100
AcDbEntity
  8
4
100
AcDbLine
 10
1819.012223903334
 20
339.8433276735152
 30
0.0
 11
1273.012223903334
 21
339.8433276735152
 31
0.0
  0
LINE
  5
D4
330
1B
100
AcDbEntity
  8
4
100
AcDbLine
 10
1258.012223903334
 20
314.5433276735153
 30
0.0
 11
1834.012223903334
 21
314.5433276735153
 31
0.0
  0
LINE
  5
D5
330
1B
100
AcDbEntity
  8
4
100
AcDbLine
 10
1642.012223903334
 20
345.8433276735152
 30
0.0
 11
1556.981879017937
 21
345.8433276735152
 31
0.0
  0
LINE
  5
D6
330
1B
100
AcDbEntity
  8
2
100
AcDbLine
 10
1642.012223903334
 20
346.1433276735152
 30
0.0
 11
1556.981879017937
 21
346.1433276735152
 31
0.0
  0
LINE
  5
D7
330
1B
100
AcDbEntity
  8
4
100
AcDbLine
 10
1535.042568788731
 20
345.8433276735152
 30
0.0
 11
1452.012223903334
 21
345.8433276735152
 31
0.0
  0
LINE
  5
D8
330
1B
100
AcDbEntity
  8
2
100
AcDbLine
 10
1535.042568788731
 20
346.1433276735152
 30
0.0
 11
1452.012223903334
 21
346.1433276735152
 31
0.0
  0
LINE
  5
D9
330
1B
100
AcDbEntity
  8
4
100
AcDbLine
 10
1641.012226432195
 20
357.7433276735152
 30
0.0
 11
1453.012223903334
 21
357.7433276735152
 31
0.0
  0
LINE
  5
DA
330
1B
100
AcDbEntity
  8
4
100
AcDbLine
 10
1551.012223903334
 20
254.1224326735155
 30
0.0
 11
1648.527118903334
 21
254.1224326735155
 31
0.0
  0
LINE
  5
DB
330
1B
100
AcDbEntity
  8
4
100
AcDbLine
 10
1551.012223903334
 20
128.9642276735153
 30
0.0
 11
1648.527118903334
 21
128.9642276735153
 31
0.0
  0
LINE
  5
DC
330
1B
100
AcDbEntity
  8
L-CENTER
 48
3.0
100
AcDbLine
 10
1785.963458009076
 20
191.5433276735153
 30
0.0
 11
1628.060989797593
 21
191.5433276735153
 31
0.0
  0
LINE
  5
DD
330
1B
100
AcDbEntity
  8
4
100
AcDbLine
 10
1402.012223903334
 20
120.5433276735153
 30
0.0
 11
1690.012223903334
 21
120.5433276735153
 31
0.0
  0
LINE
  5
DE
330
1B
100
AcDbEntity
  8
4
100
AcDbLine
 10
1640.012223903334
 20
103.6433276735153
 30
0.0
 11
1452.012223903334
 21
103.6433276735153
 31
0.0
  0
LINE
  5
DF
330
1B
100
AcDbEntity
  8
4
100
AcDbLine
 10
1641.012223903334
 20
115.5433276735153
 30
0.0
 11
1451.012223903334
 21
115.5433276735153
 31
0.0
  0
LINE
  5
E0
330
1B
100
AcDbEntity
  8
4
100
AcDbLine
 10
1389.012223903334
 20
96.54332767351548
 30
0.0
 11
1252.012223903334
 21
96.54332767351548
 31
0.0
  0
LINE
  5
E1
330
1B
100
AcDbEntity
  8
4
100
AcDbLine
 10
1252.012223903334
 20
61.54332767351548
 30
0.0
 11
1392.012223903334
 21
61.54332767351548
 31
0.0
  0
LINE
  5
E2
330
1B
100
AcDbEntity
  8
4
100
AcDbLine
 10
1286.589863903334
 20
191.5433276735153
 30
0.0
 11
1252.012223903334
 21
96.5425976735155
 31
0.0
  0
LINE
  5
E3
330
1B
100
AcDbEntity
  8
4
100
AcDbLine
 10
1256.012223903334
 20
107.5323426735154
 30
0.0
 11
1256.012223903334
 21
312.5433276735153
 31
0.0
  0
LINE
  5
E8
330
1B
100
AcDbEntity
  8
4
100
AcDbLine
 10
990.6907419865832
 20
129.0433276735153
 30
0.0
 11
990.6907419865832
 21
254.0433276735155
 31
0.0
  0
LINE
  5
E9
330
1B
100
AcDbEntity
  8
4
100
AcDbLine
 10
980.7907419865833
 20
129.0433276735153
 30
0.0
 11
980.7907419865833
 21
254.0433276735155
 31
0.0
  0
LINE
  5
EA
330
1B
100
AcDbEntity
  8
2
100
AcDbLine
 10
981.0907419865832
 20
129.0433276735153
 30
0.0
 11
981.0907419865832
 21
254.0433276735155
 31
0.0
  0
LINE
  5
F5
330
1B
100
AcDbEntity
  8
4
100
AcDbLine
 10
1252.012223903334
 20
96.54332767351548
 30
0.0
 11
1252.012223903334
 21
61.54332767351548
 31
0.0
  0
LINE
  5
F6
330
1B
100
AcDbEntity
  8
4
100
AcDbLine
 10
1271.012223903334
 20
314.5433276735153
 30
0.0
 11
1271.012223903334
 21
337.8433276735152
 31
0.0
  0
LINE
  5
F7
330
1B
100
AcDbEntity
  8
L-CENTER
 48
3.0
100
AcDbLine
 10
1546.012223903334
 20
98.14464821232787
 30
0.0
 11
1546.012223903334
 21
364.6693076735155
 31
0.0
  0
LINE
  5
F8
330
1B
100
AcDbEntity
  8
L-CENTER
 48
3.0
100
AcDbLine
 10
1532.012223903334
 20
98.14464821232787
 30
0.0
 11
1532.012223903334
 21
364.9510426735155
 31
0.0
  0
LINE
  5
F9
330
1B
100
AcDbEntity
  8
L-CENTER
 48
3.0
100
AcDbLine
 10
1547.012223903334
 20
98.14464821232787
 30
0.0
 11
1547.012223903334
 21
505.481653199429
 31
0.0
  0
LINE
  5
FA
330
1B
100
AcDbEntity
  8
L-CENTER
 48
3.0
100
AcDbLine
 10
1287.012223903334
 20
41.54332767351548
 30
0.0
 11
1287.012223903334
 21
116.5433276735155
 31
0.0
  0
ARC
  5
FB
330
1B
100
AcDbEntity
  8
4
100
AcDbCircle
 10
1402.012223903334
 20
110.5433276735153
 30
0.0
 40
10.0
100
AcDbArc
 50
90.0
 51
180.0
  0
ARC
  5
FC
330
1B
100
AcDbEntity
  8
4
100
AcDbCircle
 10
1389.012223903334
 20
93.54332767351548
 30
0.0
 40
3.0
100
AcDbArc
 50
0.0
 51
90.0
  0
LINE
  5
FD
330
1B
100
AcDbEntity
  8
4
100
AcDbLine
 10
1392.012223903334
 20
110.5433276735153
 30
0.0
 11
1392.012223903334
 21
61.54332767351548
 31
0.0
  0
LINE
  5
FE
330
1B
100
AcDbEntity
  8
4
100
AcDbLine
 10
1451.012223903334
 20
117.5433276735153
 30
0.0
 11
1451.012223903334
 21
104.6433276735153
 31
0.0
  0
ARC
  5
FF
330
1B
100
AcDbEntity
  8
4
100
AcDbCircle
 10
1448.012223903334
 20
117.5433276735153
 30
0.0
 40
3.0
100
AcDbArc
 50
0.0
 51
90.0
  0
LINE
  5
105
330
1B
100
AcDbEntity
  8
L-CENTER
 48
3.0
100
AcDbLine
 10
1486.050553903334
 20
89.04248779341128
 30
0.0
 11
1486.050553903334
 21
136.4287507882091
 31
0.0
  0
LINE
  5
10D
330
1B
100
AcDbEntity
  8
L-CENTER
 48
3.0
100
AcDbLine
 10
1577.974383903334
 20
89.04248779341128
 30
0.0
 11
1577.974383903334
 21
136.4287507882091
 31
0.0
  0
ARC
  5
112
330
1B
100
AcDbEntity
  8
4
100
AcDbCircle
 10
1551.012223903334
 20
123.9642276735153
 30
0.0
 40
5.0
100
AcDbArc
 50
90.0
 51
180.0
  0
LINE
  5
113
330
1B
100
AcDbEntity
  8
4
100
AcDbLine
 10
1612.012223903334
 20
117.5433276735153
 30
0.0
 11
1612.012223903334
 21
104.6433276735153
 31
0.0
  0
LINE
  5
118
330
1B
100
AcDbEntity
  8
L-CENTER
 48
3.0
100
AcDbLine
 10
1605.348648903334
 20
89.04248779341128
 30
0.0
 11
1605.348648903334
 21
136.4287507882091
 31
0.0
  0
ARC
  5
120
330
1B
100
AcDbEntity
  8
4
100
AcDbCircle
 10
1615.012223903334
 20
117.5433276735153
 30
0.0
 40
3.0
100
AcDbArc
 50
90.0
 51
180.0
  0
ARC
  5
121
330
1B
100
AcDbEntity
  8
4
100
AcDbCircle
 10
1551.012223903334
 20
259.1224326735155
 30
0.0
 40
5.0
100
AcDbArc
 50
180.0
 51
270.0
  0
LINE
  5
122
330
1B
100
AcDbEntity
  8
L-CENTER
 48
3.0
100
AcDbLine
 10
1331.012223903334
 20
410.1933313550699
 30
0.0
 11
1331.012223903334
 21
320.0300976735155
 31
0.0
  0
ARC
  5
123
330
1B
100
AcDbEntity
  8
4
100
AcDbCircle
 10
1331.012223903334
 20
368.9915226735154
 30
0.0
 40
30.0
100
AcDbArc
 50
299.550384
 51
225.2074449416087
  0
LINE
  5
124
330
1B
100
AcDbEntity
  8
L-CENTER
 48
3.0
100
AcDbLine
 10
1372.214032584889
 20
368.9915226735154
 30
0.0
 11
1289.81041522178
 21
368.9915226735154
 31
0.0
  0
LINE
  5
125
330
1B
100
AcDbEntity
  8
4
100
AcDbLine
 10
1324.779465989132
 20
350.8433276735152
 30
0.0
 11
1331.012223903334
 21
351.4915226735154
 31
0.0
  0
LINE
  5
126
330
1B
100
AcDbEntity
  8
4
100
AcDbLine
 10
1331.497022470962
 20
349.9915226735154
 30
0.0
 11
1345.435808903334
 21
349.9915226735154
 31
0.0
  0
CIRCLE
  5
127
330
1B
100
AcDbEntity
  8
4
100
AcDbCircle
 10
1331.012223903334
 20
368.9915226735154
 30
0.0
 40
17.5
  0
LINE
  5
128
330
1B
100
AcDbEntity
  8
4
100
AcDbLine
 10
1345.967588159782
 20
339.8433276735152
 30
0.0
 11
1345.435808903334
 21
349.9915226735154
 31
0.0
  0
LINE
  5
129
330
1B
100
AcDbEntity
  8
4
100
AcDbLine
 10
1331.012223903334
 20
351.4915226735154
 30
0.0
 11
1345.435808903334
 21
349.9915226735154
 31
0.0
  0
LINE
  5
12A
330
1B
100
AcDbEntity
  8
4
100
AcDbLine
 10
1452.012223903334
 20
339.8433276735152
 30
0.0
 11
1452.012223903334
 21
356.7433276735152
 31
0.0
  0
LINE
  5
12B
330
1B
100
AcDbEntity
  8
4
100
AcDbLine
 10
1509.012223903334
 20
495.5433276735155
 30
0.0
 11
1585.012223903334
 21
495.5433276735155
 31
0.0
  0
LINE
  5
12C
330
1B
100
AcDbEntity
  8
4
100
AcDbLine
 10
1584.012223903334
 20
496.5433276735155
 30
0.0
 11
1503.012223903334
 21
496.5433276735155
 31
0.0
  0
LINE
  5
12D
330
1B
100
AcDbEntity
  8
4
100
AcDbLine
 10
1587.012223903334
 20
371.5433276735155
 30
0.0
 11
1507.012223903334
 21
371.5433276735155
 31
0.0
  0
LINE
  5
12E
330
1B
100
AcDbEntity
  8
4
100
AcDbLine
 10
1495.865237702442
 20
358.7433276735155
 30
0.0
 11
1568.159210104227
 21
358.7433276735154
 31
0.0
  0
LINE
  5
12F
330
1B
100
AcDbEntity
  8
4
100
AcDbLine
 10
1503.012223903334
 20
496.5433276735155
 30
0.0
 11
1503.012223903334
 21
386.5433276735155
 31
0.0
  0
LINE
  5
130
330
1B
100
AcDbEntity
  8
4
100
AcDbLine
 10
1509.012223903334
 20
371.5433276735155
 30
0.0
 11
1509.012223903334
 21
495.5433276735155
 31
0.0
  0
LINE
  5
131
330
1B
100
AcDbEntity
  8
4
100
AcDbLine
 10
1509.012223903334
 20
386.5433276735155
 30
0.0
 11
1503.012223903334
 21
386.5433276735155
 31
0.0
  0
LINE
  5
132
330
1B
100
AcDbEntity
  8
4
100
AcDbLine
 10
1507.012223903334
 20
358.7433276735155
 30
0.0
 11
1507.012223903334
 21
371.5433276735155
 31
0.0
  0
LINE
  5
133
330
1B
100
AcDbEntity
  8
4
100
AcDbLine
 10
1510.012223903334
 20
496.5433276735155
 30
0.0
 11
1509.012223903334
 21
495.5433276735155
 31
0.0
  0
LINE
  5
134
330
1B
100
AcDbEntity
  8
4
100
AcDbLine
 10
1585.012223903334
 20
371.5433276735155
 30
0.0
 11
1585.012223903334
 21
495.5433276735155
 31
0.0
  0
LINE
  5
135
330
1B
100
AcDbEntity
  8
4
100
AcDbLine
 10
1595.533578775
 20
358.7433276735154
 30
0.0
 11
1587.789119256674
 21
358.7433276735153
 31
0.0
  0
LINE
  5
136
330
1B
100
AcDbEntity
  8
4
100
AcDbLine
 10
1587.012223903334
 20
366.8514582723581
 30
0.0
 11
1587.012223903334
 21
371.5433276735155
 31
0.0
  0
LINE
  5
137
330
1B
100
AcDbEntity
  8
4
100
AcDbLine
 10
1612.012223903334
 20
356.7433276735152
 30
0.0
 11
1612.012223903334
 21
339.8433276735152
 31
0.0
  0
LINE
  5
138
330
1B
100
AcDbEntity
  8
4
100
AcDbLine
 10
1584.012223903334
 20
496.5433276735155
 30
0.0
 11
1585.012223903334
 21
495.5433276735155
 31
0.0
  0
LINE
  5
139
330
1B
100
AcDbEntity
  8
4
100
AcDbLine
 10
1849.012223903334
 20
288.5433276735155
 30
0.0
 11
1849.012223903334
 21
252.5433276735153
 31
0.0
  0
LINE
  5
13A
330
1B
100
AcDbEntity
  8
4
100
AcDbLine
 10
1840.012223903334
 20
263.5433276735155
 30
0.0
 11
1840.012223903334
 21
287.5433276735153
 31
0.0
  0
LINE
  5
13B
330
1B
100
AcDbEntity
  8
4
100
AcDbLine
 10
1840.012223903334
 20
263.5433276735155
 30
0.0
 11
1840.012223903334
 21
291.5433276735155
 31
0.0
  0
LINE
  5
13C
330
1B
100
AcDbEntity
  8
4
100
AcDbLine
 10
1844.012223903334
 20
288.5433276735155
 30
0.0
 11
1844.012223903334
 21
252.5433276735153
 31
0.0
  0
LINE
  5
13D
330
1B
100
AcDbEntity
  8
4
100
AcDbLine
 10
1842.012223903334
 20
288.5433276735155
 30
0.0
 11
1842.012223903334
 21
252.5433276735153
 31
0.0
  0
LINE
  5
13E
330
1B
100
AcDbEntity
  8
L-CENTER
 48
3.0
100
AcDbLine
 10
1707.012223903334
 20
270.4945617792569
 30
0.0
 11
1707.012223903334
 21
112.5920935677736
 31
0.0
  0
LINE
  5
13F
330
1B
100
AcDbEntity
  8
4
100
AcDbLine
 10
1836.012223903334
 20
154.2408376735154
 30
0.0
 11
1836.012223903334
 21
312.5433276735153
 31
0.0
  0
LINE
  5
140
330
1B
100
AcDbEntity
  8
4
100
AcDbLine
 10
1703.012223903334
 20
96.54332767351548
 30
0.0
 11
1857.012223903334
 21
96.54332767351548
 31
0.0
  0
LINE
  5
141
330
1B
100
AcDbEntity
  8
4
100
AcDbLine
 10
1857.012223903334
 20
61.54332767351548
 30
0.0
 11
1700.012223903334
 21
61.54332767351548
 31
0.0
  0
CIRCLE
  5
144
330
1B
100
AcDbEntity
  8
L-CENTER
 48
3.0
100
AcDbCircle
 10
1707.012223903334
 20
191.5433276735153
 30
0.0
 40
60.0
  0
ARC
  5
145
330
1B
100
AcDbEntity
  8
4
100
AcDbCircle
 10
1707.012223903334
 20
-90.95667232648452
 30
0.0
 40
350.0000449999999
100
AcDbArc
 50
80.380776
 51
90.0
  0
ARC
  5
146
330
1B
100
AcDbEntity
  8
4
100
AcDbCircle
 10
1707.012223903334
 20
-95.95667232648452
 30
0.0
 40
349.99994
100
AcDbArc
 50
81.10419599999996
 51
90.0
  0
ARC
  5
147
330
1B
100
AcDbEntity
  8
4
100
AcDbCircle
 10
1707.012223903334
 20
479.0433276735155
 30
0.0
 40
350.0000449999999
100
AcDbArc
 50
270.00044
 51
278.8962839999999
  0
ARC
  5
148
330
1B
100
AcDbEntity
  8
4
100
AcDbCircle
 10
1707.012223903334
 20
474.0433276735155
 30
0.0
 40
349.99999
100
AcDbArc
 50
270.0004399999999
 51
279.619592
  0
ARC
  5
149
330
1B
100
AcDbEntity
  8
4
100
AcDbCircle
 10
1994.512223903334
 20
191.5433276735153
 30
0.0
 40
349.999995
100
AcDbArc
 50
180.0002000000074
 51
188.895922
  0
ARC
  5
14A
330
1B
100
AcDbEntity
  8
4
100
AcDbCircle
 10
1707.012223903334
 20
474.0433276735155
 30
0.0
 40
349.999945
100
AcDbArc
 50
260.380973
 51
270.0004399999999
  0
ARC
  5
14B
330
1B
100
AcDbEntity
  8
4
100
AcDbCircle
 10
1707.012223903334
 20
479.0433276735155
 30
0.0
 40
349.999965
100
AcDbArc
 50
261.1043999999999
 51
270.0004399999999
  0
LINE
  5
14C
330
1B
100
AcDbEntity
  8
L-CENTER
 48
3.0
100
AcDbLine
 10
1650.443803908587
 20
134.974662678768
 30
0.0
 11
1678.728075156049
 21
163.2589339262306
 31
0.0
  0
LINE
  5
14D
330
1B
100
AcDbEntity
  8
4
100
AcDbLine
 10
1641.012223903334
 20
117.5433276735153
 30
0.0
 11
1641.012223903334
 21
104.6433276735153
 31
0.0
  0
ARC
  5
14E
330
1B
100
AcDbEntity
  8
4
100
AcDbCircle
 10
1653.662128903334
 20
138.1932326735155
 30
0.0
 40
5.000084999999999
100
AcDbArc
 50
188.895697
 51
261.1043160000066
  0
ARC
  5
14F
330
1B
100
AcDbEntity
  8
4
100
AcDbCircle
 10
1644.012223903334
 20
117.5433276735153
 30
0.0
 40
3.0
100
AcDbArc
 50
90.0
 51
180.0
  0
ARC
  5
150
330
1B
100
AcDbEntity
  8
4
100
AcDbCircle
 10
1690.012223903334
 20
110.5433276735153
 30
0.0
 40
10.0
100
AcDbArc
 50
0.0
 51
90.0
  0
ARC
  5
151
330
1B
100
AcDbEntity
  8
4
100
AcDbCircle
 10
1703.012223903334
 20
93.54332767351548
 30
0.0
 40
3.0
100
AcDbArc
 50
90.0
 51
180.0
  0
LINE
  5
152
330
1B
100
AcDbEntity
  8
4
100
AcDbLine
 10
1700.012223903334
 20
110.5433276735153
 30
0.0
 11
1700.012223903334
 21
61.54332767351548
 31
0.0
  0
ARC
  5
153
330
1B
100
AcDbEntity
  8
4
100
AcDbCircle
 10
1707.012223903334
 20
-90.95667232648452
 30
0.0
 40
350.00001
100
AcDbArc
 50
90.0
 51
99.619389
  0
ARC
  5
154
330
1B
100
AcDbEntity
  8
4
100
AcDbCircle
 10
1707.012223903334
 20
-95.95667232648452
 30
0.0
 40
350.00005
100
AcDbArc
 50
90.0
 51
98.89604100000003
  0
LINE
  5
155
330
1B
100
AcDbEntity
  8
L-CENTER
 48
3.0
100
AcDbLine
 10
1650.443816126688
 20
248.1120048862579
 30
0.0
 11
1678.7279433512
 21
219.8275896165778
 31
0.0
  0
ARC
  5
156
330
1B
100
AcDbEntity
  8
4
100
AcDbCircle
 10
1994.512223903334
 20
191.5433276735153
 30
0.0
 40
350.00001
100
AcDbArc
 50
171.104564
 51
180.0002400015275
  0
ARC
  5
157
330
1B
100
AcDbEntity
  8
4
100
AcDbCircle
 10
1653.662128903334
 20
244.8934276735154
 30
0.0
 40
5.000084999999999
100
AcDbArc
 50
98.89568399999341
 51
171.1043030000001
  0
ARC
  5
15C
330
1B
100
AcDbEntity
  8
4
100
AcDbCircle
 10
1424.512223903334
 20
191.5433276735153
 30
0.0
 40
350.0
100
AcDbArc
 50
350.3813410000001
 51
0.0
  0
ARC
  5
15D
330
1B
100
AcDbEntity
  8
4
100
AcDbCircle
 10
1419.512223903334
 20
191.5433276735153
 30
0.0
 40
350.000035
100
AcDbArc
 50
351.1047679999999
 51
0.0
  0
LINE
  5
15E
330
1B
100
AcDbEntity
  8
L-CENTER
 48
3.0
100
AcDbLine
 10
1763.58078208612
 20
134.9748008668666
 30
0.0
 11
1735.296371151356
 21
163.2589324263371
 31
0.0
  0
ARC
  5
15F
330
1B
100
AcDbEntity
  8
4
100
AcDbCircle
 10
1780.946553903334
 20
84.81994267351547
 30
0.0
 40
5.19632
100
AcDbArc
 50
114.6324440000031
 51
205.983582
  0
ARC
  5
160
330
1B
100
AcDbEntity
  8
4
100
AcDbCircle
 10
1780.946553903334
 20
84.81994267351547
 30
0.0
 40
5.19632
100
AcDbArc
 50
114.6324440000031
 51
205.983582
  0
ARC
  5
161
330
1B
100
AcDbEntity
  8
4
100
AcDbCircle
 10
1771.604508903334
 20
80.26671767351536
 30
0.0
 40
5.19632
100
AcDbArc
 50
294.6324289999963
 51
25.98357700000002
  0
ARC
  5
162
330
1B
100
AcDbEntity
  8
4
100
AcDbCircle
 10
1771.604508903334
 20
80.26671767351536
 30
0.0
 40
5.19632
100
AcDbArc
 50
294.6324289999963
 51
25.98357700000002
  0
ARC
  5
163
330
1B
100
AcDbEntity
  8
4
100
AcDbCircle
 10
1775.935808903334
 20
70.81994267351547
 30
0.0
 40
5.19632
100
AcDbArc
 50
114.632443999998
 51
205.983582
  0
ARC
  5
164
330
1B
100
AcDbEntity
  8
4
100
AcDbCircle
 10
1775.935808903334
 20
70.81994267351547
 30
0.0
 40
5.19632
100
AcDbArc
 50
114.632443999998
 51
205.983582
  0
ARC
  5
165
330
1B
100
AcDbEntity
  8
4
100
AcDbCircle
 10
1766.593768903334
 20
66.26671767351536
 30
0.0
 40
5.19632
100
AcDbArc
 50
294.6324290000019
 51
25.98357700000002
  0
ARC
  5
166
330
1B
100
AcDbEntity
  8
4
100
AcDbCircle
 10
1766.593768903334
 20
66.26671767351536
 30
0.0
 40
5.19632
100
AcDbArc
 50
294.6324290000019
 51
25.98357700000002
  0
ARC
  5
167
330
1B
100
AcDbEntity
  8
4
100
AcDbCircle
 10
1776.615008903334
 20
94.26671767351536
 30
0.0
 40
5.19632
100
AcDbArc
 50
294.6324290000019
 51
25.98357700000002
  0
ARC
  5
168
330
1B
100
AcDbEntity
  8
4
100
AcDbCircle
 10
1776.615008903334
 20
94.26671767351536
 30
0.0
 40
5.19632
100
AcDbArc
 50
294.6324290000019
 51
25.98357700000002
  0
ARC
  5
169
330
1B
100
AcDbEntity
  8
4
100
AcDbCircle
 10
1760.362323903334
 20
138.1932326735155
 30
0.0
 40
5.000084999999999
100
AcDbArc
 50
278.8956949999979
 51
351.1043049999994
  0
ARC
  5
16A
330
1B
100
AcDbEntity
  8
4
100
AcDbCircle
 10
1764.661638903335
 20
133.8939126735154
 30
0.0
 40
4.999979999999999
100
AcDbArc
 50
279.6186979999997
 51
350.3813020000003
  0
LINE
  5
16B
330
1B
100
AcDbEntity
  8
L-CENTER
 48
3.0
100
AcDbLine
 10
1763.580766398258
 20
248.1118701684393
 30
0.0
 11
1735.296495150796
 21
219.8275989209767
 31
0.0
  0
ARC
  5
16C
330
1B
100
AcDbEntity
  8
4
100
AcDbCircle
 10
1424.512223903334
 20
191.5433276735153
 30
0.0
 40
350.0000449999999
100
AcDbArc
 50
0.0
 51
9.61922400000002
  0
ARC
  5
16D
330
1B
100
AcDbEntity
  8
4
100
AcDbCircle
 10
1419.512223903334
 20
191.5433276735153
 30
0.0
 40
349.9999350000001
100
AcDbArc
 50
0.0
 51
8.895804000000057
  0
ARC
  5
16E
330
1B
100
AcDbEntity
  8
4
100
AcDbCircle
 10
1760.362323903334
 20
244.8934276735154
 30
0.0
 40
5.000084999999999
100
AcDbArc
 50
8.89569500000057
 51
81.10430500000204
  0
ARC
  5
16F
330
1B
100
AcDbEntity
  8
4
100
AcDbCircle
 10
1764.661638903335
 20
249.1927426735153
 30
0.0
 40
4.999979999999999
100
AcDbArc
 50
9.618697999999712
 51
80.38130200000033
  0
LINE
  5
170
330
1B
100
AcDbEntity
  8
L-CENTER
 48
3.0
100
AcDbLine
 10
1822.012223903334
 20
116.5433276735155
 30
0.0
 11
1822.012223903334
 21
41.54332767351548
 31
0.0
  0
LINE
  5
171
330
1B
100
AcDbEntity
  8
4
100
AcDbLine
 10
1840.012223903334
 20
143.2508476735154
 30
0.0
 11
1840.012223903334
 21
191.5433276735153
 31
0.0
  0
LINE
  5
172
330
1B
100
AcDbEntity
  8
4
100
AcDbLine
 10
1857.012223903334
 20
96.54332767351548
 30
0.0
 11
1822.435318903334
 21
191.5433276735153
 31
0.0
  0
LINE
  5
173
330
1B
100
AcDbEntity
  8
L-CENTER
 48
3.0
100
AcDbLine
 10
1837.514178903334
 20
149.7059276735154
 30
0.0
 11
1848.229023903334
 21
150.0801926735153
 31
0.0
  0
LINE
  5
174
330
1B
100
AcDbEntity
  8
L-CENTER
 48
3.0
100
AcDbLine
 10
1837.514178903334
 20
135.3804876735153
 30
0.0
 11
1848.229023903334
 21
135.0062176735155
 31
0.0
  0
LINE
  5
175
330
1B
100
AcDbEntity
  8
L-CENTER
 48
3.0
100
AcDbLine
 10
1827.236103903334
 20
142.5433276735153
 30
0.0
 11
1851.706274012103
 21
142.5433276735153
 31
0.0
  0
LINE
  5
176
330
1B
100
AcDbEntity
  8
4
100
AcDbLine
 10
1845.662128903334
 20
151.0721376735155
 30
0.0
 11
1840.012223903334
 21
150.8748726735153
 31
0.0
  0
LINE
  5
177
330
1B
100
AcDbEntity
  8
4
100
AcDbLine
 10
1811.012223903334
 20
61.54332767351548
 30
0.0
 11
1811.012223903334
 21
96.54332767351548
 31
0.0
  0
LINE
  5
178
330
1B
100
AcDbEntity
  8
4
100
AcDbLine
 10
1833.012223903334
 20
61.54332767351548
 30
0.0
 11
1833.012223903334
 21
96.54332767351548
 31
0.0
  0
LINE
  5
179
330
1B
100
AcDbEntity
  8
4
100
AcDbLine
 10
1857.012223903334
 20
96.54332767351548
 30
0.0
 11
1857.012223903334
 21
61.54332767351548
 31
0.0
  0
LINE
  5
17A
330
1B
100
AcDbEntity
  8
4
100
AcDbLine
 10
1845.662128903334
 20
134.0142776735154
 30
0.0
 11
1845.662128903334
 21
142.5433276735153
 31
0.0
  0
LINE
  5
17B
330
1B
100
AcDbEntity
  8
4
100
AcDbLine
 10
1845.662128903334
 20
151.0721376735155
 30
0.0
 11
1845.662128903334
 21
142.5430826735155
 31
0.0
  0
LINE
  5
17C
330
1B
100
AcDbEntity
  8
4
100
AcDbLine
 10
1843.344498903334
 20
134.0950876735155
 30
0.0
 11
1845.662128903334
 21
134.0142776735154
 31
0.0
  0
LINE
  5
17D
330
1B
100
AcDbEntity
  8
L-CENTER
 48
3.0
100
AcDbLine
 10
1820.975358903334
 20
270.5433276735155
 30
0.0
 11
1858.317158903334
 21
270.5433276735155
 31
0.0
  0
LINE
  5
17E
330
1B
100
AcDbEntity
  8
4
100
AcDbLine
 10
1842.012223903334
 20
263.5433276735155
 30
0.0
 11
1840.012223903334
 21
263.5433276735155
 31
0.0
  0
LINE
  5
17F
330
1B
100
AcDbEntity
  8
4
100
AcDbLine
 10
1842.012223903334
 20
191.5433276735153
 30
0.0
 11
1840.012223903334
 21
191.5433276735153
 31
0.0
  0
LINE
  5
180
330
1B
100
AcDbEntity
  8
4
100
AcDbLine
 10
1842.012223903334
 20
263.5433276735155
 30
0.0
 11
1842.012223903334
 21
191.5433276735153
 31
0.0
  0
LINE
  5
181
330
1B
100
AcDbEntity
  8
4
100
AcDbLine
 10
1844.012223903334
 20
279.5433276735155
 30
0.0
 11
1849.012223903334
 21
279.5433276735155
 31
0.0
  0
LINE
  5
182
330
1B
100
AcDbEntity
  8
4
100
AcDbLine
 10
1842.012223903334
 20
252.5433276735153
 30
0.0
 11
1849.012223903334
 21
252.5433276735153
 31
0.0
  0
LINE
  5
183
330
1B
100
AcDbEntity
  8
4
100
AcDbLine
 10
1844.012223903334
 20
261.5433276735155
 30
0.0
 11
1849.012223903334
 21
261.5433276735155
 31
0.0
  0
LINE
  5
184
330
1B
100
AcDbEntity
  8
4
100
AcDbLine
 10
1707.012223903334
 20
346.8433276735152
 30
0.0
 11
1657.012223903334
 21
346.8433276735152
 31
0.0
  0
LINE
  5
185
330
1B
100
AcDbEntity
  8
4
100
AcDbLine
 10
1642.012269422883
 20
339.8433276735152
 30
0.0
 11
1642.012226685078
 21
356.7433302023796
 31
0.0
  0
LINE
  5
186
330
1B
100
AcDbEntity
  8
4
100
AcDbLine
 10
1657.012223903334
 20
346.8433276735152
 30
0.0
 11
1657.012223903334
 21
339.8433276735152
 31
0.0
  0
LINE
  5
187
330
1B
100
AcDbEntity
  8
4
100
AcDbLine
 10
1707.012223903334
 20
346.8433276735152
 30
0.0
 11
1707.012223903334
 21
339.8433276735152
 31
0.0
  0
LINE
  5
188
330
1B
100
AcDbEntity
  8
L-CENTER
 48
3.0
100
AcDbLine
 10
1761.012223903334
 20
410.1933313550699
 30
0.0
 11
1761.012223903334
 21
320.0300976735155
 31
0.0
  0
ARC
  5
189
330
1B
100
AcDbEntity
  8
4
100
AcDbCircle
 10
1761.012223903334
 20
368.9915226735154
 30
0.0
 40
30.00005
100
AcDbArc
 50
314.7924602546627
 51
240.4502499999998
  0
LINE
  5
18A
330
1B
100
AcDbEntity
  8
4
100
AcDbLine
 10
1746.588883903334
 20
349.9915226735154
 30
0.0
 11
1760.527425335786
 21
349.9915226735154
 31
0.0
  0
LINE
  5
18B
330
1B
100
AcDbEntity
  8
4
100
AcDbLine
 10
1746.588883903334
 20
349.9915226735154
 30
0.0
 11
1761.012223903334
 21
351.4915226735154
 31
0.0
  0
CIRCLE
  5
18C
330
1B
100
AcDbEntity
  8
4
100
AcDbCircle
 10
1761.012223903334
 20
368.9915226735154
 30
0.0
 40
17.5
  0
LINE
  5
18D
330
1B
100
AcDbEntity
  8
L-CENTER
 48
3.0
100
AcDbLine
 10
1802.214032584889
 20
368.9915226735154
 30
0.0
 11
1719.81041522178
 21
368.9915226735154
 31
0.0
  0
LINE
  5
18E
330
1B
100
AcDbEntity
  8
4
100
AcDbLine
 10
1746.056878618907
 20
339.8433276735152
 30
0.0
 11
1746.588883903334
 21
349.9915226735154
 31
0.0
  0
LINE
  5
18F
330
1B
100
AcDbEntity
  8
4
100
AcDbLine
 10
1775.810490100287
 20
342.8433276734506
 30
0.0
 11
1775.435808903334
 21
349.9915226735154
 31
0.0
  0
LINE
  5
190
330
1B
100
AcDbEntity
  8
4
100
AcDbLine
 10
1761.012223903334
 20
351.4915226735154
 30
0.0
 11
1767.245087689986
 21
350.8433276734528
 31
0.0
  0
LINE
  5
191
330
1B
100
AcDbEntity
  8
4
100
AcDbLine
 10
1842.012223903334
 20
287.5433276735153
 30
0.0
 11
1840.012223903334
 21
287.5433276735153
 31
0.0
  0
LINE
  5
192
330
1B
100
AcDbEntity
  8
4
100
AcDbLine
 10
1821.012223903334
 20
337.8433276735152
 30
0.0
 11
1821.012223903334
 21
314.5433276735153
 31
0.0
  0
LINE
  5
193
330
1B
100
AcDbEntity
  8
4
100
AcDbLine
 10
1840.012223903334
 20
291.5433276735155
 30
0.0
 11
1836.012223903334
 21
291.5433276735155
 31
0.0
  0
LINE
  5
194
330
1B
100
AcDbEntity
  8
4
100
AcDbLine
 10
1842.012223903334
 20
288.5433276735155
 30
0.0
 11
1849.012223903334
 21
288.5433276735155
 31
0.0
  0
LINE
  5
20E
330
1B
100
AcDbEntity
  8
4
100
AcDbLine
 10
940.7907419865833
 20
1275.246530067866
 30
0.0
 11
940.7907419865833
 21
1347.746530067865
 31
0.0
  0
LINE
  5
20F
330
1B
100
AcDbEntity
  8
L-CENTER
 48
3.0
100
AcDbLine
 10
895.7907419865833
 20
1296.746530067866
 30
0.0
 11
895.7907419865833
 21
1348.746530067865
 31
0.0
  0
LINE
  5
210
330
1B
100
AcDbEntity
  8
4
100
AcDbLine
 10
915.7907419865842
 20
1275.246530067866
 30
0.0
 11
778.4296952657378
 21
1321.551960027578
 31
0.0
  0
LINE
  5
211
330
1B
100
AcDbEntity
  8
L-CENTER
 48
3.0
100
AcDbLine
 10
685.7907419865833
 20
744.1076661790903
 30
0.0
 11
685.7907419865833
 21
1356.746530067865
 31
0.0
  0
LINE
  5
212
330
1B
100
AcDbEntity
  8
4
100
AcDbLine
 10
430.7907419865833
 20
1275.246530067866
 30
0.0
 11
430.7907419865833
 21
1347.746530067865
 31
0.0
  0
LINE
  5
213
330
1B
100
AcDbEntity
  8
L-CENTER
 48
3.0
100
AcDbLine
 10
475.7907419865833
 20
1296.746530067866
 30
0.0
 11
475.7907419865833
 21
1348.746530067865
 31
0.0
  0
LINE
  5
214
330
1B
100
AcDbEntity
  8
4
100
AcDbLine
 10
455.7907419865824
 20
1275.246530067866
 30
0.0
 11
593.1517887074288
 21
1321.551960027578
 31
0.0
  0
CIRCLE
  5
215
330
1B
100
AcDbEntity
  8
4
100
AcDbCircle
 10
685.7907419865833
 20
1046.746530067866
 30
0.0
 40
289.9999999999999
  0
LINE
  5
216
330
1B
100
AcDbEntity
  8
L-CENTER
 48
3.0
100
AcDbLine
 10
383.1518780978079
 20
1046.746530067866
 30
0.0
 11
988.4296058753587
 21
1046.746530067866
 31
0.0
  0
LINE
  5
217
330
1B
100
AcDbEntity
  8
L-CENTER
 48
3.0
100
AcDbLine
 10
281.191730481461
 20
1207.746530067866
 30
0.0
 11
997.2638445471028
 21
1207.746530067866
 31
0.0
  0
LINE
  5
218
330
1B
100
AcDbEntity
  8
4
100
AcDbLine
 10
570.7907419865833
 20
762.7465300678662
 30
0.0
 11
570.7907419865833
 21
780.5229398283832
 31
0.0
  0
LINE
  5
219
330
1B
100
AcDbEntity
  8
4
100
AcDbLine
 10
430.7907419865833
 20
762.7465300678662
 30
0.0
 11
430.7907419865833
 21
882.7465300678653
 31
0.0
  0
LINE
  5
21A
330
1B
100
AcDbEntity
  8
L-CENTER
 48
3.0
100
AcDbLine
 10
475.7907419865833
 20
761.7465300678659
 30
0.0
 11
475.7907419865833
 21
813.7465300678659
 31
0.0
  0
LINE
  5
21B
330
1B
100
AcDbEntity
  8
4
100
AcDbLine
 10
550.7907419865833
 20
762.7465300678662
 30
0.0
 11
550.7907419865833
 21
790.0852747136541
 31
0.0
  0
LINE
  5
21C
330
1B
100
AcDbEntity
  8
4
100
AcDbLine
 10
440.7907419865833
 20
752.7465300678664
 30
0.0
 11
560.7907419865833
 21
752.7465300678664
 31
0.0
  0
ARC
  5
21D
330
1B
100
AcDbEntity
  8
4
100
AcDbCircle
 10
440.7907419865833
 20
762.7465300678662
 30
0.0
 40
10.0
100
AcDbArc
 50
180.0
 51
270.0
  0
ARC
  5
21E
330
1B
100
AcDbEntity
  8
4
100
AcDbCircle
 10
560.7907419865833
 20
762.7465300678662
 30
0.0
 40
10.0
100
AcDbArc
 50
270.0
 51
0.0
  0
ARC
  5
21F
330
1B
100
AcDbEntity
  8
4
100
AcDbCircle
 10
540.7907419865833
 20
762.7465300678662
 30
0.0
 40
10.0
100
AcDbArc
 50
270.0
 51
0.0
  0
LINE
  5
220
330
1B
100
AcDbEntity
  8
L-CENTER
 48
3.0
100
AcDbLine
 10
501.7907419865833
 20
787.7465300678659
 30
0.0
 11
449.7907419865833
 21
787.7465300678659
 31
0.0
  0
ARC
  5
221
330
1B
100
AcDbEntity
  8
4
100
AcDbCircle
 10
440.7907419865833
 20
882.7465300678653
 30
0.0
 40
10.0
100
AcDbArc
 50
94.10300112956489
 51
180.0
  0
CIRCLE
  5
222
330
1B
100
AcDbEntity
  8
4
100
AcDbCircle
 10
475.7907419865833
 20
787.7465300678659
 30
0.0
 40
11.0
  0
LINE
  5
223
330
1B
100
AcDbEntity
  8
4
100
AcDbLine
 10
395.7907419865833
 20
1046.746530067866
 30
0.0
 11
395.7907419865837
 21
1273.246530067866
 31
0.0
  0
LINE
  5
224
330
1B
100
AcDbEntity
  8
4
100
AcDbLine
 10
390.7907419865837
 20
1145.246530067866
 30
0.0
 11
390.7907419865837
 21
1270.246530067866
 31
0.0
  0
LINE
  5
225
330
1B
100
AcDbEntity
  8
4
100
AcDbLine
 10
395.7907419865833
 20
1145.246530067866
 30
0.0
 11
390.7907419865837
 21
1145.246530067866
 31
0.0
  0
LINE
  5
226
330
1B
100
AcDbEntity
  8
4
100
AcDbLine
 10
395.7907419865837
 20
1270.246530067866
 30
0.0
 11
390.7907419865837
 21
1270.246530067866
 31
0.0
  0
ARC
  5
227
330
1B
100
AcDbEntity
  8
4
100
AcDbCircle
 10
397.7907419865837
 20
1273.246530067866
 30
0.0
 40
2.0
100
AcDbArc
 50
90.0
 51
180.0
  0
LINE
  5
228
330
1B
100
AcDbEntity
  8
4
100
AcDbLine
 10
455.7907419865819
 20
1275.246530067866
 30
0.0
 11
397.7907419865837
 21
1275.246530067866
 31
0.0
  0
LINE
  5
229
330
1B
100
AcDbEntity
  8
L-CENTER
 48
3.0
100
AcDbLine
 10
795.7907419865833
 20
941.0981458533522
 30
0.0
 11
795.7907419865833
 21
1124.394914282379
 31
0.0
  0
LINE
  5
22A
330
1B
100
AcDbEntity
  8
L-CENTER
 48
3.0
100
AcDbLine
 10
604.3775762951918
 20
1152.750199434794
 30
0.0
 11
604.3775762951918
 21
942.7428607009376
 31
0.0
  0
LINE
  5
22B
330
1B
100
AcDbEntity
  8
4
100
AcDbLine
 10
810.7907419865833
 20
752.7465300678664
 30
0.0
 11
930.7907419865833
 21
752.7465300678657
 31
0.0
  0
LINE
  5
22C
330
1B
100
AcDbEntity
  8
4
100
AcDbLine
 10
800.7907419865833
 20
762.7465300678662
 30
0.0
 11
800.7907419865833
 21
780.5229398283832
 31
0.0
  0
LINE
  5
22D
330
1B
100
AcDbEntity
  8
4
100
AcDbLine
 10
820.7907419865833
 20
762.7465300678662
 30
0.0
 11
820.7907419865833
 21
784.1156103344881
 31
0.0
  0
ARC
  5
22E
330
1B
100
AcDbEntity
  8
4
100
AcDbCircle
 10
810.7907419865833
 20
762.7465300678662
 30
0.0
 40
10.0
100
AcDbArc
 50
180.0
 51
270.0
  0
ARC
  5
22F
330
1B
100
AcDbEntity
  8
4
100
AcDbCircle
 10
830.7907419865833
 20
762.7465300678662
 30
0.0
 40
10.0
100
AcDbArc
 50
180.0
 51
270.0
  0
ARC
  5
230
330
1B
100
AcDbEntity
  8
4
100
AcDbCircle
 10
830.7907419865833
 20
784.1156103344881
 30
0.0
 40
10.0
100
AcDbArc
 50
118.9033345398453
 51
180.0
  0
LINE
  5
231
330
1B
100
AcDbEntity
  8
4
100
AcDbLine
 10
940.7907419865833
 20
762.7465300678657
 30
0.0
 11
940.7907419865833
 21
882.7465300678657
 31
0.0
  0
LINE
  5
232
330
1B
100
AcDbEntity
  8
L-CENTER
 48
3.0
100
AcDbLine
 10
895.7907419865833
 20
761.7465300678659
 30
0.0
 11
895.7907419865833
 21
813.7465300678659
 31
0.0
  0
ARC
  5
233
330
1B
100
AcDbEntity
  8
4
100
AcDbCircle
 10
930.7907419865833
 20
762.7465300678657
 30
0.0
 40
10.0
100
AcDbArc
 50
270.0
 51
0.0
  0
CIRCLE
  5
234
330
1B
100
AcDbEntity
  8
4
100
AcDbCircle
 10
895.7907419865833
 20
787.7465300678659
 30
0.0
 40
11.0
  0
LINE
  5
235
330
1B
100
AcDbEntity
  8
L-CENTER
 48
3.0
100
AcDbLine
 10
869.7907419865833
 20
787.7465300678659
 30
0.0
 11
921.7907419865833
 21
787.7465300678659
 31
0.0
  0
ARC
  5
236
330
1B
100
AcDbEntity
  8
4
100
AcDbCircle
 10
930.7907419865833
 20
882.7465300678657
 30
0.0
 40
10.0
100
AcDbArc
 50
0.0
 51
85.89699887043513
  0
LINE
  5
237
330
1B
100
AcDbEntity
  8
L-CENTER
 48
3.0
100
AcDbLine
 10
704.1423577720698
 20
1032.746530067866
 30
0.0
 11
887.4391262010968
 21
1032.746530067866
 31
0.0
  0
LINE
  5
238
330
1B
100
AcDbEntity
  8
4
100
AcDbLine
 10
975.7907419865833
 20
1046.746530067866
 30
0.0
 11
975.7907419865842
 21
1273.246530067866
 31
0.0
  0
LINE
  5
239
330
1B
100
AcDbEntity
  8
4
100
AcDbLine
 10
980.7907419865833
 20
1145.246530067866
 30
0.0
 11
980.7907419865842
 21
1270.246530067866
 31
0.0
  0
LINE
  5
23A
330
1B
100
AcDbEntity
  8
4
100
AcDbLine
 10
980.7907419865833
 20
1145.246530067866
 30
0.0
 11
975.7907419865833
 21
1145.246530067866
 31
0.0
  0
LINE
  5
23B
330
1B
100
AcDbEntity
  8
4
100
AcDbLine
 10
973.7907419865842
 20
1275.246530067866
 30
0.0
 11
915.7907419865851
 21
1275.246530067866
 31
0.0
  0
LINE
  5
23C
330
1B
100
AcDbEntity
  8
4
100
AcDbLine
 10
980.7907419865842
 20
1270.246530067866
 30
0.0
 11
975.7907419865842
 21
1270.246530067866
 31
0.0
  0
ARC
  5
23D
330
1B
100
AcDbEntity
  8
4
100
AcDbCircle
 10
973.7907419865842
 20
1273.246530067866
 30
0.0
 40
2.0
100
AcDbArc
 50
0.0
 51
90.0
  0
LINE
  5
23E
330
1B
100
AcDbEntity
  8
L-CENTER
 48
3.0
100
AcDbLine
 10
501.7907419865833
 20
1322.746530067865
 30
0.0
 11
449.7907419865833
 21
1322.746530067865
 31
0.0
  0
LINE
  5
23F
330
1B
100
AcDbEntity
  8
4
100
AcDbLine
 10
440.7907419865833
 20
1357.746530067865
 30
0.0
 11
560.7907419865833
 21
1357.746530067865
 31
0.0
  0
ARC
  5
240
330
1B
100
AcDbEntity
  8
4
100
AcDbCircle
 10
440.7907419865833
 20
1347.746530067866
 30
0.0
 40
10.0
100
AcDbArc
 50
90.0
 51
180.0
  0
CIRCLE
  5
241
330
1B
100
AcDbEntity
  8
4
100
AcDbCircle
 10
475.7907419865833
 20
1322.746530067865
 30
0.0
 40
11.0
  0
ARC
  5
242
330
1B
100
AcDbEntity
  8
4
100
AcDbCircle
 10
560.7907419865833
 20
1347.746530067866
 30
0.0
 40
10.0
100
AcDbArc
 50
0.0
 51
90.0
  0
ARC
  5
243
330
1B
100
AcDbEntity
  8
4
100
AcDbCircle
 10
540.7907419865833
 20
1347.746530067865
 30
0.0
 40
10.0
100
AcDbArc
 50
0.0
 51
90.0
  0
ARC
  5
244
330
1B
100
AcDbEntity
  8
4
100
AcDbCircle
 10
540.7907419865833
 20
1314.453582964556
 30
0.0
 40
10.0
100
AcDbArc
 50
288.6293439997949
 51
0.0
  0
LINE
  5
245
330
1B
100
AcDbEntity
  8
4
100
AcDbLine
 10
570.7907419865833
 20
1314.013884951154
 30
0.0
 11
570.7907419865833
 21
1347.746530067865
 31
0.0
  0
LINE
  5
246
330
1B
100
AcDbEntity
  8
4
100
AcDbLine
 10
550.7907419865833
 20
1314.453582964556
 30
0.0
 11
550.7907419865833
 21
1347.746530067865
 31
0.0
  0
LINE
  5
247
330
1B
100
AcDbEntity
  8
4
100
AcDbLine
 10
810.7907419865833
 20
1357.746530067865
 30
0.0
 11
930.7907419865833
 21
1357.746530067865
 31
0.0
  0
LINE
  5
248
330
1B
100
AcDbEntity
  8
4
100
AcDbLine
 10
705.7907419865833
 20
1336.056052897654
 30
0.0
 11
705.7907419865833
 21
1341.746530067865
 31
0.0
  0
LINE
  5
249
330
1B
100
AcDbEntity
  8
4
100
AcDbLine
 10
665.7907419865833
 20
1336.056052897654
 30
0.0
 11
665.7907419865833
 21
1341.746530067865
 31
0.0
  0
LINE
  5
24A
330
1B
100
AcDbEntity
  8
4
100
AcDbLine
 10
665.7907419865833
 20
1341.746530067865
 30
0.0
 11
705.7907419865833
 21
1341.746530067865
 31
0.0
  0
ARC
  5
24B
330
1B
100
AcDbEntity
  8
4
100
AcDbCircle
 10
810.7907419865833
 20
1347.746530067866
 30
0.0
 40
10.0
100
AcDbArc
 50
90.0
 51
180.0
  0
ARC
  5
24C
330
1B
100
AcDbEntity
  8
4
100
AcDbCircle
 10
830.7907419865833
 20
1347.746530067865
 30
0.0
 40
10.0
100
AcDbArc
 50
90.0
 51
180.0
  0
ARC
  5
24D
330
1B
100
AcDbEntity
  8
4
100
AcDbCircle
 10
830.7907419865833
 20
1314.453582964556
 30
0.0
 40
10.0
100
AcDbArc
 50
180.0
 51
251.3706560002045
  0
LINE
  5
24E
330
1B
100
AcDbEntity
  8
4
100
AcDbLine
 10
800.7907419865833
 20
1314.013884951154
 30
0.0
 11
800.7907419865833
 21
1347.746530067865
 31
0.0
  0
LINE
  5
24F
330
1B
100
AcDbEntity
  8
4
100
AcDbLine
 10
820.7907419865833
 20
1314.453582964556
 30
0.0
 11
820.7907419865833
 21
1347.746530067865
 31
0.0
  0
ARC
  5
250
330
1B
100
AcDbEntity
  8
4
100
AcDbCircle
 10
930.7907419865833
 20
1347.746530067865
 30
0.0
 40
10.0
100
AcDbArc
 50
0.0
 51
90.0
  0
LINE
  5
251
330
1B
100
AcDbEntity
  8
L-CENTER
 48
3.0
100
AcDbLine
 10
869.7907419865833
 20
1322.746530067865
 30
0.0
 11
921.7907419865833
 21
1322.746530067865
 31
0.0
  0
CIRCLE
  5
252
330
1B
100
AcDbEntity
  8
4
100
AcDbCircle
 10
895.7907419865833
 20
1322.746530067865
 30
0.0
 40
11.0
  0
ARC
  5
253
330
1B
100
AcDbEntity
  8
4
100
AcDbCircle
 10
685.7907419865837
 20
1261.746530067866
 30
0.0
 40
24.0
100
AcDbArc
 50
285.0947870995421
 51
74.90521290045791
  0
LINE
  5
254
330
1B
100
AcDbEntity
  8
L-CENTER
 48
3.0
100
AcDbLine
 10
645.7907419865833
 20
1261.746530067866
 30
0.0
 11
725.7907419865833
 21
1261.746530067866
 31
0.0
  0
ARC
  5
255
330
1B
100
AcDbEntity
  8
4
100
AcDbCircle
 10
685.7907419865833
 20
831.7465300678662
 30
0.0
 40
24.0
100
AcDbArc
 50
105.0947870995432
 51
254.9052129004568
  0
LINE
  5
256
330
1B
100
AcDbEntity
  8
L-CENTER
 48
3.0
100
AcDbLine
 10
645.7907419865833
 20
831.7465300678657
 30
0.0
 11
725.7907419865833
 21
831.7465300678657
 31
0.0
  0
LINE
  5
257
330
1B
100
AcDbEntity
  8
L-CENTER
 48
3.0
100
AcDbLine
 10
499.3739069282638
 20
1047.746530067866
 30
0.0
 11
709.3812456621199
 21
1047.746530067866
 31
0.0
  0
CIRCLE
  5
258
330
1B
100
AcDbEntity
  8
4
100
AcDbCircle
 10
685.7907419865837
 20
1182.746530067866
 30
0.0
 40
25.0
  0
ARC
  5
259
330
1B
100
AcDbEntity
  8
4
100
AcDbCircle
 10
685.7907419865837
 20
1564.746530067865
 30
0.0
 40
650.0
100
AcDbArc
 50
249.5106799506331
 51
267.8066169873769
  0
ARC
  5
25A
330
1B
100
AcDbEntity
  8
4
100
AcDbCircle
 10
685.7907419865837
 20
1564.746530067865
 30
0.0
 40
650.0
100
AcDbArc
 50
272.1933830126231
 51
290.4893200493669
  0
CIRCLE
  5
25B
330
1B
100
AcDbEntity
  8
4
100
AcDbCircle
 10
685.7907419865837
 20
1046.746530067866
 30
0.0
 40
245.0
  0
CIRCLE
  5
25C
330
1B
100
AcDbEntity
  8
L-CENTER
 48
3.0
100
AcDbCircle
 10
685.7907419865837
 20
1046.746530067866
 30
0.0
 40
260.0
  0
CIRCLE
  5
25D
330
1B
100
AcDbEntity
  8
4
100
AcDbCircle
 10
685.7907419865837
 20
1046.746530067866
 30
0.0
 40
275.0
  0
CIRCLE
  5
25E
330
1B
100
AcDbEntity
  8
4
100
AcDbCircle
 10
604.3775762951923
 20
1047.746530067866
 30
0.0
 40
95.0
  0
LINE
  5
25F
330
1B
100
AcDbEntity
  8
L-CENTER
 48
3.0
100
AcDbLine
 10
545.7907419865833
 20
804.2594170082227
 30
0.0
 11
565.7907419865842
 21
838.9004331596004
 31
0.0
  0
ARC
  5
260
330
1B
100
AcDbEntity
  8
4
100
AcDbCircle
 10
685.7907419865828
 20
530.7465300678662
 30
0.0
 40
650.0
100
AcDbArc
 50
92.19338301262312
 51
110.3994507482501
  0
LINE
  5
261
330
1B
100
AcDbEntity
  8
L-CENTER
 48
3.0
100
AcDbLine
 10
545.7907419865833
 20
1289.233643127509
 30
0.0
 11
565.7907419865842
 21
1254.592626976131
 31
0.0
  0
CIRCLE
  5
262
330
1B
100
AcDbEntity
  8
4
100
AcDbCircle
 10
795.7907419865837
 20
1032.746530067866
 30
0.0
 40
80.0
  0
LINE
  5
263
330
1B
100
AcDbEntity
  8
L-CENTER
 48
3.0
100
AcDbLine
 10
825.7907419865833
 20
804.2594170082227
 30
0.0
 11
805.7907419865824
 21
838.9004331596004
 31
0.0
  0
ARC
  5
264
330
1B
100
AcDbEntity
  8
4
100
AcDbCircle
 10
685.7907419865828
 20
530.7465300678662
 30
0.0
 40
650.0
100
AcDbArc
 50
69.60054925174992
 51
87.80661698737677
  0
LINE
  5
265
330
1B
100
AcDbEntity
  8
L-CENTER
 48
3.0
100
AcDbLine
 10
825.7907419865833
 20
1289.233643127509
 30
0.0
 11
805.7907419865824
 21
1254.592626976131
 31
0.0
  0
LINE
  5
266
330
1B
100
AcDbEntity
  8
4
100
AcDbLine
 10
990.6907419865832
 20
1145.246530067866
 30
0.0
 11
990.6907419865842
 21
1270.246530067866
 31
0.0
  0
LINE
  5
267
330
1B
100
AcDbEntity
  8
4
100
AcDbLine
 10
380.8907419865837
 20
1145.246530067866
 30
0.0
 11
380.8907419865837
 21
1270.246530067866
 31
0.0
  0
LINE
  5
268
330
1B
100
AcDbEntity
  8
4
100
AcDbLine
 10
980.7907419865842
 20
1270.246530067866
 30
0.0
 11
990.6907419865842
 21
1270.246530067866
 31
0.0
  0
LINE
  5
269
330
1B
100
AcDbEntity
  8
4
100
AcDbLine
 10
980.7907419865833
 20
1145.246530067866
 30
0.0
 11
990.6907419865832
 21
1145.246530067866
 31
0.0
  0
LINE
  5
26A
330
1B
100
AcDbEntity
  8
4
100
AcDbLine
 10
380.8907419865833
 20
1270.246530067866
 30
0.0
 11
390.7907419865837
 21
1270.246530067866
 31
0.0
  0
LINE
  5
26B
330
1B
100
AcDbEntity
  8
4
100
AcDbLine
 10
380.8907419865833
 20
1145.246530067866
 30
0.0
 11
390.7907419865837
 21
1145.246530067866
 31
0.0
  0
LINE
  5
26C
330
1B
100
AcDbEntity
  8
2
100
AcDbLine
 10
390.4907419865837
 20
1145.246530067866
 30
0.0
 11
390.4907419865837
 21
1270.246530067866
 31
0.0
  0
LINE
  5
26D
330
1B
100
AcDbEntity
  8
2
100
AcDbLine
 10
981.0907419865833
 20
1145.246530067866
 30
0.0
 11
981.0907419865842
 21
1270.246530067866
 31
0.0
  0
CIRCLE
  5
26E
330
1B
100
AcDbEntity
  8
4
100
AcDbCircle
 10
604.3775762951918
 20
1047.746530067866
 30
0.0
 40
50.0
  0
LINE
  5
26F
330
1B
100
AcDbEntity
  8
L-CENTER
 48
3.0
100
AcDbLine
 10
559.4512954893584
 20
1092.672810873699
 30
0.0
 11
532.6312382052442
 21
1119.492868157813
 31
0.0
  0
LINE
  5
270
330
1B
100
AcDbEntity
  8
L-CENTER
 48
3.0
100
AcDbLine
 10
559.4512954893587
 20
1002.820249262032
 30
0.0
 11
532.6312382052442
 21
976.0001919779188
 31
0.0
  0
CIRCLE
  5
271
330
1B
100
AcDbEntity
  8
L-CENTER
 48
3.0
100
AcDbCircle
 10
604.3775762951918
 20
1047.746530067866
 30
0.0
 40
82.5
  0
CIRCLE
  5
272
330
1B
100
AcDbEntity
  8
4
100
AcDbCircle
 10
795.7907419865833
 20
1032.746530067866
 30
0.0
 40
45.0
  0
LINE
  5
273
330
1B
100
AcDbEntity
  8
L-CENTER
 48
3.0
100
AcDbLine
 10
763.2388298515145
 20
1000.194617932797
 30
0.0
 11
736.4187725674003
 21
973.374560648683
 31
0.0
  0
LINE
  5
274
330
1B
100
AcDbEntity
  8
L-CENTER
 48
3.0
100
AcDbLine
 10
763.2388298515143
 20
1065.298442202934
 30
0.0
 11
736.4187725674005
 21
1092.118499487048
 31
0.0
  0
CIRCLE
  5
275
330
1B
100
AcDbEntity
  8
L-CENTER
 48
3.0
100
AcDbCircle
 10
795.7907419865833
 20
1032.746530067866
 30
0.0
 40
65.0
  0
LINE
  5
276
330
1B
100
AcDbEntity
  8
4
100
AcDbLine
 10
740.0138466332337
 20
366.3398007276625
 30
0.0
 11
740.0138466332337
 21
357.7433276735152
 31
0.0
  0
LINE
  5
277
330
1B
100
AcDbEntity
  8
4
100
AcDbLine
 10
759.6437557856812
 20
357.7433276735152
 30
0.0
 11
759.6437557856812
 21
366.3398007276625
 31
0.0
  0
LINE
  5
278
330
1B
100
AcDbEntity
  8
L-CENTER
 48
3.0
100
AcDbLine
 10
749.8288012094577
 20
336.1168051533717
 30
0.0
 11
749.8288012094577
 21
370.1113059280957
 31
0.0
  0
LINE
  5
279
330
1B
100
AcDbEntity
  8
4
100
AcDbLine
 10
740.0138466332337
 20
360.2433276735152
 30
0.0
 11
759.6437557856812
 21
360.2433276735152
 31
0.0
  0
ARC
  5
27A
330
1B
100
AcDbEntity
  8
4
100
AcDbCircle
 10
757.190017141625
 20
363.4597137444559
 30
0.0
 40
3.783613929059507
100
AcDbArc
 50
49.57010315516856
 51
130.4298968448242
  0
ARC
  5
27B
330
1B
100
AcDbEntity
  8
4
100
AcDbCircle
 10
749.8288012094577
 20
353.464162376056
 30
0.0
 40
13.77916529745958
100
AcDbArc
 50
69.13593563608057
 51
110.8640643639194
  0
LINE
  5
27C
330
1B
100
AcDbEntity
  8
4
100
AcDbLine
 10
757.190017141625
 20
367.2433276735152
 30
0.0
 11
742.4675852772898
 21
367.2433276735152
 31
0.0
  0
ARC
  5
27D
330
1B
100
AcDbEntity
  8
4
100
AcDbCircle
 10
742.4675852772898
 20
363.4597137444559
 30
0.0
 40
3.783613929059507
100
AcDbArc
 50
49.57010315516856
 51
130.4298968448242
  0
LINE
  5
27E
330
1B
100
AcDbEntity
  8
4
100
AcDbLine
 10
754.7362784975694
 20
366.3398007276625
 30
0.0
 11
754.7362784975694
 21
360.2433276735152
 31
0.0
  0
LINE
  5
27F
330
1B
100
AcDbEntity
  8
4
100
AcDbLine
 10
744.9213239213454
 20
366.3398007276625
 30
0.0
 11
744.9213239213454
 21
360.2433276735152
 31
0.0
  0
LINE
  5
280
330
1B
100
AcDbEntity
  8
4
100
AcDbLine
 10
740.0138466332337
 20
357.7433276735152
 30
0.0
 11
759.6437557856812
 21
357.7433276735152
 31
0.0
  0
LINE
  5
281
330
1B
100
AcDbEntity
  8
4
100
AcDbLine
 10
539.1010459094159
 20
1099.14261857787
 30
0.0
 11
548.5815640184442
 21
1096.602321406727
 31
0.0
  0
LINE
  5
282
330
1B
100
AcDbEntity
  8
4
100
AcDbLine
 10
548.5815640184442
 20
1096.602321406727
 30
0.0
 11
555.5217849563301
 21
1103.542542344612
 31
0.0
  0
LINE
  5
283
330
1B
100
AcDbEntity
  8
4
100
AcDbLine
 10
552.9814877851868
 20
1113.023060453642
 30
0.0
 11
543.5009696761585
 21
1115.563357624784
 31
0.0
  0
CIRCLE
  5
284
330
1B
100
AcDbEntity
  8
4
100
AcDbCircle
 10
546.0412668473014
 20
1106.082839515756
 30
0.0
 40
8.5
  0
LINE
  5
285
330
1B
100
AcDbEntity
  8
4
100
AcDbLine
 10
536.5607487382731
 20
1108.623136686899
 30
0.0
 11
539.1010459094159
 21
1099.14261857787
 31
0.0
  0
LINE
  5
286
330
1B
100
AcDbEntity
  8
4
100
AcDbLine
 10
543.5009696761585
 20
1115.563357624784
 30
0.0
 11
536.5607487382731
 21
1108.623136686899
 31
0.0
  0
LINE
  5
287
330
1B
100
AcDbEntity
  8
4
100
AcDbLine
 10
555.5217849563301
 20
1103.542542344612
 30
0.0
 11
552.9814877851868
 21
1113.023060453642
 31
0.0
  0
LINE
  5
288
330
1B
100
AcDbEntity
  8
4
100
AcDbLine
 10
742.8885802715722
 20
1071.768249907105
 30
0.0
 11
752.3690983806005
 21
1069.227952735963
 31
0.0
  0
LINE
  5
289
330
1B
100
AcDbEntity
  8
4
100
AcDbLine
 10
752.3690983806005
 20
1069.227952735963
 30
0.0
 11
759.3093193184859
 21
1076.168173673848
 31
0.0
  0
LINE
  5
28A
330
1B
100
AcDbEntity
  8
4
100
AcDbLine
 10
756.7690221473431
 20
1085.648691782877
 30
0.0
 11
747.2885040383148
 21
1088.18898895402
 31
0.0
  0
CIRCLE
  5
28B
330
1B
100
AcDbEntity
  8
4
100
AcDbCircle
 10
749.8288012094577
 20
1078.708470844992
 30
0.0
 40
8.5
  0
LINE
  5
28C
330
1B
100
AcDbEntity
  8
4
100
AcDbLine
 10
740.348283100429
 20
1081.248768016134
 30
0.0
 11
742.8885802715722
 21
1071.768249907105
 31
0.0
  0
LINE
  5
28D
330
1B
100
AcDbEntity
  8
4
100
AcDbLine
 10
747.2885040383148
 20
1088.18898895402
 30
0.0
 11
740.348283100429
 21
1081.248768016134
 31
0.0
  0
LINE
  5
28E
330
1B
100
AcDbEntity
  8
4
100
AcDbLine
 10
759.3093193184859
 20
1076.168173673848
 30
0.0
 11
756.7690221473431
 21
1085.648691782877
 31
0.0
  0
LINE
  5
28F
330
1B
100
AcDbEntity
  8
4
100
AcDbLine
 10
548.5815640184446
 20
998.8907387290042
 30
0.0
 11
539.1010459094155
 21
996.3504415578611
 31
0.0
  0
LINE
  5
290
330
1B
100
AcDbEntity
  8
4
100
AcDbLine
 10
536.5607487382727
 20
986.8699234488327
 30
0.0
 11
543.5009696761585
 21
979.929702510947
 31
0.0
  0
LINE
  5
291
330
1B
100
AcDbEntity
  8
4
100
AcDbLine
 10
543.5009696761585
 20
979.929702510947
 30
0.0
 11
552.9814877851873
 21
982.46999968209
 31
0.0
  0
CIRCLE
  5
292
330
1B
100
AcDbEntity
  8
4
100
AcDbCircle
 10
546.0412668473014
 20
989.4102206199757
 30
0.0
 40
8.5
  0
LINE
  5
293
330
1B
100
AcDbEntity
  8
4
100
AcDbLine
 10
539.1010459094155
 20
996.3504415578611
 30
0.0
 11
536.5607487382727
 21
986.8699234488327
 31
0.0
  0
LINE
  5
294
330
1B
100
AcDbEntity
  8
4
100
AcDbLine
 10
555.5217849563301
 20
991.9505177911183
 30
0.0
 11
548.5815640184446
 21
998.8907387290042
 31
0.0
  0
LINE
  5
295
330
1B
100
AcDbEntity
  8
4
100
AcDbLine
 10
552.9814877851873
 20
982.46999968209
 30
0.0
 11
555.5217849563301
 21
991.9505177911183
 31
0.0
  0
LINE
  5
296
330
1B
100
AcDbEntity
  8
4
100
AcDbLine
 10
752.3690983806009
 20
996.2651073997686
 30
0.0
 11
742.8885802715713
 21
993.7248102286255
 31
0.0
  0
LINE
  5
297
330
1B
100
AcDbEntity
  8
4
100
AcDbLine
 10
740.348283100429
 20
984.244292119597
 30
0.0
 11
747.2885040383144
 21
977.3040711817114
 31
0.0
  0
LINE
  5
298
330
1B
100
AcDbEntity
  8
4
100
AcDbLine
 10
747.2885040383144
 20
977.3040711817114
 30
0.0
 11
756.7690221473431
 21
979.8443683528544
 31
0.0
  0
CIRCLE
  5
299
330
1B
100
AcDbEntity
  8
4
100
AcDbCircle
 10
749.8288012094572
 20
986.7845892907401
 30
0.0
 40
8.5
  0
LINE
  5
29A
330
1B
100
AcDbEntity
  8
4
100
AcDbLine
 10
742.8885802715713
 20
993.7248102286255
 30
0.0
 11
740.348283100429
 21
984.244292119597
 31
0.0
  0
LINE
  5
29B
330
1B
100
AcDbEntity
  8
4
100
AcDbLine
 10
759.3093193184859
 20
989.3248864618827
 30
0.0
 11
752.3690983806009
 21
996.2651073997686
 31
0.0
  0
LINE
  5
29C
330
1B
100
AcDbEntity
  8
4
100
AcDbLine
 10
756.7690221473431
 20
979.8443683528544
 30
0.0
 11
759.3093193184859
 21
989.3248864618827
 31
0.0
  0
CIRCLE
  5
29D
330
1B
100
AcDbEntity
  8
4
100
AcDbCircle
 10
662.7138857430828
 20
989.4102206199757
 30
0.0
 40
8.5
  0
LINE
  5
29E
330
1B
100
AcDbEntity
  8
4
100
AcDbLine
 10
672.1944038521106
 20
986.8699234488327
 30
0.0
 11
665.2541829142251
 21
979.929702510947
 31
0.0
  0
LINE
  5
29F
330
1B
100
AcDbEntity
  8
4
100
AcDbLine
 10
660.173588571939
 20
998.8907387290042
 30
0.0
 11
669.6541066809682
 21
996.3504415578611
 31
0.0
  0
LINE
  5
2A0
330
1B
100
AcDbEntity
  8
L-CENTER
 48
3.0
100
AcDbLine
 10
649.3038571010252
 20
1002.820249262032
 30
0.0
 11
676.1239143851396
 21
976.0001919779186
 31
0.0
  0
LINE
  5
2A1
330
1B
100
AcDbEntity
  8
4
100
AcDbLine
 10
669.6541066809682
 20
996.3504415578611
 30
0.0
 11
672.1944038521106
 21
986.8699234488327
 31
0.0
  0
LINE
  5
2A2
330
1B
100
AcDbEntity
  8
4
100
AcDbLine
 10
655.7736648051964
 20
982.46999968209
 30
0.0
 11
653.2333676340536
 21
991.9505177911183
 31
0.0
  0
LINE
  5
2A3
330
1B
100
AcDbEntity
  8
4
100
AcDbLine
 10
653.2333676340536
 20
991.9505177911183
 30
0.0
 11
660.173588571939
 21
998.8907387290042
 31
0.0
  0
LINE
  5
2A4
330
1B
100
AcDbEntity
  8
4
100
AcDbLine
 10
665.2541829142251
 20
979.929702510947
 30
0.0
 11
655.7736648051964
 21
982.46999968209
 31
0.0
  0
LINE
  5
2A5
330
1B
100
AcDbEntity
  8
4
100
AcDbLine
 10
665.2541829142251
 20
1115.563357624784
 30
0.0
 11
672.1944038521106
 21
1108.623136686899
 31
0.0
  0
CIRCLE
  5
2A6
330
1B
100
AcDbEntity
  8
4
100
AcDbCircle
 10
662.7138857430823
 20
1106.082839515756
 30
0.0
 40
8.5
  0
LINE
  5
2A7
330
1B
100
AcDbEntity
  8
4
100
AcDbLine
 10
669.6541066809677
 20
1099.14261857787
 30
0.0
 11
660.1735885719395
 21
1096.602321406727
 31
0.0
  0
LINE
  5
2A8
330
1B
100
AcDbEntity
  8
L-CENTER
 48
3.0
100
AcDbLine
 10
649.3038571010254
 20
1092.672810873699
 30
0.0
 11
676.1239143851394
 21
1119.492868157813
 31
0.0
  0
LINE
  5
2A9
330
1B
100
AcDbEntity
  8
4
100
AcDbLine
 10
672.1944038521106
 20
1108.623136686899
 30
0.0
 11
669.6541066809677
 21
1099.14261857787
 31
0.0
  0
LINE
  5
2AA
330
1B
100
AcDbEntity
  8
4
100
AcDbLine
 10
653.2333676340536
 20
1103.542542344612
 30
0.0
 11
655.7736648051969
 21
1113.023060453642
 31
0.0
  0
LINE
  5
2AB
330
1B
100
AcDbEntity
  8
4
100
AcDbLine
 10
655.7736648051969
 20
1113.023060453642
 30
0.0
 11
665.2541829142251
 21
1115.563357624784
 31
0.0
  0
LINE
  5
2AC
330
1B
100
AcDbEntity
  8
4
100
AcDbLine
 10
660.1735885719395
 20
1096.602321406727
 30
0.0
 11
653.2333676340536
 21
1103.542542344612
 31
0.0
  0
CIRCLE
  5
2AD
330
1B
100
AcDbEntity
  8
4
100
AcDbCircle
 10
841.7526827637225
 20
986.7845892907458
 30
0.0
 40
8.5
  0
LINE
  5
2AE
330
1B
100
AcDbEntity
  8
4
100
AcDbLine
 10
851.2332008727512
 20
984.2442921196041
 30
0.0
 11
844.2929799348663
 21
977.3040711817175
 31
0.0
  0
LINE
  5
2AF
330
1B
100
AcDbEntity
  8
4
100
AcDbLine
 10
839.2123855925779
 20
996.265107399774
 30
0.0
 11
848.6929037016071
 21
993.7248102286321
 31
0.0
  0
LINE
  5
2B0
330
1B
100
AcDbEntity
  8
4
100
AcDbLine
 10
844.2929799348522
 20
1088.188988954026
 30
0.0
 11
851.2332008727385
 21
1081.248768016141
 31
0.0
  0
CIRCLE
  5
2B1
330
1B
100
AcDbEntity
  8
4
100
AcDbCircle
 10
841.7526827637103
 20
1078.708470844997
 30
0.0
 40
8.5
  0
LINE
  5
2B2
330
1B
100
AcDbEntity
  8
4
100
AcDbLine
 10
848.6929037015971
 20
1071.768249907112
 30
0.0
 11
839.2123855925688
 21
1069.227952735968
 31
0.0
  0
LINE
  5
2B3
330
1B
100
AcDbEntity
  8
L-CENTER
 48
3.0
100
AcDbLine
 10
828.3426541216554
 20
1065.298442202938
 30
0.0
 11
855.1627114057655
 21
1092.118499487056
 31
0.0
  0
LINE
  5
2B4
330
1B
100
AcDbEntity
  8
L-CENTER
 48
3.0
100
AcDbLine
 10
828.3426541216636
 20
1000.194617932801
 30
0.0
 11
855.162711405781
 21
973.3745606486902
 31
0.0
  0
LINE
  5
2B5
330
1B
100
AcDbEntity
  8
4
100
AcDbLine
 10
848.6929037016071
 20
993.7248102286321
 30
0.0
 11
851.2332008727512
 21
984.2442921196041
 31
0.0
  0
LINE
  5
2B6
330
1B
100
AcDbEntity
  8
4
100
AcDbLine
 10
851.2332008727385
 20
1081.248768016141
 30
0.0
 11
848.6929037015971
 21
1071.768249907112
 31
0.0
  0
LINE
  5
2B7
330
1B
100
AcDbEntity
  8
4
100
AcDbLine
 10
834.8124618258371
 20
979.8443683528592
 30
0.0
 11
832.2721646546934
 21
989.3248864618872
 31
0.0
  0
LINE
  5
2B8
330
1B
100
AcDbEntity
  8
4
100
AcDbLine
 10
832.2721646546934
 20
989.3248864618872
 30
0.0
 11
839.2123855925779
 21
996.265107399774
 31
0.0
  0
LINE
  5
2B9
330
1B
100
AcDbEntity
  8
4
100
AcDbLine
 10
844.2929799348663
 20
977.3040711817175
 30
0.0
 11
834.8124618258371
 21
979.8443683528592
 31
0.0
  0
LINE
  5
2BA
330
1B
100
AcDbEntity
  8
4
100
AcDbLine
 10
832.2721646546825
 20
1076.168173673853
 30
0.0
 11
834.8124618258239
 21
1085.648691782882
 31
0.0
  0
LINE
  5
2BB
330
1B
100
AcDbEntity
  8
4
100
AcDbLine
 10
834.8124618258239
 20
1085.648691782882
 30
0.0
 11
844.2929799348522
 21
1088.188988954026
 31
0.0
  0
LINE
  5
2BC
330
1B
100
AcDbEntity
  8
4
100
AcDbLine
 10
839.2123855925688
 20
1069.227952735968
 30
0.0
 11
832.2721646546825
 21
1076.168173673853
 31
0.0
  0
LINE
  5
2BD
330
1B
100
AcDbEntity
  8
L-CENTER
 48
5.0
100
AcDbLine
 10
546.0412668473014
 20
336.2168051533718
 30
0.0
 11
546.0412668473014
 21
370.2113059280957
 31
0.0
  0
LINE
  5
2BE
330
1B
100
AcDbEntity
  8
4
100
AcDbLine
 10
555.8562214235249
 20
357.7433276735152
 30
0.0
 11
555.8562214235249
 21
366.3398007276625
 31
0.0
  0
LINE
  5
2BF
330
1B
100
AcDbEntity
  8
4
100
AcDbLine
 10
536.2263122710774
 20
366.3398007276625
 30
0.0
 11
536.2263122710774
 21
357.7433276735152
 31
0.0
  0
LINE
  5
2C0
330
1B
100
AcDbEntity
  8
4
100
AcDbLine
 10
541.1337895591892
 20
366.3398007276625
 30
0.0
 11
541.1337895591892
 21
360.2433276735152
 31
0.0
  0
LINE
  5
2C1
330
1B
100
AcDbEntity
  8
4
100
AcDbLine
 10
550.9487441354131
 20
366.3398007276625
 30
0.0
 11
550.9487441354131
 21
360.2433276735152
 31
0.0
  0
ARC
  5
2C2
330
1B
100
AcDbEntity
  8
4
100
AcDbCircle
 10
538.680050915134
 20
363.4597137444559
 30
0.0
 40
3.783613929059507
100
AcDbArc
 50
49.57010315517714
 51
130.4298968448315
  0
LINE
  5
2C3
330
1B
100
AcDbEntity
  8
4
100
AcDbLine
 10
553.4024827794688
 20
367.2433276735152
 30
0.0
 11
538.6800509151335
 21
367.2433276735152
 31
0.0
  0
ARC
  5
2C4
330
1B
100
AcDbEntity
  8
4
100
AcDbCircle
 10
546.0412668473018
 20
353.464162376056
 30
0.0
 40
13.77916529745958
100
AcDbArc
 50
69.13593563608057
 51
110.8640643639214
  0
ARC
  5
2C5
330
1B
100
AcDbEntity
  8
4
100
AcDbCircle
 10
553.4024827794692
 20
363.4597137444559
 30
0.0
 40
3.783613929059507
100
AcDbArc
 50
49.57010315517714
 51
130.4298968448315
  0
LINE
  5
2C6
330
1B
100
AcDbEntity
  8
4
100
AcDbLine
 10
536.2263122710774
 20
360.2433276735152
 30
0.0
 11
555.8562214235249
 21
360.2433276735152
 31
0.0
  0
LINE
  5
2C7
330
1B
100
AcDbEntity
  8
4
100
AcDbLine
 10
536.2263122710774
 20
357.7433276735152
 30
0.0
 11
555.8562214235249
 21
357.7433276735152
 31
0.0
  0
LINE
  5
2C8
330
1B
100
AcDbEntity
  8
4
100
AcDbLine
 10
851.5676373399338
 20
357.7433276735152
 30
0.0
 11
831.9377281874858
 21
357.7433276735152
 31
0.0
  0
LINE
  5
2C9
330
1B
100
AcDbEntity
  8
4
100
AcDbLine
 10
851.5676373399338
 20
360.2433276735152
 30
0.0
 11
831.9377281874858
 21
360.2433276735152
 31
0.0
  0
LINE
  5
2CA
330
1B
100
AcDbEntity
  8
4
100
AcDbLine
 10
834.391466831542
 20
367.2433276735152
 30
0.0
 11
849.1138986958777
 21
367.2433276735152
 31
0.0
  0
ARC
  5
2CB
330
1B
100
AcDbEntity
  8
4
100
AcDbCircle
 10
849.1138986958772
 20
363.4597137444559
 30
0.0
 40
3.783613929059507
100
AcDbArc
 50
49.57010315516856
 51
130.4298968448242
  0
LINE
  5
2CC
330
1B
100
AcDbEntity
  8
4
100
AcDbLine
 10
851.5676373399338
 20
366.3398007276625
 30
0.0
 11
851.5676373399338
 21
357.7433276735152
 31
0.0
  0
ARC
  5
2CD
330
1B
100
AcDbEntity
  8
4
100
AcDbCircle
 10
834.391466831542
 20
363.4597137444559
 30
0.0
 40
3.783613929059507
100
AcDbArc
 50
49.57010315516856
 51
130.4298968448242
  0
ARC
  5
2CE
330
1B
100
AcDbEntity
  8
4
100
AcDbCircle
 10
841.7526827637093
 20
353.464162376056
 30
0.0
 40
13.77916529745958
100
AcDbArc
 50
69.13593563607864
 51
110.8640643639194
  0
LINE
  5
2CF
330
1B
100
AcDbEntity
  8
4
100
AcDbLine
 10
836.845205475598
 20
366.3398007276625
 30
0.0
 11
836.845205475598
 21
360.2433276735152
 31
0.0
  0
LINE
  5
2D0
330
1B
100
AcDbEntity
  8
4
100
AcDbLine
 10
846.6601600518215
 20
366.3398007276625
 30
0.0
 11
846.6601600518215
 21
360.2433276735152
 31
0.0
  0
LINE
  5
2D1
330
1B
100
AcDbEntity
  8
4
100
AcDbLine
 10
831.9377281874858
 20
357.7433276735152
 30
0.0
 11
831.9377281874858
 21
366.3398007276625
 31
0.0
  0
LINE
  5
2D2
330
1B
100
AcDbEntity
  8
L-CENTER
 48
3.0
100
AcDbLine
 10
841.7526827637093
 20
336.1168051533717
 30
0.0
 11
841.7526827637093
 21
370.1113059280957
 31
0.0
  0
LINE
  5
2D3
330
1B
100
AcDbEntity
  8
4
100
AcDbLine
 10
672.5353517020894
 20
357.7433276735152
 30
0.0
 11
652.9054425496424
 21
357.7433276735152
 31
0.0
  0
LINE
  5
2D4
330
1B
100
AcDbEntity
  8
4
100
AcDbLine
 10
672.5353517020894
 20
360.2433276735152
 30
0.0
 11
652.9054425496424
 21
360.2433276735152
 31
0.0
  0
ARC
  5
2D5
330
1B
100
AcDbEntity
  8
4
100
AcDbCircle
 10
662.7203971258659
 20
353.464162376056
 30
0.0
 40
13.77916529745958
100
AcDbArc
 50
69.13593563608057
 51
110.8640643639214
  0
LINE
  5
2D6
330
1B
100
AcDbEntity
  8
4
100
AcDbLine
 10
655.3591811936985
 20
367.2433276735152
 30
0.0
 11
670.0816130580333
 21
367.2433276735152
 31
0.0
  0
ARC
  5
2D7
330
1B
100
AcDbEntity
  8
4
100
AcDbCircle
 10
670.0816130580333
 20
363.4597137444559
 30
0.0
 40
3.783613929059507
100
AcDbArc
 50
49.57010315516856
 51
130.4298968448242
  0
LINE
  5
2D8
330
1B
100
AcDbEntity
  8
4
100
AcDbLine
 10
667.6278744139781
 20
366.3398007276625
 30
0.0
 11
667.6278744139781
 21
360.2433276735152
 31
0.0
  0
LINE
  5
2D9
330
1B
100
AcDbEntity
  8
4
100
AcDbLine
 10
672.5353517020894
 20
366.3398007276625
 30
0.0
 11
672.5353517020894
 21
357.7433276735152
 31
0.0
  0
ARC
  5
2DA
330
1B
100
AcDbEntity
  8
4
100
AcDbCircle
 10
655.3591811936985
 20
363.4597137444559
 30
0.0
 40
3.783613929059507
100
AcDbArc
 50
49.57010315517584
 51
130.4298968448315
  0
LINE
  5
2DB
330
1B
100
AcDbEntity
  8
4
100
AcDbLine
 10
657.8129198377537
 20
366.3398007276625
 30
0.0
 11
657.8129198377537
 21
360.2433276735152
 31
0.0
  0
LINE
  5
2DC
330
1B
100
AcDbEntity
  8
4
100
AcDbLine
 10
652.9054425496424
 20
357.7433276735152
 30
0.0
 11
652.9054425496424
 21
366.3398007276625
 31
0.0
  0
LINE
  5
2DD
330
1B
100
AcDbEntity
  8
L-CENTER
 48
3.0
100
AcDbLine
 10
662.7203971258659
 20
336.1168051533717
 30
0.0
 11
662.7203971258659
 21
370.1113059280957
 31
0.0
  0
ARC
  5
2DE
330
1B
100
AcDbEntity
  8
4
100
AcDbCircle
 10
742.4675852772903
 20
97.92694160257452
 30
0.0
 40
3.783613929059507
100
AcDbArc
 50
229.5701031551686
 51
310.4298968448242
  0
ARC
  5
2DF
330
1B
100
AcDbEntity
  8
4
100
AcDbCircle
 10
749.8288012094577
 20
107.9224929709744
 30
0.0
 40
13.77916529745958
100
AcDbArc
 50
249.1359356360806
 51
290.8640643639195
  0
LINE
  5
2E0
330
1B
100
AcDbEntity
  8
4
100
AcDbLine
 10
744.9213239213459
 20
95.04685461936799
 30
0.0
 11
744.9213239213459
 21
101.1433276735153
 31
0.0
  0
LINE
  5
2E1
330
1B
100
AcDbEntity
  8
4
100
AcDbLine
 10
754.7362784975699
 20
95.04685461936799
 30
0.0
 11
754.7362784975699
 21
101.1433276735153
 31
0.0
  0
LINE
  5
2E2
330
1B
100
AcDbEntity
  8
4
100
AcDbLine
 10
740.0138466332342
 20
103.6433276735153
 30
0.0
 11
740.0138466332342
 21
95.04685461936799
 31
0.0
  0
LINE
  5
2E3
330
1B
100
AcDbEntity
  8
L-CENTER
 48
3.0
100
AcDbLine
 10
749.8288012094577
 20
136.4287507882091
 30
0.0
 11
749.8288012094577
 21
89.04248779341128
 31
0.0
  0
LINE
  5
2E4
330
1B
100
AcDbEntity
  8
4
100
AcDbLine
 10
759.6437557856816
 20
95.04685461936799
 30
0.0
 11
759.6437557856816
 21
103.6433276735153
 31
0.0
  0
LINE
  5
2E5
330
1B
100
AcDbEntity
  8
4
100
AcDbLine
 10
759.6437557856816
 20
103.6433276735153
 30
0.0
 11
740.0138466332342
 21
103.6433276735153
 31
0.0
  0
LINE
  5
2E6
330
1B
100
AcDbEntity
  8
4
100
AcDbLine
 10
759.6437557856816
 20
101.1433276735153
 30
0.0
 11
740.0138466332342
 21
101.1433276735153
 31
0.0
  0
LINE
  5
2E7
330
1B
100
AcDbEntity
  8
4
100
AcDbLine
 10
742.4675852772903
 20
94.14332767351527
 30
0.0
 11
757.1900171416255
 21
94.14332767351527
 31
0.0
  0
ARC
  5
2E8
330
1B
100
AcDbEntity
  8
4
100
AcDbCircle
 10
757.1900171416255
 20
97.92694160257452
 30
0.0
 40
3.783613929059507
100
AcDbArc
 50
229.5701031551686
 51
310.4298968448242
  0
ARC
  5
2E9
330
1B
100
AcDbEntity
  8
4
100
AcDbCircle
 10
655.3591811936981
 20
97.92694160257452
 30
0.0
 40
3.783613929059507
100
AcDbArc
 50
229.5701031551758
 51
310.4298968448314
  0
ARC
  5
2EA
330
1B
100
AcDbEntity
  8
4
100
AcDbCircle
 10
662.7203971258655
 20
107.9224929709744
 30
0.0
 40
13.77916529745958
100
AcDbArc
 50
249.1359356360806
 51
290.8640643639195
  0
LINE
  5
2EB
330
1B
100
AcDbEntity
  8
4
100
AcDbLine
 10
657.8129198377537
 20
95.04685461936799
 30
0.0
 11
657.8129198377537
 21
101.1433276735153
 31
0.0
  0
LINE
  5
2EC
330
1B
100
AcDbEntity
  8
4
100
AcDbLine
 10
667.6278744139781
 20
95.04685461936799
 30
0.0
 11
667.6278744139781
 21
101.1433276735153
 31
0.0
  0
LINE
  5
2ED
330
1B
100
AcDbEntity
  8
4
100
AcDbLine
 10
652.9054425496424
 20
103.6433276735153
 30
0.0
 11
652.9054425496424
 21
95.04685461936799
 31
0.0
  0
LINE
  5
2EE
330
1B
100
AcDbEntity
  8
4
100
AcDbLine
 10
672.5353517020894
 20
95.04685461936799
 30
0.0
 11
672.5353517020894
 21
103.6433276735153
 31
0.0
  0
LINE
  5
2EF
330
1B
100
AcDbEntity
  8
4
100
AcDbLine
 10
672.5353517020894
 20
103.6433276735153
 30
0.0
 11
652.9054425496424
 21
103.6433276735153
 31
0.0
  0
LINE
  5
2F0
330
1B
100
AcDbEntity
  8
4
100
AcDbLine
 10
672.5353517020894
 20
101.1433276735153
 30
0.0
 11
652.9054425496424
 21
101.1433276735153
 31
0.0
  0
LINE
  5
2F1
330
1B
100
AcDbEntity
  8
4
100
AcDbLine
 10
655.3591811936985
 20
94.14332767351527
 30
0.0
 11
670.0816130580333
 21
94.14332767351527
 31
0.0
  0
ARC
  5
2F2
330
1B
100
AcDbEntity
  8
4
100
AcDbCircle
 10
670.0816130580333
 20
97.92694160257452
 30
0.0
 40
3.783613929059507
100
AcDbArc
 50
229.5701031551758
 51
310.4298968448314
  0
CIRCLE
  5
2F3
330
1B
100
AcDbEntity
  8
4
100
AcDbCircle
 10
815.7907419865828
 20
1271.913135051821
 30
0.0
 40
9.5
  0
LINE
  5
2F4
330
1B
100
AcDbEntity
  8
4
100
AcDbLine
 10
815.7907419865828
 20
1282.882790166423
 30
0.0
 11
806.2907419865828
 21
1277.397962609122
 31
0.0
  0
LINE
  5
2F5
330
1B
100
AcDbEntity
  8
4
100
AcDbLine
 10
806.2907419865828
 20
1277.397962609122
 30
0.0
 11
806.2907419865828
 21
1266.428307494519
 31
0.0
  0
LINE
  5
2F6
330
1B
100
AcDbEntity
  8
4
100
AcDbLine
 10
825.2907419865828
 20
1266.428307494519
 30
0.0
 11
825.2907419865828
 21
1277.397962609122
 31
0.0
  0
LINE
  5
2F7
330
1B
100
AcDbEntity
  8
4
100
AcDbLine
 10
825.2907419865828
 20
1277.397962609122
 30
0.0
 11
815.7907419865828
 21
1282.882790166423
 31
0.0
  0
LINE
  5
2F8
330
1B
100
AcDbEntity
  8
4
100
AcDbLine
 10
806.2907419865828
 20
1266.428307494519
 30
0.0
 11
815.7907419865828
 21
1260.943479937217
 31
0.0
  0
LINE
  5
2F9
330
1B
100
AcDbEntity
  8
4
100
AcDbLine
 10
815.7907419865828
 20
1260.943479937217
 30
0.0
 11
825.2907419865828
 21
1266.428307494519
 31
0.0
  0
CIRCLE
  5
2FA
330
1B
100
AcDbEntity
  8
4
100
AcDbCircle
 10
555.7907419865837
 20
1271.91313505182
 30
0.0
 40
9.5
  0
LINE
  5
2FB
330
1B
100
AcDbEntity
  8
4
100
AcDbLine
 10
555.7907419865837
 20
1282.882790166422
 30
0.0
 11
546.2907419865837
 21
1277.397962609121
 31
0.0
  0
LINE
  5
2FC
330
1B
100
AcDbEntity
  8
4
100
AcDbLine
 10
546.2907419865837
 20
1277.397962609121
 30
0.0
 11
546.2907419865837
 21
1266.428307494519
 31
0.0
  0
LINE
  5
2FD
330
1B
100
AcDbEntity
  8
4
100
AcDbLine
 10
565.2907419865837
 20
1266.428307494519
 30
0.0
 11
565.2907419865837
 21
1277.397962609121
 31
0.0
  0
LINE
  5
2FE
330
1B
100
AcDbEntity
  8
4
100
AcDbLine
 10
565.2907419865837
 20
1277.397962609121
 30
0.0
 11
555.7907419865837
 21
1282.882790166422
 31
0.0
  0
LINE
  5
2FF
330
1B
100
AcDbEntity
  8
4
100
AcDbLine
 10
546.2907419865837
 20
1266.428307494519
 30
0.0
 11
555.7907419865837
 21
1260.943479937217
 31
0.0
  0
LINE
  5
300
330
1B
100
AcDbEntity
  8
4
100
AcDbLine
 10
555.7907419865837
 20
1260.943479937217
 30
0.0
 11
565.2907419865837
 21
1266.428307494519
 31
0.0
  0
CIRCLE
  5
301
330
1B
100
AcDbEntity
  8
4
100
AcDbCircle
 10
945.7907419865837
 20
1046.746530067866
 30
0.0
 40
9.5
  0
LINE
  5
302
330
1B
100
AcDbEntity
  8
4
100
AcDbLine
 10
945.7907419865837
 20
1057.716185182468
 30
0.0
 11
936.2907419865837
 21
1052.231357625167
 31
0.0
  0
LINE
  5
303
330
1B
100
AcDbEntity
  8
4
100
AcDbLine
 10
936.2907419865837
 20
1052.231357625167
 30
0.0
 11
936.2907419865837
 21
1041.261702510564
 31
0.0
  0
LINE
  5
304
330
1B
100
AcDbEntity
  8
4
100
AcDbLine
 10
955.2907419865837
 20
1041.261702510564
 30
0.0
 11
955.2907419865837
 21
1052.231357625167
 31
0.0
  0
LINE
  5
305
330
1B
100
AcDbEntity
  8
4
100
AcDbLine
 10
955.2907419865837
 20
1052.231357625167
 30
0.0
 11
945.7907419865837
 21
1057.716185182468
 31
0.0
  0
LINE
  5
306
330
1B
100
AcDbEntity
  8
4
100
AcDbLine
 10
936.2907419865837
 20
1041.261702510564
 30
0.0
 11
945.7907419865837
 21
1035.776874953263
 31
0.0
  0
LINE
  5
307
330
1B
100
AcDbEntity
  8
4
100
AcDbLine
 10
945.7907419865837
 20
1035.776874953263
 30
0.0
 11
955.2907419865837
 21
1041.261702510564
 31
0.0
  0
CIRCLE
  5
308
330
1B
100
AcDbEntity
  8
4
100
AcDbCircle
 10
425.7907419865837
 20
1046.746530067866
 30
0.0
 40
9.5
  0
LINE
  5
309
330
1B
100
AcDbEntity
  8
4
100
AcDbLine
 10
425.7907419865837
 20
1057.716185182468
 30
0.0
 11
416.2907419865837
 21
1052.231357625167
 31
0.0
  0
LINE
  5
30A
330
1B
100
AcDbEntity
  8
4
100
AcDbLine
 10
416.2907419865837
 20
1052.231357625167
 30
0.0
 11
416.2907419865837
 21
1041.261702510564
 31
0.0
  0
LINE
  5
30B
330
1B
100
AcDbEntity
  8
4
100
AcDbLine
 10
435.2907419865837
 20
1041.261702510564
 30
0.0
 11
435.2907419865837
 21
1052.231357625167
 31
0.0
  0
LINE
  5
30C
330
1B
100
AcDbEntity
  8
4
100
AcDbLine
 10
435.2907419865837
 20
1052.231357625167
 30
0.0
 11
425.7907419865837
 21
1057.716185182468
 31
0.0
  0
LINE
  5
30D
330
1B
100
AcDbEntity
  8
4
100
AcDbLine
 10
416.2907419865837
 20
1041.261702510564
 30
0.0
 11
425.7907419865837
 21
1035.776874953263
 31
0.0
  0
LINE
  5
30E
330
1B
100
AcDbEntity
  8
4
100
AcDbLine
 10
425.7907419865837
 20
1035.776874953263
 30
0.0
 11
435.2907419865837
 21
1041.261702510564
 31
0.0
  0
CIRCLE
  5
30F
330
1B
100
AcDbEntity
  8
4
100
AcDbCircle
 10
815.7907419865824
 20
821.5799250839113
 30
0.0
 40
9.5
  0
LINE
  5
310
330
1B
100
AcDbEntity
  8
4
100
AcDbLine
 10
815.7907419865824
 20
832.5495801985139
 30
0.0
 11
806.2907419865824
 21
827.0647526412126
 31
0.0
  0
LINE
  5
311
330
1B
100
AcDbEntity
  8
4
100
AcDbLine
 10
806.2907419865824
 20
827.0647526412126
 30
0.0
 11
806.2907419865824
 21
816.0950975266096
 31
0.0
  0
LINE
  5
312
330
1B
100
AcDbEntity
  8
4
100
AcDbLine
 10
825.2907419865824
 20
816.0950975266096
 30
0.0
 11
825.2907419865824
 21
827.0647526412126
 31
0.0
  0
LINE
  5
313
330
1B
100
AcDbEntity
  8
4
100
AcDbLine
 10
825.2907419865824
 20
827.0647526412126
 30
0.0
 11
815.7907419865824
 21
832.5495801985139
 31
0.0
  0
LINE
  5
314
330
1B
100
AcDbEntity
  8
4
100
AcDbLine
 10
806.2907419865824
 20
816.0950975266096
 30
0.0
 11
815.7907419865824
 21
810.6102699693083
 31
0.0
  0
LINE
  5
315
330
1B
100
AcDbEntity
  8
4
100
AcDbLine
 10
815.7907419865824
 20
810.6102699693083
 30
0.0
 11
825.2907419865824
 21
816.0950975266096
 31
0.0
  0
CIRCLE
  5
316
330
1B
100
AcDbEntity
  8
4
100
AcDbCircle
 10
555.7907419865842
 20
821.5799250839118
 30
0.0
 40
9.5
  0
LINE
  5
317
330
1B
100
AcDbEntity
  8
4
100
AcDbLine
 10
555.7907419865842
 20
832.5495801985144
 30
0.0
 11
546.2907419865842
 21
827.0647526412131
 31
0.0
  0
LINE
  5
318
330
1B
100
AcDbEntity
  8
4
100
AcDbLine
 10
546.2907419865842
 20
827.0647526412131
 30
0.0
 11
546.2907419865842
 21
816.0950975266101
 31
0.0
  0
LINE
  5
319
330
1B
100
AcDbEntity
  8
4
100
AcDbLine
 10
565.2907419865842
 20
816.0950975266101
 30
0.0
 11
565.2907419865842
 21
827.0647526412131
 31
0.0
  0
LINE
  5
31A
330
1B
100
AcDbEntity
  8
4
100
AcDbLine
 10
565.2907419865842
 20
827.0647526412131
 30
0.0
 11
555.7907419865842
 21
832.5495801985144
 31
0.0
  0
LINE
  5
31B
330
1B
100
AcDbEntity
  8
4
100
AcDbLine
 10
546.2907419865842
 20
816.0950975266101
 30
0.0
 11
555.7907419865842
 21
810.6102699693088
 31
0.0
  0
LINE
  5
31C
330
1B
100
AcDbEntity
  8
4
100
AcDbLine
 10
555.7907419865842
 20
810.6102699693088
 30
0.0
 11
565.2907419865842
 21
816.0950975266101
 31
0.0
  0
LINE
  5
31D
330
1B
100
AcDbEntity
  8
L-CENTER
 48
3.0
100
AcDbLine
 10
425.7907419865837
 20
354.4441675536193
 30
0.0
 11
425.7907419865837
 21
293.6469689439132
 31
0.0
  0
LINE
  5
31E
330
1B
100
AcDbEntity
  8
4
100
AcDbLine
 10
434.0179833225357
 20
350.8433276735152
 30
0.0
 11
417.5635006506313
 21
350.8433276735152
 31
0.0
  0
ARC
  5
31F
330
1B
100
AcDbEntity
  8
4
100
AcDbCircle
 10
425.7907419865837
 20
337.0475835383379
 30
0.0
 40
13.7957441351769
100
AcDbArc
 50
66.57340249137269
 51
113.4265975086273
  0
LINE
  5
320
330
1B
100
AcDbEntity
  8
4
100
AcDbLine
 10
414.8210868719807
 20
342.8433276735152
 30
0.0
 11
436.7603971011863
 21
342.8433276735152
 31
0.0
  0
LINE
  5
321
330
1B
100
AcDbEntity
  8
4
100
AcDbLine
 10
414.8210868719807
 20
339.8433276735152
 30
0.0
 11
436.7603971011863
 21
339.8433276735152
 31
0.0
  0
LINE
  5
322
330
1B
100
AcDbEntity
  8
4
100
AcDbLine
 10
420.305914429282
 20
349.7061467628885
 30
0.0
 11
420.305914429282
 21
342.8433276735152
 31
0.0
  0
LINE
  5
323
330
1B
100
AcDbEntity
  8
4
100
AcDbLine
 10
414.8210868719807
 20
349.7061467628885
 30
0.0
 11
414.8210868719807
 21
339.8433276735152
 31
0.0
  0
ARC
  5
324
330
1B
100
AcDbEntity
  8
4
100
AcDbCircle
 10
417.5635006506313
 20
346.967948798236
 30
0.0
 40
3.875378875279244
100
AcDbArc
 50
44.955926762744
 51
135.044073237256
  0
LINE
  5
325
330
1B
100
AcDbEntity
  8
4
100
AcDbLine
 10
436.7603971011863
 20
339.8433276735152
 30
0.0
 11
436.7603971011863
 21
349.7061467628885
 31
0.0
  0
LINE
  5
326
330
1B
100
AcDbEntity
  8
4
100
AcDbLine
 10
431.275569543885
 20
349.7061467628885
 30
0.0
 11
431.275569543885
 21
342.8433276735152
 31
0.0
  0
ARC
  5
327
330
1B
100
AcDbEntity
  8
4
100
AcDbCircle
 10
434.0179833225357
 20
346.967948798236
 30
0.0
 40
3.875378875279264
100
AcDbArc
 50
44.95592676274638
 51
135.0440732372536
  0
LINE
  5
328
330
1B
100
AcDbEntity
  8
L-CENTER
 48
3.0
100
AcDbLine
 10
555.7907419865842
 20
354.4441675536193
 30
0.0
 11
555.7907419865842
 21
293.6469689439132
 31
0.0
  0
LINE
  5
329
330
1B
100
AcDbEntity
  8
4
100
AcDbLine
 10
564.0179833225361
 20
350.8433276735152
 30
0.0
 11
547.5635006506318
 21
350.8433276735152
 31
0.0
  0
ARC
  5
32A
330
1B
100
AcDbEntity
  8
4
100
AcDbCircle
 10
555.7907419865842
 20
337.0475835383379
 30
0.0
 40
13.7957441351769
100
AcDbArc
 50
66.57340249137269
 51
113.4265975086273
  0
LINE
  5
32B
330
1B
100
AcDbEntity
  8
4
100
AcDbLine
 10
544.8210868719812
 20
342.8433276735152
 30
0.0
 11
566.7603971011868
 21
342.8433276735152
 31
0.0
  0
LINE
  5
32C
330
1B
100
AcDbEntity
  8
4
100
AcDbLine
 10
544.8210868719812
 20
339.8433276735152
 30
0.0
 11
566.7603971011868
 21
339.8433276735152
 31
0.0
  0
LINE
  5
32D
330
1B
100
AcDbEntity
  8
4
100
AcDbLine
 10
550.3059144292824
 20
349.7061467628885
 30
0.0
 11
550.3059144292824
 21
342.8433276735152
 31
0.0
  0
LINE
  5
32E
330
1B
100
AcDbEntity
  8
4
100
AcDbLine
 10
544.8210868719812
 20
349.7061467628885
 30
0.0
 11
544.8210868719812
 21
339.8433276735152
 31
0.0
  0
ARC
  5
32F
330
1B
100
AcDbEntity
  8
L-CENTER
 48
3.0
100
AcDbCircle
 10
547.5635006506318
 20
346.967948798236
 30
0.0
 40
3.875378875279244
100
AcDbArc
 50
44.955926762744
 51
135.044073237256
  0
LINE
  5
330
330
1B
100
AcDbEntity
  8
4
100
AcDbLine
 10
566.7603971011868
 20
339.8433276735152
 30
0.0
 11
566.7603971011868
 21
349.7061467628885
 31
0.0
  0
LINE
  5
331
330
1B
100
AcDbEntity
  8
4
100
AcDbLine
 10
561.2755695438855
 20
349.7061467628885
 30
0.0
 11
561.2755695438855
 21
342.8433276735152
 31
0.0
  0
ARC
  5
332
330
1B
100
AcDbEntity
  8
4
100
AcDbCircle
 10
564.0179833225361
 20
346.967948798236
 30
0.0
 40
3.875378875279264
100
AcDbArc
 50
44.95592676274638
 51
135.0440732372536
  0
ARC
  5
333
330
1B
100
AcDbEntity
  8
4
100
AcDbCircle
 10
807.5635006506309
 20
346.967948798236
 30
0.0
 40
3.875378875279264
100
AcDbArc
 50
44.95592676273925
 51
135.0440732372536
  0
LINE
  5
334
330
1B
100
AcDbEntity
  8
4
100
AcDbLine
 10
810.305914429282
 20
349.7061467628885
 30
0.0
 11
810.305914429282
 21
342.8433276735152
 31
0.0
  0
LINE
  5
335
330
1B
100
AcDbEntity
  8
4
100
AcDbLine
 10
804.8210868719807
 20
339.8433276735152
 30
0.0
 11
804.8210868719807
 21
349.7061467628885
 31
0.0
  0
ARC
  5
336
330
1B
100
AcDbEntity
  8
4
100
AcDbCircle
 10
824.0179833225357
 20
346.967948798236
 30
0.0
 40
3.875378875279244
100
AcDbArc
 50
44.955926762744
 51
135.0440732372607
  0
LINE
  5
337
330
1B
100
AcDbEntity
  8
4
100
AcDbLine
 10
826.7603971011858
 20
349.7061467628885
 30
0.0
 11
826.7603971011858
 21
339.8433276735152
 31
0.0
  0
LINE
  5
338
330
1B
100
AcDbEntity
  8
4
100
AcDbLine
 10
821.2755695438846
 20
349.7061467628885
 30
0.0
 11
821.2755695438846
 21
342.8433276735152
 31
0.0
  0
LINE
  5
339
330
1B
100
AcDbEntity
  8
4
100
AcDbLine
 10
826.7603971011858
 20
339.8433276735152
 30
0.0
 11
804.8210868719807
 21
339.8433276735152
 31
0.0
  0
LINE
  5
33A
330
1B
100
AcDbEntity
  8
4
100
AcDbLine
 10
826.7603971011858
 20
342.8433276735152
 30
0.0
 11
804.8210868719807
 21
342.8433276735152
 31
0.0
  0
ARC
  5
33B
330
1B
100
AcDbEntity
  8
4
100
AcDbCircle
 10
815.7907419865833
 20
337.0475835383379
 30
0.0
 40
13.7957441351769
100
AcDbArc
 50
66.57340249137269
 51
113.4265975086292
  0
LINE
  5
33C
330
1B
100
AcDbEntity
  8
4
100
AcDbLine
 10
807.5635006506309
 20
350.8433276735152
 30
0.0
 11
824.0179833225357
 21
350.8433276735152
 31
0.0
  0
LINE
  5
33D
330
1B
100
AcDbEntity
  8
L-CENTER
 48
3.0
100
AcDbLine
 10
815.7907419865833
 20
354.4441675536193
 30
0.0
 11
815.7907419865833
 21
293.6469689439132
 31
0.0
  0
ARC
  5
33E
330
1B
100
AcDbEntity
  8
4
100
AcDbCircle
 10
937.5635006506318
 20
346.967948798236
 30
0.0
 40
3.875378875279264
100
AcDbArc
 50
44.95592676274638
 51
135.0440732372607
  0
LINE
  5
33F
330
1B
100
AcDbEntity
  8
4
100
AcDbLine
 10
940.305914429282
 20
349.7061467628885
 30
0.0
 11
940.305914429282
 21
342.8433276735152
 31
0.0
  0
LINE
  5
340
330
1B
100
AcDbEntity
  8
4
100
AcDbLine
 10
934.8210868719807
 20
339.8433276735152
 30
0.0
 11
934.8210868719807
 21
349.7061467628885
 31
0.0
  0
ARC
  5
341
330
1B
100
AcDbEntity
  8
4
100
AcDbCircle
 10
954.0179833225357
 20
346.967948798236
 30
0.0
 40
3.875378875279244
100
AcDbArc
 50
44.95592676273687
 51
135.044073237256
  0
LINE
  5
342
330
1B
100
AcDbEntity
  8
4
100
AcDbLine
 10
956.7603971011868
 20
349.7061467628885
 30
0.0
 11
956.7603971011868
 21
339.8433276735152
 31
0.0
  0
LINE
  5
343
330
1B
100
AcDbEntity
  8
4
100
AcDbLine
 10
951.2755695438855
 20
349.7061467628885
 30
0.0
 11
951.2755695438855
 21
342.8433276735152
 31
0.0
  0
LINE
  5
344
330
1B
100
AcDbEntity
  8
4
100
AcDbLine
 10
956.7603971011868
 20
339.8433276735152
 30
0.0
 11
934.8210868719807
 21
339.8433276735152
 31
0.0
  0
LINE
  5
345
330
1B
100
AcDbEntity
  8
4
100
AcDbLine
 10
956.7603971011868
 20
342.8433276735152
 30
0.0
 11
934.8210868719807
 21
342.8433276735152
 31
0.0
  0
ARC
  5
346
330
1B
100
AcDbEntity
  8
4
100
AcDbCircle
 10
945.7907419865833
 20
337.0475835383379
 30
0.0
 40
13.7957441351769
100
AcDbArc
 50
66.57340249137077
 51
113.4265975086273
  0
LINE
  5
347
330
1B
100
AcDbEntity
  8
4
100
AcDbLine
 10
937.5635006506318
 20
350.8433276735152
 30
0.0
 11
954.0179833225357
 21
350.8433276735152
 31
0.0
  0
LINE
  5
348
330
1B
100
AcDbEntity
  8
L-CENTER
 48
3.0
100
AcDbLine
 10
945.7907419865833
 20
354.4441675536193
 30
0.0
 11
945.7907419865833
 21
293.6469689439132
 31
0.0
  0
LINE
  5
349
330
1B
100
AcDbEntity
  8
4
100
AcDbLine
 10
1476.235328549994
 20
357.7433276735152
 30
0.0
 11
1476.235328549994
 21
366.3398007276625
 31
0.0
  0
LINE
  5
34A
330
1B
100
AcDbEntity
  8
4
100
AcDbLine
 10
1490.95776041433
 20
366.3398007276625
 30
0.0
 11
1490.95776041433
 21
360.2433276735152
 31
0.0
  0
LINE
  5
34B
330
1B
100
AcDbEntity
  8
4
100
AcDbLine
 10
1481.142805838106
 20
366.3398007276625
 30
0.0
 11
1481.142805838106
 21
360.2433276735152
 31
0.0
  0
ARC
  5
34C
330
1B
100
AcDbEntity
  8
4
100
AcDbCircle
 10
1486.050283126218
 20
353.464162376056
 30
0.0
 40
13.77916529745958
100
AcDbArc
 50
69.13593563608057
 51
110.8640643639194
  0
ARC
  5
34D
330
1B
100
AcDbEntity
  8
4
100
AcDbCircle
 10
1478.68906719405
 20
363.4597137444559
 30
0.0
 40
3.783613929059507
100
AcDbArc
 50
49.57010315516856
 51
130.4298968448315
  0
LINE
  5
34E
330
1B
100
AcDbEntity
  8
4
100
AcDbLine
 10
1495.865237702442
 20
366.3398007276625
 30
0.0
 11
1495.865237702442
 21
357.7433276735152
 31
0.0
  0
ARC
  5
34F
330
1B
100
AcDbEntity
  8
4
100
AcDbCircle
 10
1493.411499058386
 20
363.4597137444559
 30
0.0
 40
3.783613929059507
100
AcDbArc
 50
49.57010315517714
 51
130.4298968448228
  0
LINE
  5
350
330
1B
100
AcDbEntity
  8
4
100
AcDbLine
 10
1478.68906719405
 20
367.2433276735152
 30
0.0
 11
1493.411499058386
 21
367.2433276735152
 31
0.0
  0
LINE
  5
351
330
1B
100
AcDbEntity
  8
4
100
AcDbLine
 10
1495.865237702442
 20
360.2433276735152
 30
0.0
 11
1476.235328549994
 21
360.2433276735152
 31
0.0
  0
LINE
  5
352
330
1B
100
AcDbEntity
  8
4
100
AcDbLine
 10
1495.865237702442
 20
357.7433276735152
 30
0.0
 11
1476.235328549994
 21
357.7433276735152
 31
0.0
  0
LINE
  5
353
330
1B
100
AcDbEntity
  8
L-CENTER
 48
3.0
100
AcDbLine
 10
1486.050283126218
 20
336.1168051533717
 30
0.0
 11
1486.050283126218
 21
370.1113059280957
 31
0.0
  0
LINE
  5
354
330
1B
100
AcDbEntity
  8
4
100
AcDbLine
 10
1568.159210104226
 20
357.7433276735152
 30
0.0
 11
1587.789119256674
 21
357.7433276735152
 31
0.0
  0
LINE
  5
355
330
1B
100
AcDbEntity
  8
4
100
AcDbLine
 10
1568.159210104226
 20
360.2433276735152
 30
0.0
 11
1587.789119256674
 21
360.2433276735152
 31
0.0
  0
ARC
  5
356
330
1B
100
AcDbEntity
  8
4
100
AcDbCircle
 10
1570.612948748283
 20
363.4597137444559
 30
0.0
 40
3.783613929059507
100
AcDbArc
 50
49.57010315517714
 51
130.4298968448228
  0
LINE
  5
357
330
1B
100
AcDbEntity
  8
4
100
AcDbLine
 10
1585.335380612618
 20
367.2433276735152
 30
0.0
 11
1570.612948748282
 21
367.2433276735152
 31
0.0
  0
ARC
  5
358
330
1B
100
AcDbEntity
  8
4
100
AcDbCircle
 10
1585.335380612618
 20
363.4597137444559
 30
0.0
 40
3.783613929059507
100
AcDbArc
 50
49.57010315516856
 51
130.4298968448315
  0
ARC
  5
359
330
1B
100
AcDbEntity
  8
4
100
AcDbCircle
 10
1577.974164680451
 20
353.464162376056
 30
0.0
 40
13.77916529745958
100
AcDbArc
 50
69.13593563608057
 51
110.8640643639194
  0
LINE
  5
35A
330
1B
100
AcDbEntity
  8
4
100
AcDbLine
 10
1582.881641968562
 20
366.3398007276625
 30
0.0
 11
1582.881641968562
 21
360.2433276735152
 31
0.0
  0
LINE
  5
35B
330
1B
100
AcDbEntity
  8
4
100
AcDbLine
 10
1573.066687392339
 20
366.3398007276625
 30
0.0
 11
1573.066687392339
 21
360.2433276735152
 31
0.0
  0
LINE
  5
35C
330
1B
100
AcDbEntity
  8
4
100
AcDbLine
 10
1587.789119256674
 20
357.7433276735152
 30
0.0
 11
1587.789119256674
 21
366.3398007276625
 31
0.0
  0
LINE
  5
35D
330
1B
100
AcDbEntity
  8
4
100
AcDbLine
 10
1568.159210104226
 20
366.3398007276625
 30
0.0
 11
1568.159210104226
 21
357.7433276735152
 31
0.0
  0
LINE
  5
35E
330
1B
100
AcDbEntity
  8
L-CENTER
 48
3.0
100
AcDbLine
 10
1577.974164680451
 20
336.1168051533717
 30
0.0
 11
1577.974164680451
 21
370.1113059280957
 31
0.0
  0
LINE
  5
35F
330
1B
100
AcDbEntity
  8
L-CENTER
 48
3.0
100
AcDbLine
 10
1320.84561891938
 20
354.4441675536193
 30
0.0
 11
1320.84561891938
 21
293.6469689439132
 31
0.0
  0
LINE
  5
360
330
1B
100
AcDbEntity
  8
4
100
AcDbLine
 10
1329.072860255332
 20
350.8433276735152
 30
0.0
 11
1312.618377583427
 21
350.8433276735152
 31
0.0
  0
ARC
  5
361
330
1B
100
AcDbEntity
  8
4
100
AcDbCircle
 10
1320.84561891938
 20
337.0475835383379
 30
0.0
 40
13.7957441351769
100
AcDbArc
 50
66.57340249137077
 51
113.4265975086273
  0
LINE
  5
362
330
1B
100
AcDbEntity
  8
4
100
AcDbLine
 10
1309.875963804777
 20
342.8433276735152
 30
0.0
 11
1331.815274033982
 21
342.8433276735152
 31
0.0
  0
LINE
  5
363
330
1B
100
AcDbEntity
  8
4
100
AcDbLine
 10
1309.875963804777
 20
339.8433276735152
 30
0.0
 11
1331.815274033982
 21
339.8433276735152
 31
0.0
  0
LINE
  5
364
330
1B
100
AcDbEntity
  8
4
100
AcDbLine
 10
1315.360791362078
 20
349.7061467628885
 30
0.0
 11
1315.360791362078
 21
342.8433276735152
 31
0.0
  0
LINE
  5
365
330
1B
100
AcDbEntity
  8
4
100
AcDbLine
 10
1309.875963804777
 20
349.7061467628885
 30
0.0
 11
1309.875963804777
 21
339.8433276735152
 31
0.0
  0
ARC
  5
366
330
1B
100
AcDbEntity
  8
4
100
AcDbCircle
 10
1312.618377583427
 20
346.967948798236
 30
0.0
 40
3.875378875279244
100
AcDbArc
 50
44.95592676273687
 51
135.0440732372524
  0
LINE
  5
367
330
1B
100
AcDbEntity
  8
4
100
AcDbLine
 10
1331.815274033982
 20
339.8433276735152
 30
0.0
 11
1331.815274033982
 21
349.7061467628885
 31
0.0
  0
LINE
  5
368
330
1B
100
AcDbEntity
  8
4
100
AcDbLine
 10
1326.330446476681
 20
349.7061467628885
 30
0.0
 11
1326.330446476681
 21
342.8433276735152
 31
0.0
  0
ARC
  5
369
330
1B
100
AcDbEntity
  8
4
100
AcDbCircle
 10
1329.072860255332
 20
346.967948798236
 30
0.0
 40
3.875378875279264
100
AcDbArc
 50
44.95592676274758
 51
135.044073237262
  0
ARC
  5
36A
330
1B
100
AcDbEntity
  8
4
100
AcDbCircle
 10
1554.239465239286
 20
346.967948798236
 30
0.0
 40
3.875378875279264
100
AcDbArc
 50
44.95592676274638
 51
135.0440732372536
  0
LINE
  5
36B
330
1B
100
AcDbEntity
  8
4
100
AcDbLine
 10
1551.497051460635
 20
349.7061467628885
 30
0.0
 11
1551.497051460635
 21
342.8433276735152
 31
0.0
  0
LINE
  5
36C
330
1B
100
AcDbEntity
  8
4
100
AcDbLine
 10
1556.981879017937
 20
339.8433276735152
 30
0.0
 11
1556.981879017937
 21
349.7061467628885
 31
0.0
  0
ARC
  5
36D
330
1B
100
AcDbEntity
  8
4
100
AcDbCircle
 10
1537.784982567382
 20
346.967948798236
 30
0.0
 40
3.875378875279244
100
AcDbArc
 50
44.95592676274519
 51
135.0440732372548
  0
LINE
  5
36E
330
1B
100
AcDbEntity
  8
4
100
AcDbLine
 10
1535.042568788731
 20
349.7061467628885
 30
0.0
 11
1535.042568788731
 21
339.8433276735152
 31
0.0
  0
LINE
  5
36F
330
1B
100
AcDbEntity
  8
4
100
AcDbLine
 10
1540.527396346032
 20
349.7061467628885
 30
0.0
 11
1540.527396346032
 21
342.8433276735152
 31
0.0
  0
LINE
  5
370
330
1B
100
AcDbEntity
  8
4
100
AcDbLine
 10
1535.042568788731
 20
339.8433276735152
 30
0.0
 11
1556.981879017937
 21
339.8433276735152
 31
0.0
  0
LINE
  5
371
330
1B
100
AcDbEntity
  8
4
100
AcDbLine
 10
1535.042568788731
 20
342.8433276735152
 30
0.0
 11
1556.981879017937
 21
342.8433276735152
 31
0.0
  0
ARC
  5
372
330
1B
100
AcDbEntity
  8
4
100
AcDbCircle
 10
1546.012223903334
 20
337.0475835383379
 30
0.0
 40
13.7957441351769
100
AcDbArc
 50
66.57340249137077
 51
113.4265975086292
  0
LINE
  5
373
330
1B
100
AcDbEntity
  8
4
100
AcDbLine
 10
1554.239465239286
 20
350.8433276735152
 30
0.0
 11
1537.784982567382
 21
350.8433276735152
 31
0.0
  0
ARC
  5
374
330
1B
100
AcDbEntity
  8
4
100
AcDbCircle
 10
1762.95158755134
 20
346.9679487981748
 30
0.0
 40
3.875378875279264
100
AcDbArc
 50
44.95592676273687
 51
135.0440732372429
  0
LINE
  5
375
330
1B
100
AcDbEntity
  8
4
100
AcDbLine
 10
1765.694001329991
 20
349.7061467628265
 30
0.0
 11
1765.694001329989
 21
342.8433276734532
 31
0.0
  0
LINE
  5
376
330
1B
100
AcDbEntity
  8
4
100
AcDbLine
 10
1760.209173772687
 20
339.8433276734547
 30
0.0
 11
1760.20917377269
 21
349.706146762828
 31
0.0
  0
LINE
  5
377
330
1B
100
AcDbEntity
  8
4
100
AcDbLine
 10
1776.663656444594
 20
349.7061467628234
 30
0.0
 11
1776.663656444592
 21
342.8433276734502
 31
0.0
  0
ARC
  5
378
330
1B
100
AcDbEntity
  8
4
100
AcDbCircle
 10
1771.178828887289
 20
337.0475835382744
 30
0.0
 40
13.7957441351769
100
AcDbArc
 50
66.5734024913562
 51
113.4265975086108
  0
LINE
  5
379
330
1B
100
AcDbEntity
  8
4
100
AcDbLine
 10
1762.951587551341
 20
350.843327673454
 30
0.0
 11
1779.406070223245
 21
350.8433276734494
 31
0.0
  0
ARC
  5
37A
330
1B
100
AcDbEntity
  8
4
100
AcDbCircle
 10
1779.406070223244
 20
346.9679487981701
 30
0.0
 40
3.875378875279244
100
AcDbArc
 50
44.95592676272618
 51
135.0440732372346
  0
LINE
  5
37B
330
1B
100
AcDbEntity
  8
4
100
AcDbLine
 10
1782.148484001895
 20
349.7061467628218
 30
0.0
 11
1782.148484001893
 21
339.8433276734486
 31
0.0
  0
LINE
  5
37C
330
1B
100
AcDbEntity
  8
4
100
AcDbLine
 10
1782.148484001893
 20
339.8433276734486
 30
0.0
 11
1760.209173772687
 21
339.8433276734547
 31
0.0
  0
LINE
  5
37D
330
1B
100
AcDbEntity
  8
L-CENTER
 48
3.0
100
AcDbLine
 10
1771.178828887294
 20
354.4441675535558
 30
0.0
 11
1771.178828887276
 21
293.6469689439132
 31
0.0
  0
LINE
  5
37E
330
1B
100
AcDbEntity
  8
4
100
AcDbLine
 10
372.294268932436
 20
224.1548426751939
 30
0.0
 11
380.8907419865833
 21
224.1548426751939
 31
0.0
  0
LINE
  5
37F
330
1B
100
AcDbEntity
  8
4
100
AcDbLine
 10
380.8907419865833
 20
243.7847518276413
 30
0.0
 11
372.294268932436
 21
243.7847518276413
 31
0.0
  0
LINE
  5
380
330
1B
100
AcDbEntity
  8
4
100
AcDbLine
 10
378.3907419865833
 20
224.1548426751939
 30
0.0
 11
378.3907419865833
 21
243.7847518276413
 31
0.0
  0
ARC
  5
381
330
1B
100
AcDbEntity
  8
4
100
AcDbCircle
 10
375.1743559156426
 20
241.3310131835852
 30
0.0
 40
3.783613929059507
100
AcDbArc
 50
139.5701031551704
 51
220.4298968448296
  0
ARC
  5
382
330
1B
100
AcDbEntity
  8
4
100
AcDbCircle
 10
385.1699072840426
 20
233.9697972514178
 30
0.0
 40
13.77916529745958
100
AcDbArc
 50
159.1359356360801
 51
200.8640643639199
  0
LINE
  5
383
330
1B
100
AcDbEntity
  8
4
100
AcDbLine
 10
371.3907419865833
 20
241.3310131835852
 30
0.0
 11
371.3907419865833
 21
226.60858131925
 31
0.0
  0
ARC
  5
384
330
1B
100
AcDbEntity
  8
4
100
AcDbCircle
 10
375.1743559156426
 20
226.60858131925
 30
0.0
 40
3.783613929059507
100
AcDbArc
 50
139.5701031551704
 51
220.4298968448296
  0
LINE
  5
385
330
1B
100
AcDbEntity
  8
4
100
AcDbLine
 10
372.294268932436
 20
238.8772745395296
 30
0.0
 11
378.3907419865833
 21
238.8772745395296
 31
0.0
  0
LINE
  5
386
330
1B
100
AcDbEntity
  8
4
100
AcDbLine
 10
372.294268932436
 20
229.0623199633056
 30
0.0
 11
378.3907419865833
 21
229.0623199633056
 31
0.0
  0
LINE
  5
387
330
1B
100
AcDbEntity
  8
4
100
AcDbLine
 10
380.8907419865833
 20
224.1548426751939
 30
0.0
 11
380.8907419865833
 21
243.7847518276413
 31
0.0
  0
CIRCLE
  5
388
330
1B
100
AcDbEntity
  8
4
100
AcDbCircle
 10
1664.585879738944
 20
233.9697972514177
 30
0.0
 40
8.5
  0
LINE
  5
389
330
1B
100
AcDbEntity
  8
4
100
AcDbLine
 10
1655.105361629915
 20
236.5100944225605
 30
0.0
 11
1657.645658801058
 21
227.0295763135318
 31
0.0
  0
LINE
  5
38A
330
1B
100
AcDbEntity
  8
4
100
AcDbLine
 10
1674.066397847973
 20
231.4295000802745
 30
0.0
 11
1671.52610067683
 21
240.9100181893034
 31
0.0
  0
LINE
  5
38B
330
1B
100
AcDbEntity
  8
4
100
AcDbLine
 10
1657.645658801058
 20
227.0295763135318
 30
0.0
 11
1667.126176910087
 21
224.489279142389
 31
0.0
  0
LINE
  5
38C
330
1B
100
AcDbEntity
  8
4
100
AcDbLine
 10
1667.126176910087
 20
224.489279142389
 30
0.0
 11
1674.066397847973
 21
231.4295000802745
 31
0.0
  0
LINE
  5
38D
330
1B
100
AcDbEntity
  8
4
100
AcDbLine
 10
1671.52610067683
 20
240.9100181893034
 30
0.0
 11
1662.045582567801
 21
243.450315360446
 31
0.0
  0
LINE
  5
38E
330
1B
100
AcDbEntity
  8
4
100
AcDbLine
 10
1662.045582567801
 20
243.450315360446
 30
0.0
 11
1655.105361629915
 21
236.5100944225605
 31
0.0
  0
CIRCLE
  5
38F
330
1B
100
AcDbEntity
  8
4
100
AcDbCircle
 10
1749.438630774527
 20
233.9697345447079
 30
0.0
 40
8.5
  0
LINE
  5
390
330
1B
100
AcDbEntity
  8
4
100
AcDbLine
 10
1739.958112665499
 20
236.5100317158507
 30
0.0
 11
1742.498409836641
 21
227.029513606822
 31
0.0
  0
LINE
  5
391
330
1B
100
AcDbEntity
  8
4
100
AcDbLine
 10
1758.919148883556
 20
231.4294373735646
 30
0.0
 11
1756.378851712413
 21
240.9099554825935
 31
0.0
  0
LINE
  5
392
330
1B
100
AcDbEntity
  8
4
100
AcDbLine
 10
1742.498409836641
 20
227.029513606822
 30
0.0
 11
1751.97892794567
 21
224.4892164356792
 31
0.0
  0
LINE
  5
393
330
1B
100
AcDbEntity
  8
4
100
AcDbLine
 10
1751.97892794567
 20
224.4892164356792
 30
0.0
 11
1758.919148883556
 21
231.4294373735646
 31
0.0
  0
LINE
  5
394
330
1B
100
AcDbEntity
  8
4
100
AcDbLine
 10
1756.378851712413
 20
240.9099554825935
 30
0.0
 11
1746.898333603385
 21
243.4502526537361
 31
0.0
  0
LINE
  5
395
330
1B
100
AcDbEntity
  8
4
100
AcDbLine
 10
1746.898333603385
 20
243.4502526537361
 30
0.0
 11
1739.958112665499
 21
236.5100317158507
 31
0.0
  0
CIRCLE
  5
396
330
1B
100
AcDbEntity
  8
4
100
AcDbCircle
 10
1664.585939532319
 20
149.116798302499
 30
0.0
 40
8.5
  0
LINE
  5
397
330
1B
100
AcDbEntity
  8
4
100
AcDbLine
 10
1655.10542142329
 20
151.6570954736418
 30
0.0
 11
1657.645718594433
 21
142.1765773646131
 31
0.0
  0
LINE
  5
398
330
1B
100
AcDbEntity
  8
4
100
AcDbLine
 10
1674.066457641347
 20
146.5765011313557
 30
0.0
 11
1671.526160470204
 21
156.0570192403846
 31
0.0
  0
LINE
  5
399
330
1B
100
AcDbEntity
  8
4
100
AcDbLine
 10
1657.645718594433
 20
142.1765773646131
 30
0.0
 11
1667.126236703462
 21
139.6362801934703
 31
0.0
  0
LINE
  5
39A
330
1B
100
AcDbEntity
  8
4
100
AcDbLine
 10
1667.126236703462
 20
139.6362801934703
 30
0.0
 11
1674.066457641347
 21
146.5765011313557
 31
0.0
  0
LINE
  5
39B
330
1B
100
AcDbEntity
  8
4
100
AcDbLine
 10
1671.526160470204
 20
156.0570192403846
 30
0.0
 11
1662.045642361176
 21
158.5973164115272
 31
0.0
  0
LINE
  5
39C
330
1B
100
AcDbEntity
  8
4
100
AcDbLine
 10
1662.045642361176
 20
158.5973164115272
 30
0.0
 11
1655.10542142329
 21
151.6570954736418
 31
0.0
  0
CIRCLE
  5
39D
330
1B
100
AcDbEntity
  8
4
100
AcDbCircle
 10
1749.438576618738
 20
149.1168666466018
 30
0.0
 40
8.5
  0
LINE
  5
39E
330
1B
100
AcDbEntity
  8
4
100
AcDbLine
 10
1739.958058509709
 20
151.6571638177446
 30
0.0
 11
1742.498355680852
 21
142.1766457087159
 31
0.0
  0
LINE
  5
39F
330
1B
100
AcDbEntity
  8
4
100
AcDbLine
 10
1758.919094727766
 20
146.5765694754585
 30
0.0
 11
1756.378797556623
 21
156.0570875844875
 31
0.0
  0
LINE
  5
3A0
330
1B
100
AcDbEntity
  8
4
100
AcDbLine
 10
1742.498355680852
 20
142.1766457087159
 30
0.0
 11
1751.97887378988
 21
139.6363485375731
 31
0.0
  0
LINE
  5
3A1
330
1B
100
AcDbEntity
  8
4
100
AcDbLine
 10
1751.97887378988
 20
139.6363485375731
 30
0.0
 11
1758.919094727766
 21
146.5765694754585
 31
0.0
  0
LINE
  5
3A2
330
1B
100
AcDbEntity
  8
4
100
AcDbLine
 10
1756.378797556623
 20
156.0570875844875
 30
0.0
 11
1746.898279447595
 21
158.5973847556301
 31
0.0
  0
LINE
  5
3A3
330
1B
100
AcDbEntity
  8
4
100
AcDbLine
 10
1746.898279447595
 20
158.5973847556301
 30
0.0
 11
1739.958058509709
 21
151.6571638177446
 31
0.0
  0
LINE
  5
3A4
330
1B
100
AcDbEntity
  8
4
100
AcDbLine
 10
380.8907419865828
 20
139.3019035193895
 30
0.0
 11
372.2942689324356
 21
139.3019035193897
 31
0.0
  0
LINE
  5
3A5
330
1B
100
AcDbEntity
  8
4
100
AcDbLine
 10
372.2942689324356
 20
158.9318126718372
 30
0.0
 11
380.8907419865828
 21
158.931812671837
 31
0.0
  0
LINE
  5
3A6
330
1B
100
AcDbEntity
  8
4
100
AcDbLine
 10
372.2942689324356
 20
154.0243353837254
 30
0.0
 11
378.3907419865828
 21
154.0243353837253
 31
0.0
  0
LINE
  5
3A7
330
1B
100
AcDbEntity
  8
4
100
AcDbLine
 10
372.2942689324356
 20
144.2093808075015
 30
0.0
 11
378.3907419865828
 21
144.2093808075014
 31
0.0
  0
ARC
  5
3A8
330
1B
100
AcDbEntity
  8
4
100
AcDbCircle
 10
375.1743559156422
 20
156.478074027781
 30
0.0
 40
3.783613929059507
100
AcDbArc
 50
139.5701031551704
 51
220.4298968448296
  0
LINE
  5
3A9
330
1B
100
AcDbEntity
  8
4
100
AcDbLine
 10
371.3907419865828
 20
141.7556421634458
 30
0.0
 11
371.3907419865828
 21
156.4780740277811
 31
0.0
  0
ARC
  5
3AA
330
1B
100
AcDbEntity
  8
4
100
AcDbCircle
 10
385.1699072840421
 20
149.116858095613
 30
0.0
 40
13.77916529745958
100
AcDbArc
 50
159.1359356360786
 51
200.8640643639189
  0
ARC
  5
3AB
330
1B
100
AcDbEntity
  8
4
100
AcDbCircle
 10
375.1743559156422
 20
141.7556421634457
 30
0.0
 40
3.783613929059507
100
AcDbArc
 50
139.5701031551704
 51
220.4298968448228
  0
LINE
  5
3AC
330
1B
100
AcDbEntity
  8
4
100
AcDbLine
 10
378.3907419865828
 20
158.9318126718371
 30
0.0
 11
378.3907419865828
 21
139.3019035193896
 31
0.0
  0
LINE
  5
3AD
330
1B
100
AcDbEntity
  8
4
100
AcDbLine
 10
380.8907419865828
 20
158.931812671837
 30
0.0
 11
380.8907419865828
 21
139.3019035193895
 31
0.0
  0
LINE
  5
3AE
330
1B
100
AcDbEntity
  8
4
100
AcDbLine
 10
990.6907419865837
 20
243.7847518276385
 30
0.0
 11
999.287215040731
 21
243.7847518276384
 31
0.0
  0
LINE
  5
3AF
330
1B
100
AcDbEntity
  8
4
100
AcDbLine
 10
999.2872150407305
 20
224.1548426751909
 30
0.0
 11
990.6907419865832
 21
224.154842675191
 31
0.0
  0
LINE
  5
3B0
330
1B
100
AcDbEntity
  8
4
100
AcDbLine
 10
999.2872150407305
 20
229.0623199633027
 30
0.0
 11
993.1907419865832
 21
229.0623199633027
 31
0.0
  0
LINE
  5
3B1
330
1B
100
AcDbEntity
  8
4
100
AcDbLine
 10
999.2872150407305
 20
238.8772745395266
 30
0.0
 11
993.1907419865832
 21
238.8772745395266
 31
0.0
  0
ARC
  5
3B2
330
1B
100
AcDbEntity
  8
4
100
AcDbCircle
 10
996.4071280575239
 20
226.608581319247
 30
0.0
 40
3.783613929059507
100
AcDbArc
 50
319.5701031551772
 51
40.42989684482285
  0
LINE
  5
3B3
330
1B
100
AcDbEntity
  8
4
100
AcDbLine
 10
1000.190741986583
 20
241.3310131835823
 30
0.0
 11
1000.190741986583
 21
226.608581319247
 31
0.0
  0
ARC
  5
3B4
330
1B
100
AcDbEntity
  8
4
100
AcDbCircle
 10
986.411576689124
 20
233.969797251415
 30
0.0
 40
13.77916529745958
100
AcDbArc
 50
339.1359356360801
 51
20.86406436391942
  0
ARC
  5
3B5
330
1B
100
AcDbEntity
  8
4
100
AcDbCircle
 10
996.4071280575239
 20
241.3310131835823
 30
0.0
 40
3.783613929059507
100
AcDbArc
 50
319.5701031551772
 51
40.42989684482285
  0
LINE
  5
3B6
330
1B
100
AcDbEntity
  8
4
100
AcDbLine
 10
993.1907419865832
 20
224.1548426751909
 30
0.0
 11
993.1907419865837
 21
243.7847518276384
 31
0.0
  0
LINE
  5
3B7
330
1B
100
AcDbEntity
  8
4
100
AcDbLine
 10
990.6907419865832
 20
158.9318126718341
 30
0.0
 11
990.6907419865832
 21
139.3019035193867
 31
0.0
  0
LINE
  5
3B8
330
1B
100
AcDbEntity
  8
4
100
AcDbLine
 10
993.1907419865832
 20
158.9318126718341
 30
0.0
 11
993.1907419865832
 21
139.3019035193867
 31
0.0
  0
ARC
  5
3B9
330
1B
100
AcDbEntity
  8
4
100
AcDbCircle
 10
996.4071280575239
 20
141.7556421634428
 30
0.0
 40
3.783613929059507
100
AcDbArc
 50
319.5701031551772
 51
40.42989684482285
  0
ARC
  5
3BA
330
1B
100
AcDbEntity
  8
4
100
AcDbCircle
 10
986.411576689124
 20
149.1168580956102
 30
0.0
 40
13.77916529745958
100
AcDbArc
 50
339.1359356360805
 51
20.86406436391987
  0
LINE
  5
3BB
330
1B
100
AcDbEntity
  8
4
100
AcDbLine
 10
1000.190741986583
 20
141.7556421634429
 30
0.0
 11
1000.190741986583
 21
156.4780740277781
 31
0.0
  0
ARC
  5
3BC
330
1B
100
AcDbEntity
  8
4
100
AcDbCircle
 10
996.4071280575239
 20
156.478074027778
 30
0.0
 40
3.783613929059507
100
AcDbArc
 50
319.5701031551699
 51
40.42989684483014
  0
LINE
  5
3BD
330
1B
100
AcDbEntity
  8
4
100
AcDbLine
 10
999.2872150407305
 20
144.2093808074985
 30
0.0
 11
993.1907419865832
 21
144.2093808074984
 31
0.0
  0
LINE
  5
3BE
330
1B
100
AcDbEntity
  8
4
100
AcDbLine
 10
999.2872150407305
 20
154.0243353837225
 30
0.0
 11
993.1907419865832
 21
154.0243353837224
 31
0.0
  0
LINE
  5
3BF
330
1B
100
AcDbEntity
  8
4
100
AcDbLine
 10
999.2872150407305
 20
158.9318126718342
 30
0.0
 11
990.6907419865832
 21
158.9318126718341
 31
0.0
  0
LINE
  5
3C0
330
1B
100
AcDbEntity
  8
4
100
AcDbLine
 10
990.6907419865832
 20
139.3019035193867
 30
0.0
 11
999.2872150407305
 21
139.3019035193868
 31
0.0
  0
LINE
  5
3C1
330
1B
100
AcDbEntity
  8
4
100
AcDbLine
 10
990.6907419865832
 20
1155.505105913737
 30
0.0
 11
999.2872150407305
 21
1155.505105913737
 31
0.0
  0
LINE
  5
3C2
330
1B
100
AcDbEntity
  8
4
100
AcDbLine
 10
999.2872150407301
 20
1175.135015066185
 30
0.0
 11
990.6907419865828
 21
1175.135015066185
 31
0.0
  0
LINE
  5
3C3
330
1B
100
AcDbEntity
  8
4
100
AcDbLine
 10
999.2872150407301
 20
1170.227537778073
 30
0.0
 11
993.1907419865828
 21
1170.227537778073
 31
0.0
  0
LINE
  5
3C4
330
1B
100
AcDbEntity
  8
4
100
AcDbLine
 10
999.2872150407305
 20
1160.41258320185
 30
0.0
 11
993.1907419865832
 21
1160.41258320185
 31
0.0
  0
ARC
  5
3C5
330
1B
100
AcDbEntity
  8
4
100
AcDbCircle
 10
996.4071280575234
 20
1172.681276422129
 30
0.0
 40
3.783613929059507
100
AcDbArc
 50
319.5701031551686
 51
40.42989684482285
  0
LINE
  5
3C6
330
1B
100
AcDbEntity
  8
4
100
AcDbLine
 10
1000.190741986583
 20
1157.958844557794
 30
0.0
 11
1000.190741986583
 21
1172.681276422129
 31
0.0
  0
ARC
  5
3C7
330
1B
100
AcDbEntity
  8
4
100
AcDbCircle
 10
986.4115766891235
 20
1165.320060489961
 30
0.0
 40
13.77916529745958
100
AcDbArc
 50
339.1359356360825
 51
20.86406436392153
  0
ARC
  5
3C8
330
1B
100
AcDbEntity
  8
4
100
AcDbCircle
 10
996.4071280575239
 20
1157.958844557794
 30
0.0
 40
3.783613929059507
100
AcDbArc
 50
319.5701031551772
 51
40.42989684483145
  0
LINE
  5
3C9
330
1B
100
AcDbEntity
  8
4
100
AcDbLine
 10
993.1907419865828
 20
1175.135015066185
 30
0.0
 11
993.1907419865832
 21
1155.505105913737
 31
0.0
  0
LINE
  5
3CA
330
1B
100
AcDbEntity
  8
4
100
AcDbLine
 10
990.6907419865828
 20
1175.135015066185
 30
0.0
 11
990.6907419865832
 21
1155.505105913737
 31
0.0
  0
LINE
  5
3CE
330
1B
100
AcDbEntity
  8
4
100
AcDbLine
 10
990.6907419865832
 20
1240.358045069542
 30
0.0
 11
990.6907419865832
 21
1259.987954221989
 31
0.0
  0
LINE
  5
3CF
330
1B
100
AcDbEntity
  8
4
100
AcDbLine
 10
993.1907419865832
 20
1240.358045069542
 30
0.0
 11
993.1907419865832
 21
1259.987954221989
 31
0.0
  0
ARC
  5
3D0
330
1B
100
AcDbEntity
  8
4
100
AcDbCircle
 10
996.4071280575239
 20
1257.534215577933
 30
0.0
 40
3.783613929059507
100
AcDbArc
 50
319.5701031551686
 51
40.42989684483145
  0
ARC
  5
3D1
330
1B
100
AcDbEntity
  8
4
100
AcDbCircle
 10
986.411576689124
 20
1250.172999645766
 30
0.0
 40
13.77916529745958
100
AcDbArc
 50
339.1359356360825
 51
20.86406436392153
  0
LINE
  5
3D2
330
1B
100
AcDbEntity
  8
4
100
AcDbLine
 10
1000.190741986583
 20
1257.534215577933
 30
0.0
 11
1000.190741986583
 21
1242.811783713598
 31
0.0
  0
ARC
  5
3D3
330
1B
100
AcDbEntity
  8
4
100
AcDbCircle
 10
996.4071280575239
 20
1242.811783713598
 30
0.0
 40
3.783613929059507
100
AcDbArc
 50
319.5701031551686
 51
40.42989684483145
  0
LINE
  5
3D4
330
1B
100
AcDbEntity
  8
4
100
AcDbLine
 10
999.2872150407305
 20
1255.080476933877
 30
0.0
 11
993.1907419865832
 21
1255.080476933877
 31
0.0
  0
LINE
  5
3D5
330
1B
100
AcDbEntity
  8
4
100
AcDbLine
 10
999.2872150407305
 20
1245.265522357654
 30
0.0
 11
993.1907419865832
 21
1245.265522357654
 31
0.0
  0
LINE
  5
3D6
330
1B
100
AcDbEntity
  8
4
100
AcDbLine
 10
999.2872150407305
 20
1240.358045069542
 30
0.0
 11
990.6907419865832
 21
1240.358045069542
 31
0.0
  0
LINE
  5
3D7
330
1B
100
AcDbEntity
  8
4
100
AcDbLine
 10
990.6907419865832
 20
1259.987954221989
 30
0.0
 11
999.2872150407305
 21
1259.987954221989
 31
0.0
  0
LINE
  5
3D8
330
1B
100
AcDbEntity
  8
4
100
AcDbLine
 10
380.8907419865833
 20
1270.246530067867
 30
0.0
 11
380.8907419865833
 21
1145.246530067866
 31
0.0
  0
LINE
  5
3D9
330
1B
100
AcDbEntity
  8
4
100
AcDbLine
 10
380.8907419865828
 20
1175.135015066188
 30
0.0
 11
380.8907419865824
 21
1155.50510591374
 31
0.0
  0
LINE
  5
3DA
330
1B
100
AcDbEntity
  8
4
100
AcDbLine
 10
378.3907419865828
 20
1175.135015066188
 30
0.0
 11
378.3907419865824
 21
1155.50510591374
 31
0.0
  0
ARC
  5
3DB
330
1B
100
AcDbEntity
  8
4
100
AcDbCircle
 10
375.1743559156417
 20
1157.958844557796
 30
0.0
 40
3.783613929059507
100
AcDbArc
 50
139.5701031551685
 51
220.4298968448228
  0
ARC
  5
3DC
330
1B
100
AcDbEntity
  8
4
100
AcDbCircle
 10
385.1699072840416
 20
1165.320060489964
 30
0.0
 40
13.77916529745958
100
AcDbArc
 50
159.1359356360786
 51
200.8640643639174
  0
LINE
  5
3DD
330
1B
100
AcDbEntity
  8
4
100
AcDbLine
 10
371.3907419865824
 20
1157.958844557797
 30
0.0
 11
371.3907419865824
 21
1172.681276422132
 31
0.0
  0
ARC
  5
3DE
330
1B
100
AcDbEntity
  8
4
100
AcDbCircle
 10
375.1743559156417
 20
1172.681276422132
 30
0.0
 40
3.783613929059507
100
AcDbArc
 50
139.5701031551772
 51
220.4298968448315
  0
LINE
  5
3DF
330
1B
100
AcDbEntity
  8
4
100
AcDbLine
 10
372.2942689324351
 20
1160.412583201852
 30
0.0
 11
378.3907419865824
 21
1160.412583201852
 31
0.0
  0
LINE
  5
3E0
330
1B
100
AcDbEntity
  8
4
100
AcDbLine
 10
372.2942689324351
 20
1170.227537778076
 30
0.0
 11
378.3907419865824
 21
1170.227537778076
 31
0.0
  0
LINE
  5
3E1
330
1B
100
AcDbEntity
  8
4
100
AcDbLine
 10
372.2942689324356
 20
1175.135015066188
 30
0.0
 11
380.8907419865828
 21
1175.135015066188
 31
0.0
  0
LINE
  5
3E2
330
1B
100
AcDbEntity
  8
4
100
AcDbLine
 10
380.8907419865824
 20
1155.50510591374
 30
0.0
 11
372.2942689324351
 21
1155.505105913741
 31
0.0
  0
LINE
  5
3E3
330
1B
100
AcDbEntity
  8
4
100
AcDbLine
 10
372.294268932436
 20
1240.358045069545
 30
0.0
 11
380.8907419865833
 21
1240.358045069545
 31
0.0
  0
LINE
  5
3E4
330
1B
100
AcDbEntity
  8
4
100
AcDbLine
 10
372.294268932436
 20
1245.265522357656
 30
0.0
 11
378.3907419865833
 21
1245.265522357656
 31
0.0
  0
ARC
  5
3E5
330
1B
100
AcDbEntity
  8
4
100
AcDbCircle
 10
375.1743559156426
 20
1242.811783713601
 30
0.0
 40
3.783613929059507
100
AcDbArc
 50
139.5701031551772
 51
220.4298968448228
  0
LINE
  5
3E6
330
1B
100
AcDbEntity
  8
4
100
AcDbLine
 10
371.3907419865833
 20
1257.534215577936
 30
0.0
 11
371.3907419865833
 21
1242.811783713601
 31
0.0
  0
ARC
  5
3E7
330
1B
100
AcDbEntity
  8
4
100
AcDbCircle
 10
385.1699072840426
 20
1250.172999645769
 30
0.0
 40
13.77916529745958
100
AcDbArc
 50
159.1359356360786
 51
200.8640643639174
  0
LINE
  5
3E8
330
1B
100
AcDbEntity
  8
4
100
AcDbLine
 10
378.3907419865833
 20
1240.358045069545
 30
0.0
 11
378.3907419865833
 21
1259.987954221992
 31
0.0
  0
LINE
  5
3E9
330
1B
100
AcDbEntity
  8
4
100
AcDbLine
 10
380.8907419865833
 20
1240.358045069545
 30
0.0
 11
380.8907419865833
 21
1259.987954221992
 31
0.0
  0
LINE
  5
3EA
330
1B
100
AcDbEntity
  8
4
100
AcDbLine
 10
380.8907419865833
 20
1259.987954221992
 30
0.0
 11
372.294268932436
 21
1259.987954221992
 31
0.0
  0
LINE
  5
3EB
330
1B
100
AcDbEntity
  8
4
100
AcDbLine
 10
372.294268932436
 20
1255.080476933881
 30
0.0
 11
378.3907419865833
 21
1255.080476933881
 31
0.0
  0
ARC
  5
3EC
330
1B
100
AcDbEntity
  8
4
100
AcDbCircle
 10
375.1743559156426
 20
1257.534215577936
 30
0.0
 40
3.783613929059507
100
AcDbArc
 50
139.5701031551772
 51
220.4298968448228
  0
ARC
  5
3ED
330
1B
100
AcDbEntity
  8
4
100
AcDbCircle
 10
604.3775762951918
 20
1047.746530067866
 30
0.0
 40
38.000005
100
AcDbArc
 50
285.2575212340481
 51
254.7424800000002
  0
LINE
  5
3EE
330
1B
100
AcDbEntity
  8
4
100
AcDbLine
 10
594.3775762951918
 20
1016.746530067866
 30
0.0
 11
594.3775762951918
 21
1003.746730067866
 31
0.0
  0
LINE
  5
3EF
330
1B
100
AcDbEntity
  8
4
100
AcDbLine
 10
614.3775762951918
 20
1016.746530067866
 30
0.0
 11
614.3775762951918
 21
1003.746730067866
 31
0.0
  0
LINE
  5
3F0
330
1B
100
AcDbEntity
  8
4
100
AcDbLine
 10
594.3775762951918
 20
1003.746730067866
 30
0.0
 11
614.3775762951918
 21
1003.746730067866
 31
0.0
  0
LINE
  5
3F1
330
1B
100
AcDbEntity
  8
4
100
AcDbLine
 10
614.3775762951918
 20
1016.746530067866
 30
0.0
 11
594.3775762951918
 21
1016.746530067866
 31
0.0
  0
ARC
  5
401
330
1B
100
AcDbEntity
  8
4
100
AcDbCircle
 10
685.7907419865833
 20
855.4965300678657
 30
0.0
 40
6.25
100
AcDbArc
 50
0.0
 51
180.0
  0
ARC
  5
402
330
1B
100
AcDbEntity
  8
4
100
AcDbCircle
 10
685.7907419865833
 20
831.7465300678657
 30
0.0
 40
15.0
100
AcDbArc
 50
294.6243183521641
 51
65.37568164783595
  0
ARC
  5
403
330
1B
100
AcDbEntity
  8
4
100
AcDbCircle
 10
685.7907419865833
 20
831.7465300678657
 30
0.0
 40
13.5
100
AcDbArc
 50
297.5784679781231
 51
62.42153202187692
  0
ARC
  5
404
330
1B
100
AcDbEntity
  8
4
100
AcDbCircle
 10
685.7907419865833
 20
831.7465300678657
 30
0.0
 40
13.5
100
AcDbArc
 50
117.5784679781231
 51
242.4215320218774
  0
ARC
  5
405
330
1B
100
AcDbEntity
  8
4
100
AcDbCircle
 10
685.7907419865833
 20
831.7465300678657
 30
0.0
 40
15.0
100
AcDbArc
 50
114.6243183521641
 51
245.3756816478359
  0
ARC
  5
406
330
1B
100
AcDbEntity
  8
4
100
AcDbCircle
 10
685.7907419865833
 20
807.9965300678657
 30
0.0
 40
6.25
100
AcDbArc
 50
180.0
 51
0.0
  0
LINE
  5
407
330
1B
100
AcDbEntity
  8
4
100
AcDbLine
 10
679.5407419865833
 20
807.9965300678657
 30
0.0
 11
679.5407419865833
 21
855.4965300678657
 31
0.0
  0
LINE
  5
408
330
1B
100
AcDbEntity
  8
4
100
AcDbLine
 10
692.0407419865833
 20
807.9965300678657
 30
0.0
 11
692.0407419865833
 21
855.4965300678657
 31
0.0
  0
ARC
  5
409
330
1B
100
AcDbEntity
  8
4
100
AcDbCircle
 10
685.7907419865833
 20
1285.496530067866
 30
0.0
 40
6.25
100
AcDbArc
 50
0.0
 51
180.0
  0
ARC
  5
40A
330
1B
100
AcDbEntity
  8
4
100
AcDbCircle
 10
685.7907419865833
 20
1261.746530067866
 30
0.0
 40
15.0
100
AcDbArc
 50
294.6243183521642
 51
65.37568164783578
  0
ARC
  5
40B
330
1B
100
AcDbEntity
  8
4
100
AcDbCircle
 10
685.7907419865833
 20
1261.746530067866
 30
0.0
 40
13.5
100
AcDbArc
 50
297.5784679781224
 51
62.42153202187886
  0
ARC
  5
40C
330
1B
100
AcDbEntity
  8
4
100
AcDbCircle
 10
685.7907419865833
 20
1261.746530067866
 30
0.0
 40
13.5
100
AcDbArc
 50
117.5784679781212
 51
242.4215320218776
  0
ARC
  5
40D
330
1B
100
AcDbEntity
  8
4
100
AcDbCircle
 10
685.7907419865833
 20
1237.996530067866
 30
0.0
 40
6.25
100
AcDbArc
 50
180.0
 51
0.0
  0
LINE
  5
40E
330
1B
100
AcDbEntity
  8
4
100
AcDbLine
 10
679.5407419865833
 20
1237.996530067866
 30
0.0
 11
679.5407419865833
 21
1285.496530067866
 31
0.0
  0
LINE
  5
40F
330
1B
100
AcDbEntity
  8
4
100
AcDbLine
 10
692.0407419865833
 20
1237.996530067866
 30
0.0
 11
692.0407419865833
 21
1285.496530067866
 31
0.0
  0
ARC
  5
410
330
1B
100
AcDbEntity
  8
4
100
AcDbCircle
 10
685.7907419865833
 20
1261.746530067866
 30
0.0
 40
15.0
100
AcDbArc
 50
114.6243183521642
 51
245.3756816478357
  0
ARC
  5
411
330
1B
100
AcDbEntity
  8
4
100
AcDbCircle
 10
685.7907419865837
 20
1261.746530067866
 30
0.0
 40
24.0
100
AcDbArc
 50
105.0947870995443
 51
254.9052129004557
  0
ARC
  5
412
330
1B
100
AcDbEntity
  8
4
100
AcDbCircle
 10
685.7907419865833
 20
831.7465300678662
 30
0.0
 40
24.0
100
AcDbArc
 50
285.0947870995432
 51
74.90521290045679
  0
LINE
  5
413
330
1B
100
AcDbEntity
  8
4
100
AcDbLine
 10
701.3787419865835
 20
1345.746530067865
 30
0.0
 11
701.378741986583
 21
1350.746530067865
 31
0.0
  0
LINE
  5
414
330
1B
100
AcDbEntity
  8
4
100
AcDbLine
 10
670.2027419865835
 20
1345.746530067865
 30
0.0
 11
670.2027419865835
 21
1350.746530067865
 31
0.0
  0
LINE
  5
415
330
1B
100
AcDbEntity
  8
4
100
AcDbLine
 10
702.7907419865833
 20
1343.746530067865
 30
0.0
 11
702.7907419865833
 21
1341.746530067865
 31
0.0
  0
LINE
  5
416
330
1B
100
AcDbEntity
  8
4
100
AcDbLine
 10
703.7907419865833
 20
1343.746530067865
 30
0.0
 11
703.7907419865837
 21
1345.746530067865
 31
0.0
  0
LINE
  5
417
330
1B
100
AcDbEntity
  8
4
100
AcDbLine
 10
670.2027419865835
 20
1350.746530067865
 30
0.0
 11
701.378741986583
 21
1350.746530067865
 31
0.0
  0
LINE
  5
418
330
1B
100
AcDbEntity
  8
4
100
AcDbLine
 10
667.7907419865833
 20
1343.746530067865
 30
0.0
 11
667.7907419865833
 21
1345.746530067865
 31
0.0
  0
LINE
  5
419
330
1B
100
AcDbEntity
  8
4
100
AcDbLine
 10
667.7907419865833
 20
1345.746530067865
 30
0.0
 11
703.7907419865833
 21
1345.746530067865
 31
0.0
  0
LINE
  5
41A
330
1B
100
AcDbEntity
  8
4
100
AcDbLine
 10
667.7907419865833
 20
1343.746530067865
 30
0.0
 11
703.7907419865833
 21
1343.746530067865
 31
0.0
  0
LINE
  5
41B
330
1B
100
AcDbEntity
  8
4
100
AcDbLine
 10
668.7907419865833
 20
1343.746530067865
 30
0.0
 11
668.7907419865833
 21
1341.746530067865
 31
0.0
  0
LINE
  5
41C
330
1B
100
AcDbEntity
  8
L-CENTER
 48
3.0
100
AcDbLine
 10
645.7907419865824
 20
912.7465300678657
 30
0.0
 11
725.7907419865833
 21
912.7465300678657
 31
0.0
  0
CIRCLE
  5
41D
330
1B
100
AcDbEntity
  8
4
100
AcDbCircle
 10
685.7907419865837
 20
912.7465300678662
 30
0.0
 40
25.0
  0
CIRCLE
  5
41E
330
1B
100
AcDbEntity
  8
4
100
AcDbCircle
 10
685.7907419865833
 20
912.7465300678657
 30
0.0
 40
23.0
  0
LWPOLYLINE
  5
41F
330
1B
100
AcDbEntity
  8
4
100
AcDbPolyline
 90
        6
 70
     1
 43
0.0
 10
685.7907419865833
 20
935.7465300678657
 10
665.8721576995413
 20
924.2465300678657
 10
665.8721576995413
 20
901.2465300678657
 10
685.7907419865833
 20
889.7465300678657
 10
705.7093262736253
 20
901.2465300678657
 10
705.7093262736253
 20
924.2465300678657
  0
LINE
  5
420
330
1B
100
AcDbEntity
  8
4
100
AcDbLine
 10
1390.012223903334
 20
345.8433276735152
 30
0.0
 11
1434.012223903334
 21
345.8433276735152
 31
0.0
  0
LINE
  5
421
330
1B
100
AcDbEntity
  8
4
100
AcDbLine
 10
1389.012223903334
 20
347.8433276735152
 30
0.0
 11
1435.012223903334
 21
347.8433276735152
 31
0.0
  0
LINE
  5
422
330
1B
100
AcDbEntity
  8
4
100
AcDbLine
 10
1437.012223903334
 20
345.8433276735152
 30
0.0
 11
1387.012223903334
 21
345.8433276735152
 31
0.0
  0
LINE
  5
423
330
1B
100
AcDbEntity
  8
4
100
AcDbLine
 10
1389.012223903334
 20
351.8433276735154
 30
0.0
 11
1435.012223903334
 21
351.8433276735154
 31
0.0
  0
LINE
  5
424
330
1B
100
AcDbEntity
  8
4
100
AcDbLine
 10
1389.012223903334
 20
356.8433276735154
 30
0.0
 11
1435.012223903334
 21
356.8433276735154
 31
0.0
  0
LINE
  5
425
330
1B
100
AcDbEntity
  8
4
100
AcDbLine
 10
1400.512223903334
 20
351.8433276735154
 30
0.0
 11
1400.512223903334
 21
356.8433276735154
 31
0.0
  0
LINE
  5
426
330
1B
100
AcDbEntity
  8
4
100
AcDbLine
 10
1390.012223903334
 20
347.8433276735152
 30
0.0
 11
1390.012223903334
 21
345.8433276735152
 31
0.0
  0
LINE
  5
427
330
1B
100
AcDbEntity
  8
4
100
AcDbLine
 10
1387.012223903334
 20
345.8433276735152
 30
0.0
 11
1387.012223903334
 21
339.8433276735152
 31
0.0
  0
LINE
  5
428
330
1B
100
AcDbEntity
  8
4
100
AcDbLine
 10
1389.012223903334
 20
347.8433276735152
 30
0.0
 11
1389.012223903334
 21
356.8433276735154
 31
0.0
  0
LINE
  5
429
330
1B
100
AcDbEntity
  8
L-CENTER
 48
3.0
100
AcDbLine
 10
1412.012223903334
 20
365.1922076735152
 30
0.0
 11
1412.012223903334
 21
324.3814126735153
 31
0.0
  0
LINE
  5
42A
330
1B
100
AcDbEntity
  8
4
100
AcDbLine
 10
1434.012223903334
 20
347.8433276735152
 30
0.0
 11
1434.012223903334
 21
345.8433276735152
 31
0.0
  0
LINE
  5
42B
330
1B
100
AcDbEntity
  8
4
100
AcDbLine
 10
1437.012223903334
 20
345.8433276735152
 30
0.0
 11
1437.012223903334
 21
339.8433276735152
 31
0.0
  0
LINE
  5
42C
330
1B
100
AcDbEntity
  8
4
100
AcDbLine
 10
1435.012223903334
 20
347.8433276735152
 30
0.0
 11
1435.012223903334
 21
356.8433276735154
 31
0.0
  0
LINE
  5
42D
330
1B
100
AcDbEntity
  8
4
100
AcDbLine
 10
1423.512223903334
 20
351.8433276735154
 30
0.0
 11
1423.512223903334
 21
356.8433276735154
 31
0.0
  0
LINE
  5
42E
330
1B
100
AcDbEntity
  8
4
100
AcDbLine
 10
663.7907419865837
 20
345.8433276735152
 30
0.0
 11
671.1499385203383
 21
345.8433276735152
 31
0.0
  0
LINE
  5
42F
330
1B
100
AcDbEntity
  8
4
100
AcDbLine
 10
700.431698061213
 20
345.8433276735152
 30
0.0
 11
707.7907419865837
 21
345.8433276735152
 31
0.0
  0
LINE
  5
430
330
1B
100
AcDbEntity
  8
4
100
AcDbLine
 10
662.7907419865837
 20
347.8433276735152
 30
0.0
 11
671.2547857930654
 21
347.8433276735152
 31
0.0
  0
LINE
  5
431
330
1B
100
AcDbEntity
  8
4
100
AcDbLine
 10
700.3268953339402
 20
347.8433276735152
 30
0.0
 11
708.7907419865837
 21
347.8433276735152
 31
0.0
  0
LINE
  5
432
330
1B
100
AcDbEntity
  8
4
100
AcDbLine
 10
710.7907419865837
 20
345.8433276735152
 30
0.0
 11
700.431698061213
 21
345.8433276735152
 31
0.0
  0
LINE
  5
433
330
1B
100
AcDbEntity
  8
4
100
AcDbLine
 10
671.1499385203383
 20
345.8433276735152
 30
0.0
 11
660.7907419865837
 21
345.8433276735152
 31
0.0
  0
LINE
  5
434
330
1B
100
AcDbEntity
  8
4
100
AcDbLine
 10
662.7907419865837
 20
351.8433276735154
 30
0.0
 11
679.5407419865837
 21
351.8433276735154
 31
0.0
  0
LINE
  5
435
330
1B
100
AcDbEntity
  8
4
100
AcDbLine
 10
692.0407419865837
 20
351.8433276735154
 30
0.0
 11
708.7907419865837
 21
351.8433276735154
 31
0.0
  0
LINE
  5
436
330
1B
100
AcDbEntity
  8
4
100
AcDbLine
 10
665.8721576995413
 20
356.8433276735154
 30
0.0
 11
679.5407419865837
 21
356.8433276735154
 31
0.0
  0
LINE
  5
437
330
1B
100
AcDbEntity
  8
4
100
AcDbLine
 10
692.0407419865837
 20
356.8433276735154
 30
0.0
 11
705.7093262736262
 21
356.8433276735154
 31
0.0
  0
LINE
  5
438
330
1B
100
AcDbEntity
  8
4
100
AcDbLine
 10
663.7907419865837
 20
347.8433276735152
 30
0.0
 11
663.7907419865837
 21
345.8433276735152
 31
0.0
  0
LINE
  5
439
330
1B
100
AcDbEntity
  8
4
100
AcDbLine
 10
660.7907419865837
 20
345.8433276735152
 30
0.0
 11
660.7907419865837
 21
339.8433276735152
 31
0.0
  0
LINE
  5
43A
330
1B
100
AcDbEntity
  8
4
100
AcDbLine
 10
662.7907419865837
 20
347.8433276735152
 30
0.0
 11
662.7907419865837
 21
351.8433276735154
 31
0.0
  0
LINE
  5
43B
330
1B
100
AcDbEntity
  8
4
100
AcDbLine
 10
707.7907419865837
 20
347.8433276735152
 30
0.0
 11
707.7907419865837
 21
345.8433276735152
 31
0.0
  0
LINE
  5
43C
330
1B
100
AcDbEntity
  8
4
100
AcDbLine
 10
710.7907419865837
 20
345.8433276735152
 30
0.0
 11
710.7907419865837
 21
339.8433276735152
 31
0.0
  0
LINE
  5
43D
330
1B
100
AcDbEntity
  8
4
100
AcDbLine
 10
708.7907419865837
 20
347.8433276735152
 30
0.0
 11
708.7907419865837
 21
351.8433276735154
 31
0.0
  0
LINE
  5
43E
330
1B
100
AcDbEntity
  8
4
100
AcDbLine
 10
665.8721576995413
 20
356.8433276735154
 30
0.0
 11
665.8721576995413
 21
351.8433276735154
 31
0.0
  0
LINE
  5
43F
330
1B
100
AcDbEntity
  8
4
100
AcDbLine
 10
705.7093262736262
 20
356.8433276735154
 30
0.0
 11
705.7093262736262
 21
351.8433276735154
 31
0.0
  0
LINE
  5
440
330
1B
100
AcDbEntity
  8
L-CENTER
 48
3.0
100
AcDbLine
 10
662.7203971258655
 20
89.04248779341128
 30
0.0
 11
662.7203971258655
 21
136.4287507882091
 31
0.0
  0
LINE
  5
441
330
1B
100
AcDbEntity
  8
L-CENTER
 48
3.0
100
AcDbLine
 10
1005.291581866687
 20
233.9697972514149
 30
0.0
 11
957.9053188718898
 21
233.9697972514149
 31
0.0
  0
LINE
  5
442
330
1B
100
AcDbEntity
  8
L-CENTER
 48
3.0
100
AcDbLine
 10
1005.291581866687
 20
149.1168580956156
 30
0.0
 11
957.9053188718898
 21
149.1168580956156
 31
0.0
  0
LINE
  5
443
330
1B
100
AcDbEntity
  8
L-CENTER
 48
3.0
100
AcDbLine
 10
366.2899021064792
 20
233.969797251414
 30
0.0
 11
413.6761651012772
 21
233.9697972514141
 31
0.0
  0
LINE
  5
444
330
1B
100
AcDbEntity
  8
L-CENTER
 48
3.0
100
AcDbLine
 10
366.2899021064796
 20
149.1168580956147
 30
0.0
 11
413.6761651012772
 21
149.1168580956148
 31
0.0
  0
LINE
  5
445
330
1B
100
AcDbEntity
  8
L-CENTER
 48
3.0
100
AcDbLine
 10
1005.291581866688
 20
1250.172999645765
 30
0.0
 11
957.9053188718902
 21
1250.172999645765
 31
0.0
  0
LINE
  5
446
330
1B
100
AcDbEntity
  8
L-CENTER
 48
3.0
100
AcDbLine
 10
1005.291581866688
 20
1165.320060489966
 30
0.0
 11
957.9053188718902
 21
1165.320060489966
 31
0.0
  0
LINE
  5
447
330
1B
100
AcDbEntity
  8
L-CENTER
 48
3.0
100
AcDbLine
 10
366.2899021064792
 20
1250.172999645764
 30
0.0
 11
413.6761651012772
 21
1250.172999645764
 31
0.0
  0
LINE
  5
448
330
1B
100
AcDbEntity
  8
L-CENTER
 48
3.0
100
AcDbLine
 10
366.2899021064796
 20
1165.320060489965
 30
0.0
 11
413.6761651012777
 21
1165.320060489965
 31
0.0
  0
TEXT
  5
5DB
330
1B
100
AcDbEntity
  8
3
100
AcDbText
 10
1069.194766763646
 20
42.46715511198545
 30
0.0
 40
15.0
  1
LDC7-01
  7
KANJI
 72
     1
 11
1115.444766763646
 21
42.46715511198545
 31
0.0
100
AcDbText
  0
ARC
  5
5F8
330
1B
100
AcDbEntity
  8
4
100
AcDbCircle
 10
397.7907419865833
 20
312.5433276735153
 30
0.0
 40
2.0
100
AcDbArc
 50
90.0
 51
180.0
  0
ARC
  5
5F9
330
1B
100
AcDbEntity
  8
4
100
AcDbCircle
 10
973.7907419865833
 20
312.5433276735153
 30
0.0
 40
2.0
100
AcDbArc
 50
0.0
 51
90.0
  0
ARC
  5
5FA
330
1B
100
AcDbEntity
  8
4
100
AcDbCircle
 10
1258.012223903334
 20
312.5433276735153
 30
0.0
 40
2.0
100
AcDbArc
 50
90.0
 51
180.0
  0
ARC
  5
5FB
330
1B
100
AcDbEntity
  8
4
100
AcDbCircle
 10
1834.012223903334
 20
312.5433276735153
 30
0.0
 40
2.0
100
AcDbArc
 50
0.0
 51
90.0
  0
ARC
  5
5FC
330
1B
100
AcDbEntity
  8
4
100
AcDbCircle
 10
958.7907419865833
 20
337.8433276735152
 30
0.0
 40
2.0
100
AcDbArc
 50
0.0
 51
90.0
  0
ARC
  5
5FD
330
1B
100
AcDbEntity
  8
4
100
AcDbCircle
 10
412.7907419865833
 20
337.8433276735152
 30
0.0
 40
2.0
100
AcDbArc
 50
90.0
 51
180.0
  0
ARC
  5
5FE
330
1B
100
AcDbEntity
  8
4
100
AcDbCircle
 10
510.3808319865839
 20
356.7433276735152
 30
0.0
 40
1.0
100
AcDbArc
 50
90.0
 51
180.0
  0
ARC
  5
5FF
330
1B
100
AcDbEntity
  8
4
100
AcDbCircle
 10
698.3808319865839
 20
356.7433276735152
 30
0.0
 40
1.0
100
AcDbArc
 50
5.739170477281093
 51
90.0
  0
ARC
  5
600
330
1B
100
AcDbEntity
  8
4
100
AcDbCircle
 10
716.7907419865837
 20
356.7433276735152
 30
0.0
 40
1.0
100
AcDbArc
 50
90.0
 51
180.0
  0
ARC
  5
601
330
1B
100
AcDbEntity
  8
4
100
AcDbCircle
 10
874.7907419865837
 20
356.7433276735152
 30
0.0
 40
1.0
100
AcDbArc
 50
0.0
 51
90.0
  0
ARC
  5
602
330
1B
100
AcDbEntity
  8
4
100
AcDbCircle
 10
1273.012223903334
 20
337.8433276735152
 30
0.0
 40
2.0
100
AcDbArc
 50
90.0
 51
180.0
  0
ARC
  5
603
330
1B
100
AcDbEntity
  8
4
100
AcDbCircle
 10
1819.012223903334
 20
337.8433276735152
 30
0.0
 40
2.0
100
AcDbArc
 50
0.0
 51
90.0
  0
LINE
  5
604
330
1B
100
AcDbEntity
  8
4
100
AcDbLine
 10
1760.20917377269
 20
342.8433276734518
 30
0.0
 11
1782.148484001895
 21
342.8433276734518
 31
0.0
  0
ARC
  5
605
330
1B
100
AcDbEntity
  8
4
100
AcDbCircle
 10
1453.012223903334
 20
356.7433276735152
 30
0.0
 40
1.0
100
AcDbArc
 50
90.0
 51
180.0
  0
ARC
  5
606
330
1B
100
AcDbEntity
  8
4
100
AcDbCircle
 10
1611.012223903334
 20
356.7433276735152
 30
0.0
 40
1.0
100
AcDbArc
 50
0.0
 51
90.0
  0
ARC
  5
607
330
1B
100
AcDbEntity
  8
4
100
AcDbCircle
 10
1641.012226432195
 20
356.7433276735152
 30
0.0
 40
1.0
100
AcDbArc
 50
0.0001448901923671
 51
90.0
  0
ARC
  5
608
330
1B
100
AcDbEntity
  8
4
100
AcDbCircle
 10
698.3808319865839
 20
104.6433276735153
 30
0.0
 40
1.0
100
AcDbArc
 50
270.0
 51
0.0
  0
ARC
  5
609
330
1B
100
AcDbEntity
  8
4
100
AcDbCircle
 10
716.7907419865837
 20
104.6433276735153
 30
0.0
 40
1.0
100
AcDbArc
 50
180.0
 51
270.0
  0
ARC
  5
60A
330
1B
100
AcDbEntity
  8
4
100
AcDbCircle
 10
1452.012223903334
 20
104.6433276735153
 30
0.0
 40
1.0
100
AcDbArc
 50
180.0
 51
270.0
  0
ARC
  5
60B
330
1B
100
AcDbEntity
  8
4
100
AcDbCircle
 10
1611.012223903334
 20
104.6433276735153
 30
0.0
 40
1.0
100
AcDbArc
 50
270.0
 51
0.0
  0
ARC
  5
60C
330
1B
100
AcDbEntity
  8
4
100
AcDbCircle
 10
1640.012223903334
 20
104.6433276735153
 30
0.0
 40
1.0
100
AcDbArc
 50
270.0
 51
0.0
  0
LINE
  5
610
330
1B
100
AcDbEntity
  8
4
100
AcDbLine
 10
1595.533578775
 20
357.7433276735152
 30
0.0
 11
1615.163487927448
 21
357.7433276735152
 31
0.0
  0
LINE
  5
611
330
1B
100
AcDbEntity
  8
4
100
AcDbLine
 10
1595.533578775
 20
360.2433276735152
 30
0.0
 11
1615.163487927448
 21
360.2433276735152
 31
0.0
  0
ARC
  5
612
330
1B
100
AcDbEntity
  8
4
100
AcDbCircle
 10
1597.987317419056
 20
363.4597137444559
 30
0.0
 40
3.783613929059507
100
AcDbArc
 50
49.57010315517714
 51
130.4298968448228
  0
LINE
  5
613
330
1B
100
AcDbEntity
  8
4
100
AcDbLine
 10
1612.709749283392
 20
367.2433276735152
 30
0.0
 11
1597.987317419056
 21
367.2433276735152
 31
0.0
  0
ARC
  5
614
330
1B
100
AcDbEntity
  8
4
100
AcDbCircle
 10
1612.709749283392
 20
363.4597137444559
 30
0.0
 40
3.783613929059507
100
AcDbArc
 50
49.57010315516856
 51
130.4298968448315
  0
ARC
  5
615
330
1B
100
AcDbEntity
  8
4
100
AcDbCircle
 10
1605.348533351224
 20
353.464162376056
 30
0.0
 40
13.77916529745958
100
AcDbArc
 50
69.13593563608057
 51
110.8640643639194
  0
LINE
  5
616
330
1B
100
AcDbEntity
  8
4
100
AcDbLine
 10
1610.256010639335
 20
366.3398007276625
 30
0.0
 11
1610.256010639335
 21
360.2433276735152
 31
0.0
  0
LINE
  5
617
330
1B
100
AcDbEntity
  8
4
100
AcDbLine
 10
1600.441056063112
 20
366.3398007276625
 30
0.0
 11
1600.441056063112
 21
360.2433276735152
 31
0.0
  0
LINE
  5
618
330
1B
100
AcDbEntity
  8
4
100
AcDbLine
 10
1615.163487927448
 20
357.7433276735152
 30
0.0
 11
1615.163487927448
 21
366.3398007276625
 31
0.0
  0
LINE
  5
619
330
1B
100
AcDbEntity
  8
4
100
AcDbLine
 10
1595.533578775
 20
366.3398007276625
 30
0.0
 11
1595.533578775
 21
357.7433276735152
 31
0.0
  0
LINE
  5
61A
330
1B
100
AcDbEntity
  8
L-CENTER
 48
3.0
100
AcDbLine
 10
1605.348533351224
 20
336.1168051533717
 30
0.0
 11
1605.348533351224
 21
370.1113059280957
 31
0.0
  0
LINE
  5
63F
330
1B
100
AcDbEntity
  8
2
100
AcDbLine
 10
1641.012223903334
 20
115.2433276735153
 30
0.0
 11
1451.012223903334
 21
115.2433276735153
 31
0.0
  0
LINE
  5
640
330
1B
100
AcDbEntity
  8
2
100
AcDbLine
 10
570.7907419865837
 20
115.2433276735153
 30
0.0
 11
699.3808319865839
 21
115.2433276735153
 31
0.0
  0
LINE
  5
641
330
1B
100
AcDbEntity
  8
2
100
AcDbLine
 10
715.7907419865837
 20
115.2433276735153
 30
0.0
 11
800.7907419865837
 21
115.2433276735153
 31
0.0
  0
ARC
  5
64B
330
1B
100
AcDbEntity
  8
4
100
AcDbCircle
 10
1478.689337971167
 20
97.92694160257452
 30
0.0
 40
3.783613929059507
100
AcDbArc
 50
229.5701031551771
 51
310.4298968448314
  0
ARC
  5
64C
330
1B
100
AcDbEntity
  8
4
100
AcDbCircle
 10
1486.050553903334
 20
107.9224929709744
 30
0.0
 40
13.77916529745958
100
AcDbArc
 50
249.1359356360806
 51
290.8640643639195
  0
LINE
  5
64D
330
1B
100
AcDbEntity
  8
4
100
AcDbLine
 10
1481.143076615222
 20
95.04685461936799
 30
0.0
 11
1481.143076615222
 21
101.1433276735153
 31
0.0
  0
LINE
  5
64E
330
1B
100
AcDbEntity
  8
4
100
AcDbLine
 10
1490.958031191447
 20
95.04685461936799
 30
0.0
 11
1490.958031191447
 21
101.1433276735153
 31
0.0
  0
LINE
  5
64F
330
1B
100
AcDbEntity
  8
4
100
AcDbLine
 10
1476.235599327111
 20
103.6433276735153
 30
0.0
 11
1476.235599327111
 21
95.04685461936799
 31
0.0
  0
LINE
  5
650
330
1B
100
AcDbEntity
  8
4
100
AcDbLine
 10
1495.865508479558
 20
95.04685461936799
 30
0.0
 11
1495.865508479558
 21
103.6433276735153
 31
0.0
  0
LINE
  5
651
330
1B
100
AcDbEntity
  8
4
100
AcDbLine
 10
1495.865508479558
 20
103.6433276735153
 30
0.0
 11
1476.235599327111
 21
103.6433276735153
 31
0.0
  0
LINE
  5
652
330
1B
100
AcDbEntity
  8
4
100
AcDbLine
 10
1495.865508479558
 20
101.1433276735153
 30
0.0
 11
1476.235599327111
 21
101.1433276735153
 31
0.0
  0
LINE
  5
653
330
1B
100
AcDbEntity
  8
4
100
AcDbLine
 10
1478.689337971167
 20
94.14332767351527
 30
0.0
 11
1493.411769835502
 21
94.14332767351527
 31
0.0
  0
ARC
  5
654
330
1B
100
AcDbEntity
  8
4
100
AcDbCircle
 10
1493.411769835502
 20
97.92694160257452
 30
0.0
 40
3.783613929059507
100
AcDbArc
 50
229.5701031551771
 51
310.4298968448314
  0
ARC
  5
655
330
1B
100
AcDbEntity
  8
4
100
AcDbCircle
 10
1570.613167971167
 20
97.92694160257452
 30
0.0
 40
3.783613929059507
100
AcDbArc
 50
229.5701031551771
 51
310.4298968448314
  0
ARC
  5
656
330
1B
100
AcDbEntity
  8
4
100
AcDbCircle
 10
1577.974383903334
 20
107.9224929709744
 30
0.0
 40
13.77916529745958
100
AcDbArc
 50
249.1359356360806
 51
290.8640643639195
  0
LINE
  5
657
330
1B
100
AcDbEntity
  8
4
100
AcDbLine
 10
1573.066906615222
 20
95.04685461936799
 30
0.0
 11
1573.066906615222
 21
101.1433276735153
 31
0.0
  0
LINE
  5
658
330
1B
100
AcDbEntity
  8
4
100
AcDbLine
 10
1582.881861191447
 20
95.04685461936799
 30
0.0
 11
1582.881861191447
 21
101.1433276735153
 31
0.0
  0
LINE
  5
659
330
1B
100
AcDbEntity
  8
4
100
AcDbLine
 10
1568.159429327111
 20
103.6433276735153
 30
0.0
 11
1568.159429327111
 21
95.04685461936799
 31
0.0
  0
LINE
  5
65A
330
1B
100
AcDbEntity
  8
4
100
AcDbLine
 10
1587.789338479558
 20
95.04685461936799
 30
0.0
 11
1587.789338479558
 21
103.6433276735153
 31
0.0
  0
LINE
  5
65B
330
1B
100
AcDbEntity
  8
4
100
AcDbLine
 10
1587.789338479558
 20
103.6433276735153
 30
0.0
 11
1568.159429327111
 21
103.6433276735153
 31
0.0
  0
LINE
  5
65C
330
1B
100
AcDbEntity
  8
4
100
AcDbLine
 10
1587.789338479558
 20
101.1433276735153
 30
0.0
 11
1568.159429327111
 21
101.1433276735153
 31
0.0
  0
LINE
  5
65D
330
1B
100
AcDbEntity
  8
4
100
AcDbLine
 10
1570.613167971167
 20
94.14332767351527
 30
0.0
 11
1585.335599835502
 21
94.14332767351527
 31
0.0
  0
ARC
  5
65E
330
1B
100
AcDbEntity
  8
4
100
AcDbCircle
 10
1585.335599835502
 20
97.92694160257452
 30
0.0
 40
3.783613929059507
100
AcDbArc
 50
229.5701031551771
 51
310.4298968448314
  0
ARC
  5
65F
330
1B
100
AcDbEntity
  8
4
100
AcDbCircle
 10
1597.987432971167
 20
97.92694160257452
 30
0.0
 40
3.783613929059507
100
AcDbArc
 50
229.5701031551771
 51
310.4298968448314
  0
ARC
  5
660
330
1B
100
AcDbEntity
  8
4
100
AcDbCircle
 10
1605.348648903334
 20
107.9224929709744
 30
0.0
 40
13.77916529745958
100
AcDbArc
 50
249.1359356360806
 51
290.8640643639195
  0
LINE
  5
661
330
1B
100
AcDbEntity
  8
4
100
AcDbLine
 10
1600.441171615222
 20
95.04685461936799
 30
0.0
 11
1600.441171615222
 21
101.1433276735153
 31
0.0
  0
LINE
  5
662
330
1B
100
AcDbEntity
  8
4
100
AcDbLine
 10
1610.256126191447
 20
95.04685461936799
 30
0.0
 11
1610.256126191447
 21
101.1433276735153
 31
0.0
  0
LINE
  5
663
330
1B
100
AcDbEntity
  8
4
100
AcDbLine
 10
1595.533694327111
 20
103.6433276735153
 30
0.0
 11
1595.533694327111
 21
95.04685461936799
 31
0.0
  0
LINE
  5
664
330
1B
100
AcDbEntity
  8
4
100
AcDbLine
 10
1615.163603479558
 20
95.04685461936799
 30
0.0
 11
1615.163603479558
 21
103.6433276735153
 31
0.0
  0
LINE
  5
665
330
1B
100
AcDbEntity
  8
4
100
AcDbLine
 10
1615.163603479558
 20
103.6433276735153
 30
0.0
 11
1595.533694327111
 21
103.6433276735153
 31
0.0
  0
LINE
  5
666
330
1B
100
AcDbEntity
  8
4
100
AcDbLine
 10
1615.163603479558
 20
101.1433276735153
 30
0.0
 11
1595.533694327111
 21
101.1433276735153
 31
0.0
  0
LINE
  5
667
330
1B
100
AcDbEntity
  8
4
100
AcDbLine
 10
1597.987432971167
 20
94.14332767351527
 30
0.0
 11
1612.709864835502
 21
94.14332767351527
 31
0.0
  0
ARC
  5
668
330
1B
100
AcDbEntity
  8
4
100
AcDbCircle
 10
1612.709864835502
 20
97.92694160257452
 30
0.0
 40
3.783613929059507
100
AcDbArc
 50
229.5701031551771
 51
310.4298968448314
  0
LINE
  5
66F
330
1B
100
AcDbEntity
  8
4
100
AcDbLine
 10
361.2907419865837
 20
213.0433276735153
 30
0.0
 11
286.2907419865837
 21
213.0433276735153
 31
0.0
  0
LINE
  5
670
330
1B
100
AcDbEntity
  8
4
100
AcDbLine
 10
366.2907419865837
 20
209.5433276735153
 30
0.0
 11
287.2907419865837
 21
209.5433276735153
 31
0.0
  0
LINE
  5
671
330
1B
100
AcDbEntity
  8
4
100
AcDbLine
 10
366.2907419865837
 20
173.5433276735153
 30
0.0
 11
287.2907419865837
 21
173.5433276735153
 31
0.0
  0
LINE
  5
672
330
1B
100
AcDbEntity
  8
4
100
AcDbLine
 10
379.8907419865837
 20
160.5433276735153
 30
0.0
 11
379.8907419865837
 21
222.5433276735153
 31
0.0
  0
LINE
  5
673
330
1B
100
AcDbEntity
  8
4
100
AcDbLine
 10
380.8907419865842
 20
160.5433276735153
 30
0.0
 11
379.8907419865837
 21
160.5433276735153
 31
0.0
  0
LINE
  5
674
330
1B
100
AcDbEntity
  8
4
100
AcDbLine
 10
379.8907419865837
 20
211.5433276735153
 30
0.0
 11
366.2907419865837
 21
211.5433276735153
 31
0.0
  0
LINE
  5
675
330
1B
100
AcDbEntity
  8
4
100
AcDbLine
 10
379.8907419865837
 20
171.5433276735153
 30
0.0
 11
366.2907419865837
 21
171.5433276735153
 31
0.0
  0
LINE
  5
676
330
1B
100
AcDbEntity
  8
4
100
AcDbLine
 10
380.8907419865842
 20
222.5433276735153
 30
0.0
 11
379.8907419865837
 21
222.5433276735153
 31
0.0
  0
LINE
  5
677
330
1B
100
AcDbEntity
  8
4
100
AcDbLine
 10
361.2907419865837
 20
209.5433276735153
 30
0.0
 11
361.2907419865837
 21
213.0433276735153
 31
0.0
  0
LINE
  5
678
330
1B
100
AcDbEntity
  8
4
100
AcDbLine
 10
366.2907419865837
 20
171.5433276735153
 30
0.0
 11
366.2907419865837
 21
211.5433276735153
 31
0.0
  0
LINE
  5
679
330
1B
100
AcDbEntity
  8
4
100
AcDbLine
 10
286.2907419865837
 20
208.5433276735153
 30
0.0
 11
287.2907419865837
 21
209.5433276735153
 31
0.0
  0
LINE
  5
67A
330
1B
100
AcDbEntity
  8
4
100
AcDbLine
 10
286.2907419865837
 20
174.5433276735153
 30
0.0
 11
287.2907419865837
 21
173.5433276735153
 31
0.0
  0
LINE
  5
67B
330
1B
100
AcDbEntity
  8
4
100
AcDbLine
 10
287.2907419865837
 20
173.5433276735153
 30
0.0
 11
287.2907419865837
 21
209.5433276735153
 31
0.0
  0
LINE
  5
67C
330
1B
100
AcDbEntity
  8
4
100
AcDbLine
 10
286.2907419865837
 20
213.0433276735153
 30
0.0
 11
286.2907419865837
 21
174.5433276735153
 31
0.0
  0
LINE
  5
67D
330
1B
100
AcDbEntity
  8
4
100
AcDbLine
 10
380.8907419865836
 20
1176.746530067865
 30
0.0
 11
379.8907419865836
 21
1176.746530067865
 31
0.0
  0
LINE
  5
67E
330
1B
100
AcDbEntity
  8
4
100
AcDbLine
 10
379.8907419865836
 20
1176.746530067865
 30
0.0
 11
379.8907419865834
 21
1238.746530067865
 31
0.0
  0
LINE
  5
67F
330
1B
100
AcDbEntity
  8
4
100
AcDbLine
 10
380.8907419865834
 20
1238.746530067865
 30
0.0
 11
379.8907419865834
 21
1238.746530067865
 31
0.0
  0
LINE
  5
680
330
1B
100
AcDbEntity
  8
4
100
AcDbLine
 10
365.2907419865835
 20
1189.746530067865
 30
0.0
 11
287.2907419865835
 21
1189.746530067865
 31
0.0
  0
LINE
  5
681
330
1B
100
AcDbEntity
  8
4
100
AcDbLine
 10
365.2907419865835
 20
1225.746530067865
 30
0.0
 11
287.2907419865835
 21
1225.746530067865
 31
0.0
  0
LINE
  5
682
330
1B
100
AcDbEntity
  8
4
100
AcDbLine
 10
356.2907419865835
 20
1212.746530067865
 30
0.0
 11
286.2907419865835
 21
1212.746530067865
 31
0.0
  0
LINE
  5
683
330
1B
100
AcDbEntity
  8
4
100
AcDbLine
 10
356.2907419865835
 20
1202.746530067865
 30
0.0
 11
286.2907419865835
 21
1202.746530067865
 31
0.0
  0
ARC
  5
684
330
1B
100
AcDbEntity
  8
4
100
AcDbCircle
 10
365.2907419865835
 20
1226.746530067865
 30
0.0
 40
1.0
100
AcDbArc
 50
270.0
 51
0.0
  0
ARC
  5
685
330
1B
100
AcDbEntity
  8
4
100
AcDbCircle
 10
356.2907419865835
 20
1207.746530067865
 30
0.0
 40
5.0
100
AcDbArc
 50
270.0
 51
90.0
  0
ARC
  5
686
330
1B
100
AcDbEntity
  8
4
100
AcDbCircle
 10
365.2907419865835
 20
1188.746530067865
 30
0.0
 40
1.0
100
AcDbArc
 50
0.0
 51
90.0
  0
LINE
  5
687
330
1B
100
AcDbEntity
  8
4
100
AcDbLine
 10
366.2907419865835
 20
1227.746530067865
 30
0.0
 11
366.2907419865835
 21
1187.746530067865
 31
0.0
  0
LINE
  5
688
330
1B
100
AcDbEntity
  8
4
100
AcDbLine
 10
287.2907419865835
 20
1225.746530067865
 30
0.0
 11
287.2907419865835
 21
1212.746530067865
 31
0.0
  0
LINE
  5
689
330
1B
100
AcDbEntity
  8
4
100
AcDbLine
 10
287.2907419865835
 20
1225.746530067865
 30
0.0
 11
286.2907419865835
 21
1224.746530067865
 31
0.0
  0
LINE
  5
68A
330
1B
100
AcDbEntity
  8
4
100
AcDbLine
 10
286.2907419865835
 20
1190.746530067865
 30
0.0
 11
287.2907419865835
 21
1189.746530067865
 31
0.0
  0
LINE
  5
68B
330
1B
100
AcDbEntity
  8
4
100
AcDbLine
 10
286.2907419865835
 20
1224.746530067865
 30
0.0
 11
286.2907419865835
 21
1190.746530067865
 31
0.0
  0
LINE
  5
68C
330
1B
100
AcDbEntity
  8
4
100
AcDbLine
 10
287.2907419865835
 20
1202.746530067865
 30
0.0
 11
287.2907419865835
 21
1189.746530067864
 31
0.0
  0
LINE
  5
68D
330
1B
100
AcDbEntity
  8
4
100
AcDbLine
 10
379.8907419865834
 20
1227.746530067865
 30
0.0
 11
366.2907419865835
 21
1227.746530067865
 31
0.0
  0
LINE
  5
68E
330
1B
100
AcDbEntity
  8
4
100
AcDbLine
 10
379.8907419865836
 20
1187.746530067865
 30
0.0
 11
366.2907419865835
 21
1187.746530067865
 31
0.0
  0
CIRCLE
  5
6B8
330
1B
100
AcDbEntity
  8
4
100
AcDbCircle
 10
1707.012223903334
 20
191.5433276735153
 30
0.0
 40
47.0
  0
LINE
  5
6C7
330
1B
100
AcDbEntity
  8
L-CENTER
 48
3.0
100
AcDbLine
 10
214.4489133662545
 20
163.0776896335428
 30
0.0
 11
214.4489133662545
 21
220.0089657134877
 31
0.0
  0
LINE
  5
6C8
330
1B
100
AcDbEntity
  8
L-CENTER
 48
3.0
100
AcDbLine
 10
242.9145514062265
 20
191.5433276735153
 30
0.0
 11
185.9832753262816
 21
191.5433276735153
 31
0.0
  0
ARC
  5
6C9
330
1B
100
AcDbEntity
  8
4
100
AcDbCircle
 10
214.4489133662545
 20
191.5433276735153
 30
0.0
 40
17.999995
100
AcDbArc
 50
106.127624815246
 51
73.87237500000144
  0
LINE
  5
6CA
330
1B
100
AcDbEntity
  8
4
100
AcDbLine
 10
219.4489133662545
 20
205.0433276735153
 30
0.0
 11
209.4489133662545
 21
205.0433276735153
 31
0.0
  0
LINE
  5
6CB
330
1B
100
AcDbEntity
  8
4
100
AcDbLine
 10
219.4489133662545
 20
213.0433276735153
 30
0.0
 11
209.4489133662545
 21
213.0433276735153
 31
0.0
  0
LINE
  5
6CD
330
1B
100
AcDbEntity
  8
4
100
AcDbLine
 10
209.4489133662545
 20
213.0433276735153
 30
0.0
 11
209.4489133662545
 21
205.0433276735153
 31
0.0
  0
LINE
  5
6CF
330
1B
100
AcDbEntity
  8
4
100
AcDbLine
 10
219.4489133662545
 20
205.0433276735153
 30
0.0
 11
219.4489133662545
 21
213.0433276735153
 31
0.0
  0
ENDSEC
  0
SECTION
  2
OBJECTS
  0
DICTIONARY
  5
9
330
0
100
AcDbDictionary
281
     1
  3
ACAD_COLOR
350
2F
  3
ACAD_GROUP
350
2D
  3
ACAD_LAYOUT
350
24
  3
ACAD_MATERIAL
350
B
  3
ACAD_MLEADERSTYLE
350
620
  3
ACAD_MLINESTYLE
350
19
  3
ACAD_PLOTSETTINGS
350
2E
  3
ACAD_PLOTSTYLENAME
350
8
  3
ACAD_SCALELIST
350
34
  3
ACAD_TABLESTYLE
350
61F
  3
ACAD_VISUALSTYLE
350
30
  3
ACDBHEADERROUNDTRIPXREC
350
6D3
  3
AcDbVariableDictionary
350
61D
  3
DWGPROPS
350
6D6
  0
DICTIONARY
  5
6D7
330
2C
100
AcDbDictionary
280
     1
281
     1
  3
ACAD_XREC_ROUNDTRIP
360
6D8
  0
DICTIONARY
  5
3
330
2
100
AcDbDictionary
280
     1
281
     1
  3
ACAD_LAYERSTATES
360
4
  0
DICTIONARY
  5
20
330
1F
100
AcDbDictionary
280
     1
281
     1
  3
ADSK_XREC_LAYER_RECONCILED
360
21
  0
DICTIONARY
  5
51B
330
51A
100
AcDbDictionary
280
     1
281
     1
  3
ADSK_XREC_LAYER_RECONCILED
360
51C
  0
DICTIONARY
  5
5
330
1
100
AcDbDictionary
280
     1
281
     1
  3
ADSK_XREC_LAYER_RECONCILED
360
6
  0
DICTIONARY
  5
6F
330
6E
100
AcDbDictionary
280
     1
281
     1
  3
ADSK_XREC_LAYER_RECONCILED
360
70
  0
DICTIONARY
  5
6A
330
69
100
AcDbDictionary
280
     1
281
     1
  3
ADSK_XREC_LAYER_RECONCILED
360
6B
  0
DICTIONARY
  5
19C
330
19B
100
AcDbDictionary
280
     1
281
     1
  3
ADSK_XREC_LAYER_RECONCILED
360
19D
  0
DICTIONARY
  5
5CF
330
5CE
100
AcDbDictionary
280
     1
281
     1
  3
ADSK_XREC_LAYER_RECONCILED
360
5D0
  0
DICTIONARY
  5
1C
330
1B
100
AcDbDictionary
280
     1
281
     1
  3
ACAD_SORTENTS
360
1D
  0
DICTIONARY
  5
2F
102
{ACAD_REACTORS
330
9
102
}
330
9
100
AcDbDictionary
281
     1
  0
DICTIONARY
  5
2D
102
{ACAD_REACTORS
330
9
102
}
330
9
100
AcDbDictionary
281
     1
  0
DICTIONARY
  5
24
102
{ACAD_REACTORS
330
9
102
}
330
9
100
AcDbDictionary
281
     1
  3
Model
350
23
  3
ﾚｲｱｳﾄ1
350
29
  0
DICTIONARY
  5
B
102
{ACAD_REACTORS
330
9
102
}
330
9
100
AcDbDictionary
281
     1
  3
ByBlock
350
67
  3
ByLayer
350
14
  3
Global
350
A
  0
DICTIONARY
  5
620
102
{ACAD_REACTORS
330
9
102
}
330
9
100
AcDbDictionary
281
     1
  3
Standard
350
63B
  0
DICTIONARY
  5
19
102
{ACAD_REACTORS
330
9
102
}
330
9
100
AcDbDictionary
281
     1
  3
STANDARD
350
18
  0
DICTIONARY
  5
2E
102
{ACAD_REACTORS
330
9
102
}
330
9
100
AcDbDictionary
281
     1
  0
ACDBDICTIONARYWDFLT
  5
8
102
{ACAD_REACTORS
330
9
102
}
330
9
100
AcDbDictionary
281
     1
  3
Normal
350
7
100
AcDbDictionaryWithDefault
340
7
  0
DICTIONARY
  5
34
102
{ACAD_REACTORS
330
9
102
}
330
9
100
AcDbDictionary
281
     1
  3
*A1
350
56
  3
*A10
350
5F
  3
*A11
350
60
  3
*A12
350
61
  3
*A13
350
62
  3
*A14
350
63
  3
*A15
350
64
  3
*A16
350
65
  3
*A17
350
66
  3
*A2
350
57
  3
*A3
350
58
  3
*A4
350
59
  3
*A5
350
5A
  3
*A6
350
5B
  3
*A7
350
5C
  3
*A8
350
5D
  3
*A9
350
5E
  0
DICTIONARY
  5
61F
102
{ACAD_REACTORS
330
9
102
}
330
9
100
AcDbDictionary
281
     1
  3
Standard
350
66A
  0
DICTIONARY
  5
30
102
{ACAD_REACTORS
330
9
102
}
330
9
100
AcDbDictionary
281
     1
  3
2dWireframe
350
627
  3
Basic
350
62A
  3
Brighten
350
62E
  3
ColorChange
350
632
  3
Conceptual
350
62C
  3
Dim
350
62D
  3
EdgeColorOff
350
635
  3
Facepattern
350
631
  3
Flat
350
623
  3
FlatWithEdges
350
624
  3
Gouraud
350
625
  3
GouraudWithEdges
350
626
  3
Hidden
350
629
  3
JitterOff
350
633
  3
Linepattern
350
630
  3
OverhangOff
350
634
  3
Realistic
350
62B
  3
Shaded
350
63A
  3
Shaded with edges
350
639
  3
Shades of Gray
350
636
  3
Sketchy
350
637
  3
Thicken
350
62F
  3
Wireframe
350
628
  3
X-Ray
350
638
  0
DICTIONARY
  5
6D3
102
{ACAD_REACTORS
330
9
102
}
330
9
100
AcDbDictionary
281
     1
  3
COLORDICT
350
6D4
  3
MATERIALDICT
350
6D5
  0
DICTIONARY
  5
61D
102
{ACAD_REACTORS
330
9
102
}
330
9
100
AcDbDictionary
281
     1
  3
CANNOSCALE
350
61E
  3
CMLEADERSTYLE
350
669
  3
CTABLESTYLE
350
66B
  3
DIMASSOC
350
6D0
  3
HIDETEXT
350
6D1
  3
MSLTSCALE
350
6D9
  3
XCLIPFRAME
350
6D2
  0
XRECORD
  5
6D6
102
{ACAD_REACTORS
330
9
102
}
330
9
100
AcDbXrecord
280
     1
  1
DWGPROPS COOKIE
  2

  3

  4

  6

  7

  8
sg-d03
  9

300
=
301
=
302
=
303
=
304
=
305
=
306
=
307
=
308
=
309
=
 40
0.0
 41
2457407.211298704
 42
2458115.270155197
  1

 90
        0
  0
XRECORD
  5
6D8
102
{ACAD_REACTORS
330
6D7
102
}
330
6D7
100
AcDbXrecord
280
     1
102
VTR_0.000_0.000_1.000_1.000_GRIDDISPLAY
 70
     3
102
VTR_0.000_0.000_1.000_1.000_GRIDMAJOR
 70
     5
102
VTR_0.000_0.000_1.000_1.000_DEFAULTLIGHTING
280
     1
102
VTR_0.000_0.000_1.000_1.000_DEFAULTLIGHTINGTYPE
 70
     1
102
VTR_0.000_0.000_1.000_1.000_BRIGHTNESS
141
0.0
102
VTR_0.000_0.000_1.000_1.000_CONTRAST
142
0.0
  0
DICTIONARY
  5
4
102
{ACAD_REACTORS
330
3
102
}
330
3
100
AcDbDictionary
281
     1
  0
XRECORD
  5
21
102
{ACAD_REACTORS
330
20
102
}
330
20
100
AcDbXrecord
280
     1
290
     1
  0
XRECORD
  5
51C
102
{ACAD_REACTORS
330
51B
102
}
330
51B
100
AcDbXrecord
280
     1
290
     1
  0
XRECORD
  5
6
102
{ACAD_REACTORS
330
5
102
}
330
5
100
AcDbXrecord
280
     1
290
     1
  0
XRECORD
  5
70
102
{ACAD_REACTORS
330
6F
102
}
330
6F
100
AcDbXrecord
280
     1
290
     1
  0
XRECORD
  5
6B
102
{ACAD_REACTORS
330
6A
102
}
330
6A
100
AcDbXrecord
280
     1
290
     1
  0
XRECORD
  5
19D
102
{ACAD_REACTORS
330
19C
102
}
330
19C
100
AcDbXrecord
280
     1
290
     1
  0
XRECORD
  5
5D0
102
{ACAD_REACTORS
330
5CF
102
}
330
5CF
100
AcDbXrecord
280
     1
290
     1
  0
SORTENTSTABLE
  5
1D
102
{ACAD_REACTORS
330
1C
102
}
330
1C
100
AcDbSortentsTable
330
1B
331
0
  5
E8
331
6D
  5
71
331
71
  5
72
331
72
  5
73
331
73
  5
74
331
74
  5
75
331
75
  5
76
331
76
  5
77
331
77
  5
78
331
78
  5
79
331
79
  5
7A
331
7A
  5
7B
331
7B
  5
7C
331
7C
  5
7D
331
7D
  5
7E
331
7E
  5
7F
331
7F
  5
80
331
80
  5
81
331
81
  5
82
331
82
  5
84
331
83
  5
85
331
84
  5
86
331
85
  5
87
331
86
  5
88
331
87
  5
89
331
88
  5
8A
331
89
  5
8B
331
8A
  5
8C
331
8B
  5
8D
331
8C
  5
8E
331
8D
  5
8F
331
8E
  5
90
331
8F
  5
91
331
90
  5
92
331
91
  5
93
331
92
  5
94
331
93
  5
95
331
94
  5
96
331
95
  5
97
331
96
  5
98
331
97
  5
99
331
98
  5
9A
331
99
  5
9B
331
9A
  5
9C
331
9B
  5
9D
331
9C
  5
9E
331
9D
  5
9F
331
9E
  5
A0
331
9F
  5
A1
331
A0
  5
A2
331
A1
  5
A3
331
A2
  5
A4
331
A3
  5
A5
331
A4
  5
A6
331
A5
  5
A7
331
A6
  5
A8
331
A7
  5
A9
331
A8
  5
AA
331
A9
  5
AB
331
AA
  5
AD
331
AB
  5
AE
331
AC
  5
AF
331
AD
  5
B0
331
AE
  5
B1
331
AF
  5
B2
331
B0
  5
B3
331
B1
  5
B4
331
B2
  5
B5
331
B3
  5
B6
331
B4
  5
B7
331
B5
  5
B8
331
B6
  5
B9
331
B7
  5
BA
331
B8
  5
BB
331
B9
  5
BC
331
BA
  5
BD
331
BB
  5
BE
331
BC
  5
BF
331
BD
  5
C0
331
BE
  5
C1
331
BF
  5
C2
331
C0
  5
C3
331
C1
  5
C4
331
C2
  5
C5
331
C3
  5
C6
331
C4
  5
C7
331
C5
  5
C8
331
C6
  5
C9
331
C7
  5
CA
331
C8
  5
CB
331
C9
  5
CC
331
CA
  5
CD
331
CB
  5
CE
331
CC
  5
CF
331
CD
  5
D0
331
CE
  5
D1
331
CF
  5
D2
331
D0
  5
D3
331
D1
  5
D4
331
D2
  5
D5
331
D3
  5
D6
331
D4
  5
D7
331
D5
  5
D8
331
D6
  5
D9
331
D7
  5
DA
331
D8
  5
DB
331
D9
  5
DC
331
DA
  5
DD
331
DB
  5
DE
331
DC
  5
DF
331
DD
  5
E0
331
DE
  5
E1
331
DF
  5
E2
331
E0
  5
E4
331
E1
  5
E5
331
E2
  5
E6
331
E3
  5
E7
331
E8
  5
EC
331
E9
  5
ED
331
EA
  5
EE
331
F5
  5
F9
331
F6
  5
FA
331
F7
  5
FB
331
F8
  5
FC
331
F9
  5
FE
331
FA
  5
FF
331
FB
  5
100
331
FC
  5
101
331
FD
  5
102
331
FE
  5
103
331
FF
  5
109
331
105
  5
111
331
10D
  5
116
331
112
  5
117
331
113
  5
11C
331
118
  5
124
331
120
  5
125
331
121
  5
126
331
122
  5
127
331
123
  5
128
331
124
  5
129
331
125
  5
12A
331
126
  5
12B
331
127
  5
12C
331
128
  5
12D
331
129
  5
12E
331
12A
  5
12F
331
12B
  5
130
331
12C
  5
131
331
12D
  5
133
331
12E
  5
134
331
12F
  5
135
331
130
  5
136
331
131
  5
137
331
132
  5
138
331
133
  5
139
331
134
  5
13A
331
135
  5
13B
331
136
  5
13C
331
137
  5
13D
331
138
  5
13E
331
139
  5
13F
331
13A
  5
140
331
13B
  5
141
331
13C
  5
142
331
13D
  5
143
331
13E
  5
144
331
13F
  5
145
331
140
  5
146
331
141
  5
147
331
144
  5
14A
331
145
  5
14B
331
146
  5
14C
331
147
  5
14D
331
148
  5
14E
331
149
  5
14F
331
14A
  5
150
331
14B
  5
151
331
14C
  5
152
331
14D
  5
153
331
14E
  5
154
331
14F
  5
155
331
150
  5
156
331
151
  5
157
331
152
  5
158
331
153
  5
159
331
154
  5
15A
331
155
  5
15B
331
156
  5
15C
331
157
  5
15D
331
15C
  5
162
331
15D
  5
163
331
15E
  5
164
331
15F
  5
165
331
160
  5
166
331
161
  5
167
331
162
  5
168
331
163
  5
169
331
164
  5
16A
331
165
  5
16B
331
166
  5
16C
331
167
  5
16D
331
168
  5
16E
331
169
  5
16F
331
16A
  5
170
331
16B
  5
171
331
16C
  5
172
331
16D
  5
173
331
16E
  5
174
331
16F
  5
175
331
170
  5
176
331
171
  5
177
331
172
  5
178
331
173
  5
179
331
174
  5
17A
331
175
  5
17B
331
176
  5
17C
331
177
  5
17D
331
178
  5
17E
331
179
  5
17F
331
17A
  5
180
331
17B
  5
181
331
17C
  5
182
331
17D
  5
183
331
17E
  5
184
331
17F
  5
185
331
180
  5
186
331
181
  5
187
331
182
  5
188
331
183
  5
189
331
184
  5
18A
331
185
  5
18B
331
186
  5
18C
331
187
  5
18D
331
188
  5
18E
331
189
  5
18F
331
18A
  5
190
331
18B
  5
191
331
18C
  5
192
331
18D
  5
193
331
18E
  5
194
331
18F
  5
195
331
190
  5
196
331
191
  5
197
331
192
  5
198
331
193
  5
199
331
194
  5
19A
331
0
  5
19E
331
0
  5
19F
331
0
  5
1A0
331
0
  5
1A1
331
0
  5
1A2
331
0
  5
1A3
331
0
  5
1A4
331
0
  5
1A5
331
0
  5
1A6
331
0
  5
1A7
331
0
  5
1A8
331
0
  5
1A9
331
0
  5
1AA
331
0
  5
1AB
331
0
  5
1AC
331
0
  5
1AD
331
0
  5
1AE
331
0
  5
1AF
331
0
  5
1B0
331
0
  5
1B1
331
0
  5
1B2
331
0
  5
1B3
331
0
  5
1B4
331
0
  5
1B5
331
0
  5
1B6
331
0
  5
1B7
331
0
  5
1B8
331
0
  5
1B9
331
0
  5
1BA
331
0
  5
1BB
331
0
  5
1BC
331
0
  5
1BD
331
0
  5
1BE
331
0
  5
1BF
331
0
  5
1C0
331
0
  5
1C1
331
0
  5
1C2
331
0
  5
1C3
331
0
  5
1C4
331
0
  5
1C5
331
0
  5
1C6
331
0
  5
1C7
331
0
  5
1C8
331
0
  5
1C9
331
0
  5
1CA
331
0
  5
1CB
331
0
  5
1CC
331
0
  5
1CD
331
0
  5
1CE
331
0
  5
1CF
331
0
  5
1D0
331
0
  5
1D1
331
0
  5
1D2
331
0
  5
1D3
331
0
  5
1D4
331
0
  5
1D5
331
0
  5
1D6
331
0
  5
1D7
331
0
  5
1D8
331
0
  5
1D9
331
0
  5
1DA
331
0
  5
1DB
331
0
  5
1DC
331
0
  5
1DD
331
0
  5
1E4
331
0
  5
1EA
331
0
  5
1EB
331
0
  5
1EC
331
0
  5
1ED
331
0
  5
1EE
331
0
  5
1FB
331
0
  5
1FC
331
0
  5
1FD
331
0
  5
1FE
331
0
  5
1FF
331
0
  5
200
331
0
  5
201
331
0
  5
202
331
0
  5
203
331
0
  5
204
331
0
  5
205
331
0
  5
206
331
0
  5
207
331
0
  5
208
331
0
  5
209
331
0
  5
20A
331
0
  5
20B
331
0
  5
20C
331
0
  5
20D
331
0
  5
20E
331
0
  5
20F
331
0
  5
210
331
20E
  5
214
331
20F
  5
215
331
210
  5
216
331
211
  5
217
331
212
  5
218
331
213
  5
219
331
214
  5
21A
331
215
  5
21B
331
216
  5
21C
331
217
  5
21D
331
218
  5
21E
331
219
  5
21F
331
21A
  5
220
331
21B
  5
221
331
21C
  5
222
331
21D
  5
223
331
21E
  5
224
331
21F
  5
225
331
220
  5
226
331
221
  5
227
331
222
  5
228
331
223
  5
229
331
224
  5
22A
331
225
  5
22B
331
226
  5
22C
331
227
  5
22D
331
228
  5
22E
331
229
  5
22F
331
22A
  5
230
331
22B
  5
231
331
22C
  5
232
331
22D
  5
233
331
22E
  5
234
331
22F
  5
235
331
230
  5
236
331
231
  5
237
331
232
  5
238
331
233
  5
239
331
234
  5
23A
331
235
  5
23B
331
236
  5
23C
331
237
  5
23D
331
238
  5
23E
331
239
  5
23F
331
23A
  5
240
331
23B
  5
241
331
23C
  5
242
331
23D
  5
243
331
23E
  5
244
331
23F
  5
245
331
240
  5
246
331
241
  5
247
331
242
  5
248
331
243
  5
249
331
244
  5
24A
331
245
  5
24B
331
246
  5
24C
331
247
  5
24D
331
248
  5
24E
331
249
  5
24F
331
24A
  5
250
331
24B
  5
251
331
24C
  5
252
331
24D
  5
253
331
24E
  5
254
331
24F
  5
255
331
250
  5
256
331
251
  5
257
331
252
  5
258
331
253
  5
259
331
254
  5
25A
331
255
  5
25B
331
256
  5
25C
331
257
  5
25D
331
258
  5
25E
331
259
  5
25F
331
25A
  5
260
331
25B
  5
261
331
25C
  5
262
331
25D
  5
263
331
25E
  5
264
331
25F
  5
265
331
260
  5
266
331
261
  5
267
331
262
  5
268
331
263
  5
269
331
264
  5
26A
331
265
  5
26B
331
266
  5
26C
331
267
  5
26D
331
268
  5
26E
331
269
  5
26F
331
26A
  5
270
331
26B
  5
271
331
26C
  5
272
331
26D
  5
273
331
26E
  5
274
331
26F
  5
275
331
270
  5
276
331
271
  5
277
331
272
  5
278
331
273
  5
279
331
274
  5
27A
331
275
  5
27B
331
276
  5
27C
331
277
  5
27D
331
278
  5
27E
331
279
  5
27F
331
27A
  5
280
331
27B
  5
281
331
27C
  5
282
331
27D
  5
283
331
27E
  5
284
331
27F
  5
285
331
280
  5
286
331
281
  5
287
331
282
  5
288
331
283
  5
289
331
284
  5
28A
331
285
  5
28B
331
286
  5
28C
331
287
  5
28D
331
288
  5
28E
331
289
  5
28F
331
28A
  5
290
331
28B
  5
291
331
28C
  5
292
331
28D
  5
293
331
28E
  5
294
331
28F
  5
295
331
290
  5
296
331
291
  5
297
331
292
  5
298
331
293
  5
299
331
294
  5
29A
331
295
  5
29B
331
296
  5
29C
331
297
  5
29D
331
298
  5
29E
331
299
  5
29F
331
29A
  5
2A0
331
29B
  5
2A1
331
29C
  5
2A2
331
29D
  5
2A3
331
29E
  5
2A4
331
29F
  5
2A5
331
2A0
  5
2A6
331
2A1
  5
2A7
331
2A2
  5
2A8
331
2A3
  5
2A9
331
2A4
  5
2AA
331
2A5
  5
2AB
331
2A6
  5
2AC
331
2A7
  5
2AD
331
2A8
  5
2AE
331
2A9
  5
2AF
331
2AA
  5
2B0
331
2AB
  5
2B1
331
2AC
  5
2B2
331
2AD
  5
2B3
331
2AE
  5
2B4
331
2AF
  5
2B5
331
2B0
  5
2B6
331
2B1
  5
2B7
331
2B2
  5
2B8
331
2B3
  5
2B9
331
2B4
  5
2BA
331
2B5
  5
2BB
331
2B6
  5
2BC
331
2B7
  5
2BD
331
2B8
  5
2BE
331
2B9
  5
2BF
331
2BA
  5
2C0
331
2BB
  5
2C1
331
2BC
  5
2C2
331
2BD
  5
2C3
331
2BE
  5
2C4
331
2BF
  5
2C5
331
2C0
  5
2C6
331
2C1
  5
2C7
331
2C2
  5
2C8
331
2C3
  5
2C9
331
2C4
  5
2CA
331
2C5
  5
2CB
331
2C6
  5
2CC
331
2C7
  5
2CD
331
2C8
  5
2CE
331
2C9
  5
2CF
331
2CA
  5
2D0
331
2CB
  5
2D1
331
2CC
  5
2D2
331
2CD
  5
2D3
331
2CE
  5
2D4
331
2CF
  5
2D5
331
2D0
  5
2D6
331
2D1
  5
2D7
331
2D2
  5
2D8
331
2D3
  5
2D9
331
2D4
  5
2DA
331
2D5
  5
2DB
331
2D6
  5
2DC
331
2D7
  5
2DD
331
2D8
  5
2DE
331
2D9
  5
2DF
331
2DA
  5
2E0
331
2DB
  5
2E1
331
2DC
  5
2E2
331
2DD
  5
2E3
331
2DE
  5
2E4
331
2DF
  5
2E5
331
2E0
  5
2E6
331
2E1
  5
2E7
331
2E2
  5
2E8
331
2E3
  5
2E9
331
2E4
  5
2EA
331
2E5
  5
2EB
331
2E6
  5
2EC
331
2E7
  5
2ED
331
2E8
  5
2EE
331
2E9
  5
2EF
331
2EA
  5
2F0
331
2EB
  5
2F1
331
2EC
  5
2F2
331
2ED
  5
2F3
331
2EE
  5
2F4
331
2EF
  5
2F5
331
2F0
  5
2F6
331
2F1
  5
2F7
331
2F2
  5
2F8
331
2F3
  5
2F9
331
2F4
  5
2FA
331
2F5
  5
2FB
331
2F6
  5
2FC
331
2F7
  5
2FD
331
2F8
  5
2FE
331
2F9
  5
2FF
331
2FA
  5
300
331
2FB
  5
301
331
2FC
  5
302
331
2FD
  5
303
331
2FE
  5
304
331
2FF
  5
305
331
300
  5
306
331
301
  5
307
331
302
  5
308
331
303
  5
309
331
304
  5
30A
331
305
  5
30B
331
306
  5
30C
331
307
  5
30D
331
308
  5
30E
331
309
  5
30F
331
30A
  5
310
331
30B
  5
311
331
30C
  5
312
331
30D
  5
313
331
30E
  5
314
331
30F
  5
315
331
310
  5
316
331
311
  5
317
331
312
  5
318
331
313
  5
319
331
314
  5
31A
331
315
  5
31B
331
316
  5
31C
331
317
  5
31D
331
318
  5
31E
331
319
  5
31F
331
31A
  5
320
331
31B
  5
321
331
31C
  5
322
331
31D
  5
323
331
31E
  5
324
331
31F
  5
325
331
320
  5
326
331
321
  5
327
331
322
  5
328
331
323
  5
329
331
324
  5
32A
331
325
  5
32B
331
326
  5
32C
331
327
  5
32D
331
328
  5
32E
331
329
  5
32F
331
32A
  5
330
331
32B
  5
331
331
32C
  5
332
331
32D
  5
333
331
32E
  5
334
331
32F
  5
335
331
330
  5
336
331
331
  5
337
331
332
  5
338
331
333
  5
339
331
334
  5
33A
331
335
  5
33B
331
336
  5
33C
331
337
  5
33D
331
338
  5
33E
331
339
  5
33F
331
33A
  5
340
331
33B
  5
341
331
33C
  5
342
331
33D
  5
343
331
33E
  5
344
331
33F
  5
345
331
340
  5
346
331
341
  5
347
331
342
  5
348
331
343
  5
349
331
344
  5
34A
331
345
  5
34B
331
346
  5
34C
331
347
  5
34D
331
348
  5
34E
331
349
  5
34F
331
34A
  5
350
331
34B
  5
351
331
34C
  5
352
331
34D
  5
353
331
34E
  5
354
331
34F
  5
355
331
350
  5
356
331
351
  5
357
331
352
  5
358
331
353
  5
359
331
354
  5
35A
331
355
  5
35B
331
356
  5
35C
331
357
  5
35D
331
358
  5
35E
331
359
  5
35F
331
35A
  5
360
331
35B
  5
361
331
35C
  5
362
331
35D
  5
363
331
35E
  5
364
331
35F
  5
365
331
360
  5
366
331
361
  5
367
331
362
  5
368
331
363
  5
369
331
364
  5
36A
331
365
  5
36B
331
366
  5
36C
331
367
  5
36D
331
368
  5
36E
331
369
  5
36F
331
36A
  5
370
331
36B
  5
371
331
36C
  5
372
331
36D
  5
373
331
36E
  5
374
331
36F
  5
375
331
370
  5
376
331
371
  5
377
331
372
  5
378
331
373
  5
379
331
374
  5
37A
331
375
  5
37B
331
376
  5
37C
331
377
  5
37D
331
378
  5
37E
331
379
  5
37F
331
37A
  5
380
331
37B
  5
381
331
37C
  5
382
331
37D
  5
383
331
37E
  5
384
331
37F
  5
385
331
380
  5
386
331
381
  5
387
331
382
  5
388
331
383
  5
389
331
384
  5
38A
331
385
  5
38B
331
386
  5
38C
331
387
  5
38D
331
388
  5
38E
331
389
  5
38F
331
38A
  5
390
331
38B
  5
391
331
38C
  5
392
331
38D
  5
393
331
38E
  5
394
331
38F
  5
395
331
390
  5
396
331
391
  5
397
331
392
  5
398
331
393
  5
399
331
394
  5
39A
331
395
  5
39B
331
396
  5
39C
331
397
  5
39D
331
398
  5
39E
331
399
  5
39F
331
39A
  5
3A0
331
39B
  5
3A1
331
39C
  5
3A2
331
39D
  5
3A3
331
39E
  5
3A4
331
39F
  5
3A5
331
3A0
  5
3A6
331
3A1
  5
3A7
331
3A2
  5
3A8
331
3A3
  5
3A9
331
3A4
  5
3AA
331
3A5
  5
3AB
331
3A6
  5
3AC
331
3A7
  5
3AD
331
3A8
  5
3AE
331
3A9
  5
3AF
331
3AA
  5
3B0
331
3AB
  5
3B1
331
3AC
  5
3B2
331
3AD
  5
3B3
331
3AE
  5
3B4
331
3AF
  5
3B5
331
3B0
  5
3B6
331
3B1
  5
3B7
331
3B2
  5
3B8
331
3B3
  5
3B9
331
3B4
  5
3BA
331
3B5
  5
3BB
331
3B6
  5
3BC
331
3B7
  5
3BD
331
3B8
  5
3BE
331
3B9
  5
3BF
331
3BA
  5
3C0
331
3BB
  5
3C1
331
3BC
  5
3C2
331
3BD
  5
3C3
331
3BE
  5
3C4
331
3BF
  5
3C5
331
3C0
  5
3C6
331
3C1
  5
3C7
331
3C2
  5
3C8
331
3C3
  5
3C9
331
3C4
  5
3CA
331
3C5
  5
3CB
331
3C6
  5
3CC
331
3C7
  5
3CD
331
3C8
  5
3CE
331
3C9
  5
3CF
331
3CA
  5
3D0
331
3CE
  5
3D4
331
3CF
  5
3D5
331
3D0
  5
3D6
331
3D1
  5
3D7
331
3D2
  5
3D8
331
3D3
  5
3D9
331
3D4
  5
3DA
331
3D5
  5
3DB
331
3D6
  5
3DC
331
3D7
  5
3DD
331
3D8
  5
3DE
331
3D9
  5
3DF
331
3DA
  5
3E0
331
3DB
  5
3E1
331
3DC
  5
3E2
331
3DD
  5
3E3
331
3DE
  5
3E4
331
3DF
  5
3E5
331
3E0
  5
3E6
331
3E1
  5
3E7
331
3E2
  5
3E8
331
3E3
  5
3E9
331
3E4
  5
3EA
331
3E5
  5
3EB
331
3E6
  5
3EC
331
3E7
  5
3ED
331
3E8
  5
3EE
331
3E9
  5
3EF
331
3EA
  5
3F0
331
3EB
  5
3F1
331
3EC
  5
3F2
331
3ED
  5
3F3
331
3EE
  5
3F4
331
3EF
  5
3F5
331
3F0
  5
3F6
331
3F1
  5
3F7
331
401
  5
407
331
402
  5
408
331
403
  5
409
331
404
  5
40A
331
405
  5
40B
331
406
  5
40C
331
407
  5
40D
331
408
  5
40E
331
409
  5
40F
331
40A
  5
410
331
40B
  5
411
331
40C
  5
412
331
40D
  5
413
331
40E
  5
414
331
40F
  5
415
331
410
  5
416
331
411
  5
417
331
412
  5
418
331
413
  5
419
331
414
  5
41A
331
415
  5
41B
331
416
  5
41C
331
417
  5
41D
331
418
  5
41E
331
419
  5
41F
331
41A
  5
420
331
41B
  5
421
331
41C
  5
422
331
41D
  5
423
331
41E
  5
424
331
41F
  5
425
331
420
  5
426
331
421
  5
427
331
422
  5
428
331
423
  5
429
331
424
  5
42A
331
425
  5
42B
331
426
  5
42C
331
427
  5
42D
331
428
  5
42E
331
429
  5
42F
331
42A
  5
430
331
42B
  5
431
331
42C
  5
432
331
42D
  5
433
331
42E
  5
434
331
42F
  5
435
331
430
  5
436
331
431
  5
437
331
432
  5
438
331
433
  5
439
331
434
  5
43A
331
435
  5
43B
331
436
  5
43C
331
437
  5
43D
331
438
  5
43E
331
439
  5
43F
331
43A
  5
440
331
43B
  5
441
331
43C
  5
442
331
43D
  5
443
331
43E
  5
444
331
43F
  5
445
331
440
  5
446
331
441
  5
447
331
442
  5
448
331
443
  5
449
331
444
  5
44A
331
445
  5
44B
331
446
  5
44C
331
447
  5
44D
331
448
  5
44E
331
0
  5
44F
331
0
  5
450
331
0
  5
451
331
0
  5
452
331
0
  5
453
331
0
  5
454
331
0
  5
455
331
0
  5
456
331
0
  5
457
331
0
  5
458
331
0
  5
459
331
0
  5
45A
331
0
  5
45B
331
0
  5
45C
331
0
  5
45D
331
0
  5
45E
331
0
  5
45F
331
0
  5
460
331
0
  5
461
331
0
  5
462
331
0
  5
463
331
0
  5
464
331
0
  5
465
331
0
  5
466
331
0
  5
467
331
0
  5
468
331
0
  5
469
331
0
  5
46A
331
0
  5
46B
331
0
  5
46C
331
0
  5
46D
331
0
  5
46E
331
0
  5
46F
331
0
  5
470
331
0
  5
471
331
0
  5
472
331
0
  5
473
331
0
  5
474
331
0
  5
475
331
0
  5
476
331
0
  5
477
331
0
  5
478
331
0
  5
479
331
0
  5
47A
331
0
  5
47B
331
0
  5
47C
331
0
  5
47D
331
0
  5
47E
331
0
  5
47F
331
0
  5
480
331
0
  5
481
331
0
  5
482
331
0
  5
483
331
0
  5
484
331
0
  5
485
331
0
  5
486
331
0
  5
487
331
0
  5
488
331
0
  5
489
331
0
  5
48A
331
0
  5
48B
331
0
  5
48C
331
0
  5
48D
331
0
  5
48E
331
0
  5
48F
331
0
  5
490
331
0
  5
491
331
0
  5
492
331
0
  5
493
331
0
  5
494
331
0
  5
495
331
0
  5
496
331
0
  5
497
331
0
  5
498
331
0
  5
499
331
0
  5
49A
331
0
  5
49B
331
0
  5
49C
331
0
  5
49D
331
0
  5
49E
331
0
  5
49F
331
0
  5
4A0
331
0
  5
4A1
331
0
  5
4A2
331
0
  5
4A3
331
0
  5
4A4
331
0
  5
4A5
331
0
  5
4A6
331
0
  5
4A7
331
0
  5
4A8
331
0
  5
4A9
331
0
  5
4AA
331
0
  5
4AB
331
0
  5
4AC
331
0
  5
4AD
331
0
  5
4AE
331
0
  5
4AF
331
0
  5
4B0
331
0
  5
4B1
331
0
  5
4B2
331
0
  5
4B3
331
0
  5
4B4
331
0
  5
4B5
331
0
  5
4B6
331
0
  5
4B7
331
0
  5
4B8
331
0
  5
4B9
331
0
  5
4BA
331
0
  5
4BB
331
0
  5
4BC
331
0
  5
4BD
331
0
  5
4BE
331
0
  5
4BF
331
0
  5
4C0
331
0
  5
4C1
331
0
  5
4C2
331
0
  5
4C3
331
0
  5
4C4
331
0
  5
4C5
331
0
  5
4C6
331
0
  5
4C7
331
0
  5
4C8
331
0
  5
4C9
331
0
  5
4CA
331
0
  5
4CB
331
0
  5
4CC
331
0
  5
4CD
331
0
  5
4CE
331
0
  5
4CF
331
0
  5
4D0
331
0
  5
4D1
331
0
  5
4D2
331
0
  5
4D3
331
0
  5
4D4
331
0
  5
4D5
331
0
  5
4D6
331
0
  5
4D7
331
0
  5
4D8
331
0
  5
4D9
331
0
  5
4DA
331
0
  5
4DB
331
0
  5
4DC
331
0
  5
4DD
331
0
  5
4DE
331
0
  5
4DF
331
0
  5
4E0
331
0
  5
4E1
331
0
  5
4E2
331
0
  5
4E3
331
0
  5
4E4
331
0
  5
4E5
331
0
  5
4E6
331
0
  5
4E7
331
0
  5
4E8
331
0
  5
4E9
331
0
  5
4EA
331
0
  5
4EB
331
0
  5
4EC
331
0
  5
4ED
331
0
  5
4EE
331
0
  5
4EF
331
0
  5
4F0
331
0
  5
4F1
331
0
  5
4F2
331
0
  5
4F3
331
0
  5
4F4
331
0
  5
4F5
331
0
  5
4F6
331
0
  5
4F7
331
0
  5
4F8
331
0
  5
4F9
331
0
  5
4FA
331
0
  5
4FB
331
0
  5
4FC
331
0
  5
4FD
331
0
  5
4FE
331
0
  5
4FF
331
0
  5
500
331
0
  5
501
331
0
  5
502
331
0
  5
503
331
0
  5
504
331
0
  5
505
331
0
  5
506
331
0
  5
507
331
0
  5
508
331
0
  5
509
331
0
  5
50A
331
0
  5
50B
331
0
  5
50C
331
0
  5
50D
331
0
  5
50E
331
0
  5
50F
331
0
  5
510
331
0
  5
511
331
0
  5
512
331
0
  5
513
331
0
  5
514
331
0
  5
515
331
0
  5
516
331
0
  5
517
331
0
  5
518
331
0
  5
519
331
0
  5
51D
331
0
  5
51E
331
0
  5
51F
331
0
  5
520
331
0
  5
521
331
0
  5
522
331
0
  5
523
331
0
  5
524
331
0
  5
525
331
0
  5
526
331
0
  5
527
331
0
  5
528
331
0
  5
529
331
0
  5
52A
331
0
  5
52B
331
0
  5
52C
331
0
  5
52D
331
0
  5
52E
331
0
  5
52F
331
0
  5
530
331
0
  5
531
331
0
  5
532
331
0
  5
533
331
0
  5
534
331
0
  5
535
331
0
  5
536
331
0
  5
537
331
0
  5
538
331
0
  5
539
331
0
  5
53A
331
0
  5
53B
331
0
  5
53C
331
0
  5
53D
331
0
  5
53E
331
0
  5
53F
331
0
  5
540
331
0
  5
541
331
0
  5
542
331
0
  5
543
331
0
  5
544
331
0
  5
545
331
0
  5
546
331
0
  5
547
331
0
  5
548
331
0
  5
549
331
0
  5
54A
331
0
  5
54B
331
0
  5
54C
331
0
  5
54D
331
0
  5
54E
331
0
  5
54F
331
0
  5
550
331
0
  5
551
331
0
  5
552
331
0
  5
553
331
0
  5
554
331
0
  5
555
331
0
  5
556
331
0
  5
557
331
0
  5
558
331
0
  5
559
331
0
  5
55A
331
0
  5
55B
331
0
  5
55C
331
0
  5
55D
331
0
  5
55E
331
0
  5
55F
331
0
  5
560
331
0
  5
561
331
0
  5
562
331
0
  5
563
331
0
  5
564
331
0
  5
565
331
0
  5
566
331
0
  5
567
331
0
  5
568
331
0
  5
569
331
0
  5
56A
331
0
  5
56B
331
0
  5
56C
331
0
  5
56D
331
0
  5
56E
331
0
  5
56F
331
0
  5
570
331
0
  5
571
331
0
  5
572
331
0
  5
573
331
0
  5
574
331
0
  5
575
331
0
  5
576
331
0
  5
577
331
0
  5
578
331
0
  5
579
331
0
  5
57A
331
0
  5
57B
331
0
  5
57C
331
0
  5
57D
331
0
  5
57E
331
0
  5
57F
331
0
  5
580
331
0
  5
581
331
0
  5
582
331
0
  5
583
331
0
  5
584
331
0
  5
585
331
0
  5
586
331
0
  5
587
331
0
  5
588
331
0
  5
589
331
0
  5
58A
331
0
  5
58B
331
0
  5
58C
331
0
  5
58D
331
0
  5
58E
331
0
  5
58F
331
0
  5
590
331
0
  5
591
331
0
  5
592
331
0
  5
593
331
0
  5
594
331
0
  5
595
331
0
  5
596
331
0
  5
597
331
0
  5
598
331
0
  5
599
331
0
  5
59A
331
0
  5
59B
331
0
  5
59C
331
0
  5
59D
331
0
  5
59E
331
0
  5
59F
331
0
  5
5A0
331
0
  5
5A1
331
0
  5
5A2
331
0
  5
5A3
331
0
  5
5A4
331
0
  5
5A5
331
0
  5
5A6
331
0
  5
5A7
331
0
  5
5A8
331
0
  5
5A9
331
0
  5
5AA
331
0
  5
5AB
331
0
  5
5AC
331
0
  5
5AD
331
0
  5
5AE
331
0
  5
5AF
331
0
  5
5B0
331
0
  5
5B1
331
0
  5
5B2
331
0
  5
5B3
331
0
  5
5B4
331
0
  5
5B5
331
0
  5
5B6
331
0
  5
5B7
331
0
  5
5B8
331
0
  5
5B9
331
0
  5
5BA
331
0
  5
5BB
331
0
  5
5BC
331
0
  5
5BD
331
0
  5
5BE
331
0
  5
5BF
331
0
  5
5C0
331
0
  5
5C1
331
0
  5
5C2
331
0
  5
5C3
331
0
  5
5C4
331
0
  5
5C5
331
0
  5
5C6
331
0
  5
5C7
331
0
  5
5C8
331
0
  5
5C9
331
0
  5
5CA
331
0
  5
5CB
331
0
  5
5CC
331
0
  5
5CD
331
0
  5
5D1
331
0
  5
5D2
331
0
  5
5D3
331
0
  5
5D4
331
0
  5
5D5
331
0
  5
5D6
331
0
  5
5D7
331
0
  5
5D8
331
0
  5
5D9
331
0
  5
5DA
331
0
  5
5DB
331
0
  5
5DC
331
0
  5
5DD
331
0
  5
5DE
331
0
  5
5DF
331
0
  5
5E0
331
5DB
  5
5E1
331
0
  5
5E2
331
0
  5
5E3
331
0
  5
5E4
331
0
  5
5E5
331
0
  5
5E6
331
0
  5
5E7
331
0
  5
5E8
331
0
  5
5E9
331
0
  5
5EA
331
0
  5
5EB
331
0
  5
5EC
331
0
  5
5ED
331
0
  5
5EE
331
0
  5
5EF
331
0
  5
5F0
331
0
  5
5F1
331
0
  5
5F2
331
0
  5
5F3
331
0
  5
5F4
331
0
  5
5F5
331
0
  5
5F6
331
0
  5
5F7
331
0
  5
5F8
331
0
  5
5F9
331
0
  5
5FA
331
0
  5
5FB
331
0
  5
5FC
331
0
  5
5FD
331
5F8
  5
5FE
331
5F9
  5
5FF
331
5FA
  5
600
331
5FB
  5
601
331
5FC
  5
602
331
5FD
  5
603
331
5FE
  5
604
331
5FF
  5
605
331
600
  5
606
331
601
  5
607
331
602
  5
608
331
603
  5
609
331
604
  5
60A
331
605
  5
60B
331
606
  5
60C
331
607
  5
60D
331
608
  5
60E
331
609
  5
60F
331
60A
  5
610
331
60B
  5
611
331
60C
  5
612
331
0
  5
614
331
0
  5
615
331
610
  5
616
331
611
  5
617
331
612
  5
618
331
613
  5
619
331
614
  5
61A
331
615
  5
61B
331
616
  5
61C
331
617
  5
63D
331
618
  5
63E
331
619
  5
63F
331
61A
  5
640
331
0
  5
641
331
0
  5
64B
331
63F
  5
E3
331
640
  5
83
331
641
  5
AC
331
64B
  5
64C
331
64C
  5
64D
331
64D
  5
64E
331
64E
  5
64F
331
64F
  5
650
331
650
  5
651
331
651
  5
652
331
652
  5
653
331
653
  5
654
331
654
  5
655
331
655
  5
656
331
656
  5
657
331
657
  5
658
331
658
  5
659
331
659
  5
65A
331
65A
  5
65B
331
65B
  5
65C
331
65C
  5
65D
331
65D
  5
65E
331
65E
  5
65F
331
65F
  5
660
331
660
  5
661
331
661
  5
662
331
662
  5
663
331
663
  5
664
331
664
  5
665
331
665
  5
666
331
666
  5
667
331
667
  5
668
331
668
  5
66C
331
66F
  5
670
331
670
  5
671
331
671
  5
672
331
672
  5
673
331
673
  5
674
331
674
  5
675
331
675
  5
676
331
676
  5
677
331
677
  5
678
331
678
  5
679
331
679
  5
67C
331
67A
  5
67D
331
67B
  5
67E
331
67C
  5
67F
331
67D
  5
680
331
67E
  5
681
331
67F
  5
682
331
680
  5
683
331
681
  5
684
331
682
  5
685
331
683
  5
686
331
684
  5
687
331
685
  5
688
331
686
  5
689
331
687
  5
68A
331
688
  5
68B
331
689
  5
68C
331
68A
  5
68D
331
68B
  5
68E
331
68C
  5
690
331
68D
  5
691
331
68E
  5
692
331
0
  5
695
331
0
  5
696
331
0
  5
697
331
0
  5
698
331
0
  5
699
331
0
  5
69A
331
0
  5
6A8
331
0
  5
6A9
331
0
  5
6AA
331
0
  5
6AB
331
0
  5
6AC
331
0
  5
6AD
331
0
  5
6AE
331
0
  5
6AF
331
0
  5
6B0
  0
LAYOUT
  5
23
102
{ACAD_REACTORS
330
24
102
}
330
24
100
AcDbPlotSettings
  1

  2
Bullzip PDF Printer.pc3
  4
A3
  6

 40
0.2
 41
0.0
 42
0.0
 43
0.0
 44
420.2
 45
297.1
 46
25.0
 47
12.0
 48
149.9999997666664
 49
10.0
140
2059.999995391666
141
1372.499996820832
142
1.0
143
5.0
 70
 11936
 72
     1
 73
     0
 74
     4
  7
monochrome.ctb
 75
     0
147
0.2
148
-149.9999997666664
149
-10.0
100
AcDbLayout
  1
Model
 70
     0
 71
     0
 10
0.0
 20
0.0
 11
12.0
 21
9.0
 12
0.0
 22
0.0
 32
0.0
 14
185.9832753262817
 24
41.54332767351548
 34
0.0
 15
1858.317158903334
 25
1357.746530067866
 35
0.0
146
0.0
 13
0.0
 23
0.0
 33
0.0
 16
1.0
 26
0.0
 36
0.0
 17
0.0
 27
1.0
 37
0.0
 76
     0
330
1B
331
31
1001
ACAD_PSEXT
1000
Bullzip PDF Printer.pc3
1000
Bullzip PDF Printer
1000
BULLZIP
1000
Bullzip PDF Printer 10.1.0.1871
1070
     0
  0
LAYOUT
  5
29
102
{ACAD_REACTORS
330
24
102
}
330
24
100
AcDbPlotSettings
  1

  2
SR-LP8300F
  4

  6

 40
0.0
 41
0.0
 42
0.0
 43
0.0
 44
0.0
 45
0.0
 46
0.0
 47
0.0
 48
0.0
 49
0.0
140
0.0
141
0.0
142
1.0
143
1.0
 70
   688
 72
     0
 73
     0
 74
     5
  7
monochrome.ctb
 75
    16
147
1.0
148
0.0
149
0.0
100
AcDbLayout
  1
ﾚｲｱｳﾄ1
 70
     0
 71
     1
 10
0.0
 20
0.0
 11
12.0
 21
9.0
 12
0.0
 22
0.0
 32
0.0
 14
1000000000000000E+20
 24
1000000000000000E+20
 34
1000000000000000E+20
 15
-1000000000000000E+20
 25
-1000000000000000E+20
 35
-1000000000000000E+20
146
0.0
 13
0.0
 23
0.0
 33
0.0
 16
1.0
 26
0.0
 36
0.0
 17
0.0
 27
1.0
 37
0.0
 76
     0
330
26
  0
MATERIAL
  5
67
102
{ACAD_REACTORS
330
B
102
}
102
{ACAD_XDICTIONARY
360
6DE
102
}
330
B
100
AcDbMaterial
  1
ByBlock
 72
     0
 73
     2
 43
0.0208333333333333
 43
0.0
 43
0.0
 43
0.0
 43
0.0
 43
0.0208333333333333
 43
0.0
 43
0.0
 43
0.0
 43
0.0
 43
1.0
 43
0.0
 43
0.0
 43
0.0
 43
0.0
 43
1.0
 77
     0
 78
     2
 47
0.0208333333333333
 47
0.0
 47
0.0
 47
0.0
 47
0.0
 47
0.0208333333333333
 47
0.0
 47
0.0
 47
0.0
 47
0.0
 47
1.0
 47
0.0
 47
0.0
 47
0.0
 47
0.0
 47
1.0
171
     0
172
     2
 49
0.0208333333333333
 49
0.0
 49
0.0
 49
0.0
 49
0.0
 49
0.0208333333333333
 49
0.0
 49
0.0
 49
0.0
 49
0.0
 49
1.0
 49
0.0
 49
0.0
 49
0.0
 49
0.0
 49
1.0
175
     0
176
     2
142
0.0208333333333333
142
0.0
142
0.0
142
0.0
142
0.0
142
0.0208333333333333
142
0.0
142
0.0
142
0.0
142
0.0
142
1.0
142
0.0
142
0.0
142
0.0
142
0.0
142
1.0
179
     0
270
     2
144
0.0208333333333333
144
0.0
144
0.0
144
0.0
144
0.0
144
0.0208333333333333
144
0.0
144
0.0
144
0.0
144
0.0
144
1.0
144
0.0
144
0.0
144
0.0
144
0.0
144
1.0
274
     2
147
0.0208333333333333
147
0.0
147
0.0
147
0.0
147
0.0
147
0.0208333333333333
147
0.0
147
0.0
147
0.0
147
0.0
147
1.0
147
0.0
147
0.0
147
0.0
147
0.0
147
1.0
  0
MATERIAL
  5
14
102
{ACAD_REACTORS
330
B
102
}
102
{ACAD_XDICTIONARY
360
6DA
102
}
330
B
100
AcDbMaterial
  1
ByLayer
 72
     0
 73
     2
 43
0.0208333333333333
 43
0.0
 43
0.0
 43
0.0
 43
0.0
 43
0.0208333333333333
 43
0.0
 43
0.0
 43
0.0
 43
0.0
 43
1.0
 43
0.0
 43
0.0
 43
0.0
 43
0.0
 43
1.0
 77
     0
 78
     2
 47
0.0208333333333333
 47
0.0
 47
0.0
 47
0.0
 47
0.0
 47
0.0208333333333333
 47
0.0
 47
0.0
 47
0.0
 47
0.0
 47
1.0
 47
0.0
 47
0.0
 47
0.0
 47
0.0
 47
1.0
171
     0
172
     2
 49
0.0208333333333333
 49
0.0
 49
0.0
 49
0.0
 49
0.0
 49
0.0208333333333333
 49
0.0
 49
0.0
 49
0.0
 49
0.0
 49
1.0
 49
0.0
 49
0.0
 49
0.0
 49
0.0
 49
1.0
175
     0
176
     2
142
0.0208333333333333
142
0.0
142
0.0
142
0.0
142
0.0
142
0.0208333333333333
142
0.0
142
0.0
142
0.0
142
0.0
142
1.0
142
0.0
142
0.0
142
0.0
142
0.0
142
1.0
179
     0
270
     2
144
0.0208333333333333
144
0.0
144
0.0
144
0.0
144
0.0
144
0.0208333333333333
144
0.0
144
0.0
144
0.0
144
0.0
144
1.0
144
0.0
144
0.0
144
0.0
144
0.0
144
1.0
274
     2
147
0.0208333333333333
147
0.0
147
0.0
147
0.0
147
0.0
147
0.0208333333333333
147
0.0
147
0.0
147
0.0
147
0.0
147
1.0
147
0.0
147
0.0
147
0.0
147
0.0
147
1.0
  0
MATERIAL
  5
A
102
{ACAD_REACTORS
330
B
102
}
102
{ACAD_XDICTIONARY
360
6DC
102
}
330
B
100
AcDbMaterial
  1
Global
 72
     0
 73
     2
 43
0.0208333333333333
 43
0.0
 43
0.0
 43
0.0
 43
0.0
 43
0.0208333333333333
 43
0.0
 43
0.0
 43
0.0
 43
0.0
 43
1.0
 43
0.0
 43
0.0
 43
0.0
 43
0.0
 43
1.0
 77
     0
 78
     2
 47
0.0208333333333333
 47
0.0
 47
0.0
 47
0.0
 47
0.0
 47
0.0208333333333333
 47
0.0
 47
0.0
 47
0.0
 47
0.0
 47
1.0
 47
0.0
 47
0.0
 47
0.0
 47
0.0
 47
1.0
171
     0
172
     2
 49
0.0208333333333333
 49
0.0
 49
0.0
 49
0.0
 49
0.0
 49
0.0208333333333333
 49
0.0
 49
0.0
 49
0.0
 49
0.0
 49
1.0
 49
0.0
 49
0.0
 49
0.0
 49
0.0
 49
1.0
175
     0
176
     2
142
0.0208333333333333
142
0.0
142
0.0
142
0.0
142
0.0
142
0.0208333333333333
142
0.0
142
0.0
142
0.0
142
0.0
142
1.0
142
0.0
142
0.0
142
0.0
142
0.0
142
1.0
179
     0
270
     2
144
0.0208333333333333
144
0.0
144
0.0
144
0.0
144
0.0
144
0.0208333333333333
144
0.0
144
0.0
144
0.0
144
0.0
144
1.0
144
0.0
144
0.0
144
0.0
144
0.0
144
1.0
274
     2
147
0.0208333333333333
147
0.0
147
0.0
147
0.0
147
0.0
147
0.0208333333333333
147
0.0
147
0.0
147
0.0
147
0.0
147
1.0
147
0.0
147
0.0
147
0.0
147
0.0
147
1.0
1001
ACAD
1070
    -1
1070
     3
1070
     0
1000

1071
        0
  0
MLEADERSTYLE
  5
63B
102
{ACAD_REACTORS
330
620
102
}
102
{ACAD_XDICTIONARY
360
710
102
}
330
620
100
AcDbMLeaderStyle
170
     2
171
     1
172
     0
 90
        2
 40
0.0
 41
0.0
173
     1
 91
-1056964608
340
11
 92
       -2
290
     1
 42
0.09
291
     1
 43
0.36
  3
Standard
341
0
 44
0.18
300

342
12
174
     1
178
     6
175
     1
176
     0
 93
-1056964608
 45
0.18
292
     0
297
     0
 46
0.18
343
0
 94
-1056964608
 47
1.0
 49
1.0
140
1.0
293
     1
141
0.0
294
     1
177
     0
142
1.0
295
     0
296
     0
143
0.125
1001
ACAD_MLEADERVER
1070
     2
  0
MLINESTYLE
  5
18
102
{ACAD_REACTORS
330
19
102
}
330
19
100
AcDbMlineStyle
  2
STANDARD
 70
     0
  3

 62
     0
 51
90.0
 52
90.0
 71
     2
 49
0.5
 62
   256
  6
BYLAYER
 49
-0.5
 62
   256
  6
BYLAYER
  0
ACDBPLACEHOLDER
  5
7
102
{ACAD_REACTORS
330
8
102
}
330
8
  0
SCALE
  5
56
102
{ACAD_REACTORS
330
34
102
}
330
34
100
AcDbScale
 70
     0
300
1:1
140
1.0
141
1.0
290
     1
  0
SCALE
  5
5F
102
{ACAD_REACTORS
330
34
102
}
330
34
100
AcDbScale
 70
     0
300
3/8" = 1'-0"
140
0.375
141
12.0
290
     0
  0
SCALE
  5
60
102
{ACAD_REACTORS
330
34
102
}
330
34
100
AcDbScale
 70
     0
300
1/2" = 1'-0"
140
0.5
141
12.0
290
     0
  0
SCALE
  5
61
102
{ACAD_REACTORS
330
34
102
}
330
34
100
AcDbScale
 70
     0
300
3/4" = 1'-0"
140
0.75
141
12.0
290
     0
  0
SCALE
  5
62
102
{ACAD_REACTORS
330
34
102
}
330
34
100
AcDbScale
 70
     0
300
1" = 1'-0"
140
1.0
141
12.0
290
     0
  0
SCALE
  5
63
102
{ACAD_REACTORS
330
34
102
}
330
34
100
AcDbScale
 70
     0
300
1-1/2" = 1'-0"
140
1.5
141
12.0
290
     0
  0
SCALE
  5
64
102
{ACAD_REACTORS
330
34
102
}
330
34
100
AcDbScale
 70
     0
300
3" = 1'-0"
140
3.0
141
12.0
290
     0
  0
SCALE
  5
65
102
{ACAD_REACTORS
330
34
102
}
330
34
100
AcDbScale
 70
     0
300
6" = 1'-0"
140
6.0
141
12.0
290
     0
  0
SCALE
  5
66
102
{ACAD_REACTORS
330
34
102
}
330
34
100
AcDbScale
 70
     0
300
1'-0" = 1'-0"
140
12.0
141
12.0
290
     0
  0
SCALE
  5
57
102
{ACAD_REACTORS
330
34
102
}
330
34
100
AcDbScale
 70
     0
300
1/128" = 1'-0"
140
0.0078125
141
12.0
290
     0
  0
SCALE
  5
58
102
{ACAD_REACTORS
330
34
102
}
330
34
100
AcDbScale
 70
     0
300
1/64" = 1'-0"
140
0.015625
141
12.0
290
     0
  0
SCALE
  5
59
102
{ACAD_REACTORS
330
34
102
}
330
34
100
AcDbScale
 70
     0
300
1/32" = 1'-0"
140
0.03125
141
12.0
290
     0
  0
SCALE
  5
5A
102
{ACAD_REACTORS
330
34
102
}
330
34
100
AcDbScale
 70
     0
300
1/16" = 1'-0"
140
0.0625
141
12.0
290
     0
  0
SCALE
  5
5B
102
{ACAD_REACTORS
330
34
102
}
330
34
100
AcDbScale
 70
     0
300
3/32" = 1'-0"
140
0.09375
141
12.0
290
     0
  0
SCALE
  5
5C
102
{ACAD_REACTORS
330
34
102
}
330
34
100
AcDbScale
 70
     0
300
1/8" = 1'-0"
140
0.125
141
12.0
290
     0
  0
SCALE
  5
5D
102
{ACAD_REACTORS
330
34
102
}
330
34
100
AcDbScale
 70
     0
300
3/16" = 1'-0"
140
0.1875
141
12.0
290
     0
  0
SCALE
  5
5E
102
{ACAD_REACTORS
330
34
102
}
330
34
100
AcDbScale
 70
     0
300
1/4" = 1'-0"
140
0.25
141
12.0
290
     0
  0
TABLESTYLE
  5
66A
102
{ACAD_REACTORS
330
61F
102
}
330
61F
100
AcDbTableStyle
  3
Standard
 70
     0
 71
     0
 40
0.06
 41
0.06
280
     0
281
     0
  7
STANDARD
140
0.18
170
     2
 62
     0
 63
   257
283
     0
274
    -2
284
     1
 64
     0
275
    -2
285
     1
 65
     0
276
    -2
286
     1
 66
     0
277
    -2
287
     1
 67
     0
278
    -2
288
     1
 68
     0
279
    -2
289
     1
 69
     0
  7
STANDARD
140
0.25
170
     5
 62
     0
 63
   257
283
     0
274
    -2
284
     1
 64
     0
275
    -2
285
     1
 65
     0
276
    -2
286
     1
 66
     0
277
    -2
287
     1
 67
     0
278
    -2
288
     1
 68
     0
279
    -2
289
     1
 69
     0
  7
STANDARD
140
0.18
170
     5
 62
     0
 63
   257
283
     0
274
    -2
284
     1
 64
     0
275
    -2
285
     1
 65
     0
276
    -2
286
     1
 66
     0
277
    -2
287
     1
 67
     0
278
    -2
288
     1
 68
     0
279
    -2
289
     1
 69
     0
  0
VISUALSTYLE
  5
627
102
{ACAD_REACTORS
330
30
102
}
102
{ACAD_XDICTIONARY
360
6E8
102
}
330
30
100
AcDbVisualStyle
  2
2dWireframe
 70
     4
 71
     0
 72
     2
 73
     0
 90
        0
 40
0.6
 41
30.0
 62
     5
 63
     7
 74
     1
 91
        4
 64
     7
 65
   257
 75
     1
175
     1
 42
1.0
 92
        0
 66
   257
 43
1.0
 76
     1
 77
     6
 78
     2
 67
     7
 79
     5
170
     0
171
     0
290
     0
174
     0
 93
        1
 44
0.0
173
     0
291
     0
 45
0.0
1001
ACAD
1000
AcDbSavedByObjectVersion
1070
     0
  0
VISUALSTYLE
  5
62A
102
{ACAD_REACTORS
330
30
102
}
102
{ACAD_XDICTIONARY
360
6EE
102
}
330
30
100
AcDbVisualStyle
  2
Basic
 70
     7
 71
     1
 72
     0
 73
     1
 90
        0
 40
0.6
 41
30.0
 62
     5
 63
     7
 74
     0
 91
        4
 64
     7
 65
   257
 75
     1
175
     1
 42
1.0
 92
        8
 66
     7
 43
1.0
 76
     1
 77
     6
 78
     2
 67
     7
 79
     5
170
     0
171
     0
290
     0
174
     0
 93
        1
 44
0.0
173
     0
291
     1
 45
0.0
1001
ACAD
1000
AcDbSavedByObjectVersion
1070
     0
  0
VISUALSTYLE
  5
62E
102
{ACAD_REACTORS
330
30
102
}
102
{ACAD_XDICTIONARY
360
6F6
102
}
330
30
100
AcDbVisualStyle
  2
Brighten
 70
    12
 71
     2
 72
     2
 73
     0
 90
        0
 40
0.6
 41
30.0
 62
     5
 63
     7
 74
     1
 91
        4
 64
     7
 65
   257
 75
     1
175
     1
 42
1.0
 92
        8
 66
     7
 43
1.0
 76
     1
 77
     6
 78
     2
 67
     7
 79
     5
170
     0
171
     0
290
     0
174
     0
 93
        1
 44
50.0
173
     0
291
     1
 45
0.0
1001
ACAD
1000
AcDbSavedByObjectVersion
1070
     0
  0
VISUALSTYLE
  5
632
102
{ACAD_REACTORS
330
30
102
}
102
{ACAD_XDICTIONARY
360
6FE
102
}
330
30
100
AcDbVisualStyle
  2
ColorChange
 70
    16
 71
     2
 72
     2
 73
     3
 90
        0
 40
0.6
 41
30.0
 62
     5
 63
     8
 74
     1
 91
        4
 64
     7
 65
   257
 75
     1
175
     1
 42
1.0
 92
        8
 66
     8
 43
1.0
 76
     1
 77
     6
 78
     2
 67
     7
 79
     5
170
     0
171
     0
290
     0
174
     0
 93
        1
 44
0.0
173
     0
291
     1
 45
0.0
1001
ACAD
1000
AcDbSavedByObjectVersion
1070
     0
  0
VISUALSTYLE
  5
62C
102
{ACAD_REACTORS
330
30
102
}
102
{ACAD_XDICTIONARY
360
6F2
102
}
330
30
100
AcDbVisualStyle
  2
Conceptual
 70
     9
 71
     3
 72
     2
 73
     0
 90
        0
 40
0.6
 41
30.0
 62
     5
 63
     7
 74
     2
 91
        2
 64
     7
 65
   257
 75
     1
175
     1
 42
40.0
 92
        8
 66
     7
 43
1.0
 76
     1
 77
     6
 78
     2
 67
     7
 79
     3
170
     0
171
     0
290
     0
174
     0
 93
        1
 44
0.0
173
     0
291
     0
 45
0.0
1001
ACAD
1000
AcDbSavedByObjectVersion
1070
     0
  0
VISUALSTYLE
  5
62D
102
{ACAD_REACTORS
330
30
102
}
102
{ACAD_XDICTIONARY
360
6F4
102
}
330
30
100
AcDbVisualStyle
  2
Dim
 70
    11
 71
     2
 72
     2
 73
     0
 90
        0
 40
0.6
 41
30.0
 62
     5
 63
     7
 74
     1
 91
        4
 64
     7
 65
   257
 75
     1
175
     1
 42
1.0
 92
        8
 66
     7
 43
1.0
 76
     1
 77
     6
 78
     2
 67
     7
 79
     5
170
     0
171
     0
290
     0
174
     0
 93
        1
 44
-50.0
173
     0
291
     1
 45
0.0
1001
ACAD
1000
AcDbSavedByObjectVersion
1070
     0
  0
VISUALSTYLE
  5
635
102
{ACAD_REACTORS
330
30
102
}
102
{ACAD_XDICTIONARY
360
704
102
}
330
30
100
AcDbVisualStyle
  2
EdgeColorOff
 70
    22
 71
     2
 72
     2
 73
     0
 90
        0
 40
0.6
 41
30.0
 62
     5
 63
     7
 74
     1
 91
        4
 64
     7
 65
   257
 75
     1
175
     1
 42
1.0
 92
        8
 66
     7
 43
1.0
 76
     1
 77
     6
 78
     2
 67
     7
 79
     5
170
     0
171
     0
290
     0
174
     0
 93
        1
 44
0.0
173
     0
291
     1
 45
0.0
1001
ACAD
1000
AcDbSavedByObjectVersion
1070
     0
  0
VISUALSTYLE
  5
631
102
{ACAD_REACTORS
330
30
102
}
102
{ACAD_XDICTIONARY
360
6FC
102
}
330
30
100
AcDbVisualStyle
  2
Facepattern
 70
    15
 71
     2
 72
     2
 73
     0
 90
        0
 40
0.6
 41
30.0
 62
     5
 63
     7
 74
     1
 91
        4
 64
     7
 65
   257
 75
     1
175
     1
 42
1.0
 92
        8
 66
     7
 43
1.0
 76
     1
 77
     6
 78
     2
 67
     7
 79
     5
170
     0
171
     0
290
     0
174
     0
 93
        1
 44
0.0
173
     0
291
     1
 45
0.0
1001
ACAD
1000
AcDbSavedByObjectVersion
1070
     0
  0
VISUALSTYLE
  5
623
102
{ACAD_REACTORS
330
30
102
}
102
{ACAD_XDICTIONARY
360
6E0
102
}
330
30
100
AcDbVisualStyle
  2
Flat
 70
     0
 71
     2
 72
     1
 73
     1
 90
        2
 40
0.6
 41
30.0
 62
     5
 63
     7
 74
     0
 91
        4
 64
     7
 65
   257
 75
     1
175
     1
 42
1.0
 92
        8
 66
     7
 43
1.0
 76
     1
 77
     6
 78
     2
 67
     7
 79
     5
170
     0
171
     0
290
     0
174
     0
 93
       13
 44
0.0
173
     0
291
     1
 45
0.0
1001
ACAD
1000
AcDbSavedByObjectVersion
1070
     0
  0
VISUALSTYLE
  5
624
102
{ACAD_REACTORS
330
30
102
}
102
{ACAD_XDICTIONARY
360
6E2
102
}
330
30
100
AcDbVisualStyle
  2
FlatWithEdges
 70
     1
 71
     2
 72
     1
 73
     1
 90
        2
 40
0.6
 41
30.0
 62
     5
 63
     7
 74
     1
 91
        4
 64
     7
 65
   257
 75
     1
175
     1
 42
1.0
 92
        0
 66
   257
 43
1.0
 76
     1
 77
     6
 78
     2
 67
     7
 79
     5
170
     0
171
     0
290
     0
174
     0
 93
       13
 44
0.0
173
     0
291
     1
 45
0.0
1001
ACAD
1000
AcDbSavedByObjectVersion
1070
     0
  0
VISUALSTYLE
  5
625
102
{ACAD_REACTORS
330
30
102
}
102
{ACAD_XDICTIONARY
360
6E4
102
}
330
30
100
AcDbVisualStyle
  2
Gouraud
 70
     2
 71
     2
 72
     2
 73
     1
 90
        2
 40
0.6
 41
30.0
 62
     5
 63
     7
 74
     0
 91
        4
 64
     7
 65
   257
 75
     1
175
     1
 42
1.0
 92
        0
 66
     7
 43
1.0
 76
     1
 77
     6
 78
     2
 67
     7
 79
     5
170
     0
171
     0
290
     0
174
     0
 93
       13
 44
0.0
173
     0
291
     1
 45
0.0
1001
ACAD
1000
AcDbSavedByObjectVersion
1070
     0
  0
VISUALSTYLE
  5
626
102
{ACAD_REACTORS
330
30
102
}
102
{ACAD_XDICTIONARY
360
6E6
102
}
330
30
100
AcDbVisualStyle
  2
GouraudWithEdges
 70
     3
 71
     2
 72
     2
 73
     1
 90
        2
 40
0.6
 41
30.0
 62
     5
 63
     7
 74
     1
 91
        4
 64
     7
 65
   257
 75
     1
175
     1
 42
1.0
 92
        0
 66
   257
 43
1.0
 76
     1
 77
     6
 78
     2
 67
     7
 79
     5
170
     0
171
     0
290
     0
174
     0
 93
       13
 44
0.0
173
     0
291
     1
 45
0.0
1001
ACAD
1000
AcDbSavedByObjectVersion
1070
     0
  0
VISUALSTYLE
  5
629
102
{ACAD_REACTORS
330
30
102
}
102
{ACAD_XDICTIONARY
360
6EC
102
}
330
30
100
AcDbVisualStyle
  2
Hidden
 70
     6
 71
     1
 72
     2
 73
     2
 90
        0
 40
0.6
 41
30.0
 62
     5
 63
     7
 74
     2
 91
        2
 64
     7
 65
   257
 75
     2
175
     1
 42
40.0
 92
        0
 66
   257
 43
1.0
 76
     1
 77
     6
 78
     2
 67
     7
 79
     3
170
     0
171
     0
290
     0
174
     0
 93
        1
 44
0.0
173
     0
291
     0
 45
0.0
1001
ACAD
1000
AcDbSavedByObjectVersion
1070
     0
  0
VISUALSTYLE
  5
633
102
{ACAD_REACTORS
330
30
102
}
102
{ACAD_XDICTIONARY
360
700
102
}
330
30
100
AcDbVisualStyle
  2
JitterOff
 70
    20
 71
     2
 72
     2
 73
     0
 90
        0
 40
0.6
 41
30.0
 62
     5
 63
     7
 74
     1
 91
        4
 64
     7
 65
   257
 75
     1
175
     1
 42
1.0
 92
       10
 66
     7
 43
1.0
 76
     1
 77
     6
 78
     2
 67
     7
 79
     5
170
     0
171
     0
290
     0
174
     0
 93
        1
 44
0.0
173
     0
291
     1
 45
0.0
1001
ACAD
1000
AcDbSavedByObjectVersion
1070
     0
  0
VISUALSTYLE
  5
630
102
{ACAD_REACTORS
330
30
102
}
102
{ACAD_XDICTIONARY
360
6FA
102
}
330
30
100
AcDbVisualStyle
  2
Linepattern
 70
    14
 71
     2
 72
     2
 73
     0
 90
        0
 40
0.6
 41
30.0
 62
     5
 63
     7
 74
     1
 91
        4
 64
     7
 65
   257
 75
     7
175
     7
 42
1.0
 92
        8
 66
     7
 43
1.0
 76
     1
 77
     6
 78
     2
 67
     7
 79
     5
170
     0
171
     0
290
     0
174
     0
 93
        1
 44
0.0
173
     0
291
     1
 45
0.0
1001
ACAD
1000
AcDbSavedByObjectVersion
1070
     0
  0
VISUALSTYLE
  5
634
102
{ACAD_REACTORS
330
30
102
}
102
{ACAD_XDICTIONARY
360
702
102
}
330
30
100
AcDbVisualStyle
  2
OverhangOff
 70
    21
 71
     2
 72
     2
 73
     0
 90
        0
 40
0.6
 41
30.0
 62
     5
 63
     7
 74
     1
 91
        4
 64
     7
 65
   257
 75
     1
175
     1
 42
1.0
 92
        9
 66
     7
 43
1.0
 76
     1
 77
     6
 78
     2
 67
     7
 79
     5
170
     0
171
     0
290
     0
174
     0
 93
        1
 44
0.0
173
     0
291
     1
 45
0.0
1001
ACAD
1000
AcDbSavedByObjectVersion
1070
     0
  0
VISUALSTYLE
  5
62B
102
{ACAD_REACTORS
330
30
102
}
102
{ACAD_XDICTIONARY
360
6F0
102
}
330
30
100
AcDbVisualStyle
  2
Realistic
 70
     8
 71
     2
 72
     3
 73
     0
 90
        2
 40
0.6
 41
30.0
 62
     5
 63
     7
 74
     0
 91
        0
 64
     7
 65
   257
 75
     1
175
     1
 42
1.0
 92
        8
 66
   257
 43
1.0
 76
     1
 77
     6
 78
     2
 67
     7
 79
     3
170
     0
171
     0
290
     0
174
     0
 93
       13
 44
0.0
173
     0
291
     0
 45
0.0
1001
ACAD
1000
AcDbSavedByObjectVersion
1070
     0
  0
VISUALSTYLE
  5
63A
102
{ACAD_REACTORS
330
30
102
}
102
{ACAD_XDICTIONARY
360
70E
102
}
330
30
100
AcDbVisualStyle
  2
Shaded
 70
    27
 71
     2
 72
     2
 73
     1
 90
        2
 40
0.6
 41
30.0
 62
     5
 63
     7
 74
     0
 91
        4
 64
     7
 65
   257
 75
     1
175
     1
 42
1.0
 92
        8
 66
   257
 43
1.0
 76
     1
 77
     6
 78
     2
 67
   251
 79
     3
170
     0
171
     0
290
     0
174
     0
 93
        5
 44
0.0
173
     0
291
     0
 45
0.0
1001
ACAD
1000
AcDbSavedByObjectVersion
1070
     0
  0
VISUALSTYLE
  5
639
102
{ACAD_REACTORS
330
30
102
}
102
{ACAD_XDICTIONARY
360
70C
102
}
330
30
100
AcDbVisualStyle
  2
Shaded with edges
 70
    26
 71
     2
 72
     2
 73
     1
 90
        2
 40
0.6
 41
30.0
 62
     5
 63
     7
 74
     1
 91
       10
 64
     7
 65
   257
 75
     2
175
     1
 42
1.0
 92
        8
 66
   257
 43
1.0
 76
     1
 77
     6
 78
     2
 67
     7
 79
     3
170
     0
171
     0
290
     0
174
     0
 93
        5
 44
0.0
173
     0
291
     0
 45
0.0
1001
ACAD
1000
AcDbSavedByObjectVersion
1070
     0
  0
VISUALSTYLE
  5
636
102
{ACAD_REACTORS
330
30
102
}
102
{ACAD_XDICTIONARY
360
706
102
}
330
30
100
AcDbVisualStyle
  2
Shades of Gray
 70
    23
 71
     2
 72
     2
 73
     3
 90
        0
 40
0.6
 41
30.0
 62
     5
 63
     7
 74
     2
 91
        2
 64
     7
 65
     7
 75
     1
175
     1
 42
40.0
 92
        8
 66
     7
 43
1.0
 76
     1
 77
     6
 78
     2
 67
     7
 79
     3
170
     0
171
     0
290
     0
174
     0
 93
        1
 44
0.0
173
     0
291
     0
 45
0.0
1001
ACAD
1000
AcDbSavedByObjectVersion
1070
     0
  0
VISUALSTYLE
  5
637
102
{ACAD_REACTORS
330
30
102
}
102
{ACAD_XDICTIONARY
360
708
102
}
330
30
100
AcDbVisualStyle
  2
Sketchy
 70
    24
 71
     1
 72
     2
 73
     2
 90
        0
 40
0.6
 41
30.0
 62
     5
 63
     7
 74
     2
 91
        2
 64
     7
 65
     7
 75
     1
175
     1
 42
40.0
 92
       11
 66
     7
 43
1.0
 76
     1
 77
     6
 78
     2
 67
     7
 79
     6
170
     0
171
     0
290
     0
174
     0
 93
        1
 44
0.0
173
     0
291
     0
 45
0.0
1001
ACAD
1000
AcDbSavedByObjectVersion
1070
     0
  0
VISUALSTYLE
  5
62F
102
{ACAD_REACTORS
330
30
102
}
102
{ACAD_XDICTIONARY
360
6F8
102
}
330
30
100
AcDbVisualStyle
  2
Thicken
 70
    13
 71
     2
 72
     2
 73
     0
 90
        0
 40
0.6
 41
30.0
 62
     5
 63
     7
 74
     1
 91
        4
 64
     7
 65
   257
 75
     1
175
     1
 42
1.0
 92
       12
 66
     7
 43
1.0
 76
     1
 77
     6
 78
     2
 67
     7
 79
     5
170
     0
171
     0
290
     0
174
     0
 93
        1
 44
0.0
173
     0
291
     1
 45
0.0
1001
ACAD
1000
AcDbSavedByObjectVersion
1070
     0
  0
VISUALSTYLE
  5
628
102
{ACAD_REACTORS
330
30
102
}
102
{ACAD_XDICTIONARY
360
6EA
102
}
330
30
100
AcDbVisualStyle
  2
Wireframe
 70
     5
 71
     0
 72
     2
 73
     0
 90
        0
 40
0.6
 41
30.0
 62
     5
 63
     7
 74
     1
 91
        4
 64
     7
 65
   257
 75
     1
175
     1
 42
1.0
 92
        0
 66
   257
 43
1.0
 76
     1
 77
     6
 78
     2
 67
     7
 79
     5
170
     0
171
     0
290
     0
174
     0
 93
        1
 44
0.0
173
     0
291
     0
 45
0.0
1001
ACAD
1000
AcDbSavedByObjectVersion
1070
     0
  0
VISUALSTYLE
  5
638
102
{ACAD_REACTORS
330
30
102
}
102
{ACAD_XDICTIONARY
360
70A
102
}
330
30
100
AcDbVisualStyle
  2
X-Ray
 70
    25
 71
     2
 72
     2
 73
     1
 90
        1
 40
0.5
 41
30.0
 62
     5
 63
     7
 74
     1
 91
        0
 64
     7
 65
   257
 75
     1
175
     1
 42
1.0
 92
        8
 66
     7
 43
1.0
 76
     1
 77
     6
 78
     2
 67
     7
 79
     3
170
     0
171
     0
290
     0
174
     0
 93
       13
 44
0.0
173
     0
291
     0
 45
0.0
1001
ACAD
1000
AcDbSavedByObjectVersion
1070
     0
  0
XRECORD
  5
6D4
102
{ACAD_REACTORS
330
6D3
102
}
330
6D3
100
AcDbXrecord
280
     1
340
2F
  0
XRECORD
  5
6D5
102
{ACAD_REACTORS
330
6D3
102
}
330
6D3
100
AcDbXrecord
280
     1
340
B
  0
DICTIONARYVAR
  5
61E
102
{ACAD_REACTORS
330
61D
102
}
330
61D
100
DictionaryVariables
280
     0
  1
1:1
  0
DICTIONARYVAR
  5
669
102
{ACAD_REACTORS
330
61D
102
}
330
61D
100
DictionaryVariables
280
     0
  1
Standard
  0
DICTIONARYVAR
  5
66B
102
{ACAD_REACTORS
330
61D
102
}
330
61D
100
DictionaryVariables
280
     0
  1
Standard
  0
DICTIONARYVAR
  5
6D0
102
{ACAD_REACTORS
330
61D
102
}
330
61D
100
DictionaryVariables
280
     0
  1
0
  0
DICTIONARYVAR
  5
6D1
102
{ACAD_REACTORS
330
61D
102
}
330
61D
100
DictionaryVariables
280
     0
  1
0
  0
DICTIONARYVAR
  5
6D9
102
{ACAD_REACTORS
330
61D
102
}
330
61D
100
DictionaryVariables
280
     0
  1
1
  0
DICTIONARYVAR
  5
6D2
102
{ACAD_REACTORS
330
61D
102
}
330
61D
100
DictionaryVariables
280
     0
  1
0
  0
DICTIONARY
  5
6DE
330
67
100
AcDbDictionary
280
     1
281
     1
  3
ACAD_XREC_ROUNDTRIP
360
6DF
  0
DICTIONARY
  5
6DA
330
14
100
AcDbDictionary
280
     1
281
     1
  3
ACAD_XREC_ROUNDTRIP
360
6DB
  0
DICTIONARY
  5
6DC
330
A
100
AcDbDictionary
280
     1
281
     1
  3
ACAD_XREC_ROUNDTRIP
360
6DD
  0
DICTIONARY
  5
710
330
63B
100
AcDbDictionary
280
     1
281
     1
  3
ACAD_XREC_ROUNDTRIP
360
711
  0
DICTIONARY
  5
6E8
330
627
100
AcDbDictionary
280
     1
281
     1
  3
ACAD_XREC_ROUNDTRIP
360
6E9
  0
DICTIONARY
  5
6EE
330
62A
100
AcDbDictionary
280
     1
281
     1
  3
ACAD_XREC_ROUNDTRIP
360
6EF
  0
DICTIONARY
  5
6F6
330
62E
100
AcDbDictionary
280
     1
281
     1
  3
ACAD_XREC_ROUNDTRIP
360
6F7
  0
DICTIONARY
  5
6FE
330
632
100
AcDbDictionary
280
     1
281
     1
  3
ACAD_XREC_ROUNDTRIP
360
6FF
  0
DICTIONARY
  5
6F2
330
62C
100
AcDbDictionary
280
     1
281
     1
  3
ACAD_XREC_ROUNDTRIP
360
6F3
  0
DICTIONARY
  5
6F4
330
62D
100
AcDbDictionary
280
     1
281
     1
  3
ACAD_XREC_ROUNDTRIP
360
6F5
  0
DICTIONARY
  5
704
330
635
100
AcDbDictionary
280
     1
281
     1
  3
ACAD_XREC_ROUNDTRIP
360
705
  0
DICTIONARY
  5
6FC
330
631
100
AcDbDictionary
280
     1
281
     1
  3
ACAD_XREC_ROUNDTRIP
360
6FD
  0
DICTIONARY
  5
6E0
330
623
100
AcDbDictionary
280
     1
281
     1
  3
ACAD_XREC_ROUNDTRIP
360
6E1
  0
DICTIONARY
  5
6E2
330
624
100
AcDbDictionary
280
     1
281
     1
  3
ACAD_XREC_ROUNDTRIP
360
6E3
  0
DICTIONARY
  5
6E4
330
625
100
AcDbDictionary
280
     1
281
     1
  3
ACAD_XREC_ROUNDTRIP
360
6E5
  0
DICTIONARY
  5
6E6
330
626
100
AcDbDictionary
280
     1
281
     1
  3
ACAD_XREC_ROUNDTRIP
360
6E7
  0
DICTIONARY
  5
6EC
330
629
100
AcDbDictionary
280
     1
281
     1
  3
ACAD_XREC_ROUNDTRIP
360
6ED
  0
DICTIONARY
  5
700
330
633
100
AcDbDictionary
280
     1
281
     1
  3
ACAD_XREC_ROUNDTRIP
360
701
  0
DICTIONARY
  5
6FA
330
630
100
AcDbDictionary
280
     1
281
     1
  3
ACAD_XREC_ROUNDTRIP
360
6FB
  0
DICTIONARY
  5
702
330
634
100
AcDbDictionary
280
     1
281
     1
  3
ACAD_XREC_ROUNDTRIP
360
703
  0
DICTIONARY
  5
6F0
330
62B
100
AcDbDictionary
280
     1
281
     1
  3
ACAD_XREC_ROUNDTRIP
360
6F1
  0
DICTIONARY
  5
70E
330
63A
100
AcDbDictionary
280
     1
281
     1
  3
ACAD_XREC_ROUNDTRIP
360
70F
  0
DICTIONARY
  5
70C
330
639
100
AcDbDictionary
280
     1
281
     1
  3
ACAD_XREC_ROUNDTRIP
360
70D
  0
DICTIONARY
  5
706
330
636
100
AcDbDictionary
280
     1
281
     1
  3
ACAD_XREC_ROUNDTRIP
360
707
  0
DICTIONARY
  5
708
330
637
100
AcDbDictionary
280
     1
281
     1
  3
ACAD_XREC_ROUNDTRIP
360
709
  0
DICTIONARY
  5
6F8
330
62F
100
AcDbDictionary
280
     1
281
     1
  3
ACAD_XREC_ROUNDTRIP
360
6F9
  0
DICTIONARY
  5
6EA
330
628
100
AcDbDictionary
280
     1
281
     1
  3
ACAD_XREC_ROUNDTRIP
360
6EB
  0
DICTIONARY
  5
70A
330
638
100
AcDbDictionary
280
     1
281
     1
  3
ACAD_XREC_ROUNDTRIP
360
70B
  0
XRECORD
  5
6DF
102
{ACAD_REACTORS
330
6DE
102
}
330
6DE
100
AcDbXrecord
280
     1
102
MATERIAL
148
0.0
149
0.0
149
0.0
 93
        0
 94
      127
282
     0
 72
     0
 77
     0
171
     0
175
     0
179
     0
273
     0
  0
XRECORD
  5
6DB
102
{ACAD_REACTORS
330
6DA
102
}
330
6DA
100
AcDbXrecord
280
     1
102
MATERIAL
148
0.0
149
0.0
149
0.0
 93
        0
 94
      127
282
     0
 72
     0
 77
     0
171
     0
175
     0
179
     0
273
     0
  0
XRECORD
  5
6DD
102
{ACAD_REACTORS
330
6DC
102
}
330
6DC
100
AcDbXrecord
280
     1
102
MATERIAL
148
0.0
149
0.0
149
0.0
 93
        0
 94
      127
282
     0
 72
     0
 77
     0
171
     0
175
     0
179
     0
273
     0
  0
XRECORD
  5
711
102
{ACAD_REACTORS
330
710
102
}
330
710
100
AcDbXrecord
280
     1
102
ACAD_ROUNDTRIP_2010_MLEADER_STYLE
  0
XRECORD
  5
6E9
102
{ACAD_REACTORS
330
6E8
102
}
330
6E8
100
AcDbXrecord
280
     1
102
RTVSPropertyOp0
 70
     1
102
RTVSPropertyOp1
 70
     1
102
RTVSPropertyOp2
 70
     1
102
RTVSPropertyOp3
 70
     1
102
RTVSPropertyOp4
 70
     1
102
RTVSPropertyOp5
 70
     1
102
RTVSPropertyOp6
 70
     1
102
RTVSPropertyOp7
 70
     1
102
RTVSPropertyOp8
 70
     1
102
RTVSPropertyOp9
 70
     1
102
RTVSPropertyOp10
 70
     1
102
RTVSPropertyOp11
 70
     1
102
RTVSPropertyOp12
 70
     1
102
RTVSPropertyOp13
 70
     1
102
RTVSPropertyOp14
 70
     1
102
RTVSPropertyOp15
 70
     1
102
RTVSPropertyOp16
 70
     1
102
RTVSPropertyOp17
 70
     1
102
RTVSPropertyOp18
 70
     1
102
RTVSPropertyOp19
 70
     1
102
RTVSPropertyOp20
 70
     1
102
RTVSPropertyOp21
 70
     1
102
RTVSPropertyOp22
 70
     1
102
RTVSPropertyOp23
 70
     1
102
RTVSPropertyOp24
 70
     1
102
RTVSPropertyOp25
 70
     1
102
RTVSPropertyOp26
 70
     1
102
RTVSPropertyOp27
 70
     1
102
RTVSPropertyOp28
 70
     1
102
RTVSPropertyOp29
 70
     1
102
RTVSPropertyOp30
 70
     1
102
RTVSPropertyOp31
 70
     1
102
RTVSPropertyOp32
 70
     1
102
RTVSPropertyOp33
 70
     1
102
RTVSPropertyOp34
 70
     1
102
RTVSPropertyOp35
 70
     1
102
RTVSPropertyOp36
 70
     1
102
RTVSPropertyOp37
 70
     1
102
RTVSPropertyOp38
 70
     1
102
RTVSPropertyOp39
 70
     1
102
RTVSPropertyOp40
 70
     1
102
RTVSPropertyOp41
 70
     1
102
RTVSPropertyOp42
 70
     1
102
RTVSPropertyOp43
 70
     1
102
RTVSPropertyOp44
 70
     1
102
RTVSPropertyOp45
 70
     1
102
RTVSPropertyOp46
 70
     1
102
RTVSPropertyOp47
 70
     1
102
RTVSPropertyOp48
 70
     1
102
RTVSPropertyOp49
 70
     1
102
RTVSPropertyOp50
 70
     1
102
RTVSPropertyOp51
 70
     0
102
RTVSPropertyOp52
 70
     0
102
RTVSPropertyOp53
 70
     1
102
RTVSPropertyOp54
 70
     1
102
RTVSPropertyOp55
 70
     1
102
RTVSPropertyOp56
 70
     1
102
RTVSPropertyOp57
 70
     1
102
RTVSPost2010Prop28
280
     1
102
RTVSPost2010PropOp28
 70
     1
102
RTVSPost2010Prop29
280
     1
102
RTVSPost2010PropOp29
 70
     1
102
RTVSPost2010Prop30
280
     0
102
RTVSPost2010PropOp30
 70
     1
102
RTVSPost2010Prop31
280
     0
102
RTVSPost2010PropOp31
 70
     1
102
RTVSPost2010Prop32
280
     0
102
RTVSPost2010PropOp32
 70
     1
102
RTVSPost2010Prop33
280
     0
102
RTVSPost2010PropOp33
 70
     1
102
RTVSPost2010Prop34
280
     0
102
RTVSPost2010PropOp34
 70
     1
102
RTVSPost2010Prop35
280
     0
102
RTVSPost2010PropOp35
 70
     1
102
RTVSPost2010Prop36
280
     0
102
RTVSPost2010PropOp36
 70
     1
102
RTVSPost2010Prop37
 90
       50
102
RTVSPost2010PropOp37
 70
     1
102
RTVSPost2010Prop38
140
0.0
102
RTVSPost2010PropOp38
 70
     1
102
RTVSPost2010Prop39
140
1.0
102
RTVSPost2010PropOp39
 70
     1
102
RTVSPost2010Prop40
 90
        0
102
RTVSPost2010PropOp40
 70
     1
102
RTVSPost2010Prop41ColorIndex
 90
       18
102
RTVSPost2010Prop41ColorRGB
 90
        0
102
RTVSPost2010PropOp41
 70
     1
102
RTVSPost2010Prop42
 90
       50
102
RTVSPost2010PropOp42
 70
     1
102
RTVSPost2010Prop43
 90
        3
102
RTVSPost2010PropOp43
 70
     1
102
RTVSPost2010Prop44ColorIndex
 90
        5
102
RTVSPost2010Prop44ColorRGB
 90
      255
102
RTVSPost2010PropOp44
 70
     1
102
RTVSPost2010Prop45
280
     0
102
RTVSPost2010PropOp45
 70
     1
102
RTVSPost2010Prop46
 90
       50
102
RTVSPost2010PropOp46
 70
     1
102
RTVSPost2010Prop47
 90
       50
102
RTVSPost2010PropOp47
 70
     1
102
RTVSPost2010Prop48
 90
       50
102
RTVSPost2010PropOp48
 70
     1
102
RTVSPost2010Prop49
280
     0
102
RTVSPost2010PropOp49
 70
     1
102
RTVSPost2010Prop50
 90
       50
102
RTVSPost2010PropOp50
 70
     1
102
RTVSPost2010Prop51ColorIndex
 90
      256
102
RTVSPost2010Prop51ColorRGB
 90
-16777216
102
RTVSPost2010PropOp51
 70
     0
102
RTVSPost2010Prop52
140
1.0
102
RTVSPost2010PropOp52
 70
     0
102
RTVSPost2010Prop53
 90
        2
102
RTVSPost2010PropOp53
 70
     1
102
RTVSPost2010Prop54
  1
strokes_ogs.tif
102
RTVSPost2010PropOp54
 70
     1
102
RTVSPost2010Prop55
280
     0
102
RTVSPost2010PropOp55
 70
     1
102
RTVSPost2010Prop56
140
1.0
102
RTVSPost2010PropOp56
 70
     1
102
RTVSPost2010Prop57
140
1.0
102
RTVSPost2010PropOp57
 70
     1
  0
XRECORD
  5
6EF
102
{ACAD_REACTORS
330
6EE
102
}
330
6EE
100
AcDbXrecord
280
     1
102
RTVSPropertyOp0
 70
     1
102
RTVSPropertyOp1
 70
     1
102
RTVSPropertyOp2
 70
     1
102
RTVSPropertyOp3
 70
     1
102
RTVSPropertyOp4
 70
     1
102
RTVSPropertyOp5
 70
     1
102
RTVSPropertyOp6
 70
     1
102
RTVSPropertyOp7
 70
     1
102
RTVSPropertyOp8
 70
     1
102
RTVSPropertyOp9
 70
     1
102
RTVSPropertyOp10
 70
     1
102
RTVSPropertyOp11
 70
     1
102
RTVSPropertyOp12
 70
     1
102
RTVSPropertyOp13
 70
     1
102
RTVSPropertyOp14
 70
     1
102
RTVSPropertyOp15
 70
     1
102
RTVSPropertyOp16
 70
     1
102
RTVSPropertyOp17
 70
     1
102
RTVSPropertyOp18
 70
     1
102
RTVSPropertyOp19
 70
     1
102
RTVSPropertyOp20
 70
     1
102
RTVSPropertyOp21
 70
     1
102
RTVSPropertyOp22
 70
     1
102
RTVSPropertyOp23
 70
     1
102
RTVSPropertyOp24
 70
     1
102
RTVSPropertyOp25
 70
     1
102
RTVSPropertyOp26
 70
     1
102
RTVSPropertyOp27
 70
     1
102
RTVSPropertyOp28
 70
     1
102
RTVSPropertyOp29
 70
     1
102
RTVSPropertyOp30
 70
     1
102
RTVSPropertyOp31
 70
     1
102
RTVSPropertyOp32
 70
     1
102
RTVSPropertyOp33
 70
     1
102
RTVSPropertyOp34
 70
     1
102
RTVSPropertyOp35
 70
     1
102
RTVSPropertyOp36
 70
     1
102
RTVSPropertyOp37
 70
     1
102
RTVSPropertyOp38
 70
     1
102
RTVSPropertyOp39
 70
     1
102
RTVSPropertyOp40
 70
     1
102
RTVSPropertyOp41
 70
     1
102
RTVSPropertyOp42
 70
     1
102
RTVSPropertyOp43
 70
     1
102
RTVSPropertyOp44
 70
     1
102
RTVSPropertyOp45
 70
     1
102
RTVSPropertyOp46
 70
     1
102
RTVSPropertyOp47
 70
     1
102
RTVSPropertyOp48
 70
     1
102
RTVSPropertyOp49
 70
     1
102
RTVSPropertyOp50
 70
     1
102
RTVSPropertyOp51
 70
     0
102
RTVSPropertyOp52
 70
     0
102
RTVSPropertyOp53
 70
     1
102
RTVSPropertyOp54
 70
     1
102
RTVSPropertyOp55
 70
     1
102
RTVSPropertyOp56
 70
     1
102
RTVSPropertyOp57
 70
     1
102
RTVSPost2010Prop28
280
     0
102
RTVSPost2010PropOp28
 70
     1
102
RTVSPost2010Prop29
280
     1
102
RTVSPost2010PropOp29
 70
     1
102
RTVSPost2010Prop30
280
     1
102
RTVSPost2010PropOp30
 70
     1
102
RTVSPost2010Prop31
280
     0
102
RTVSPost2010PropOp31
 70
     1
102
RTVSPost2010Prop32
280
     0
102
RTVSPost2010PropOp32
 70
     1
102
RTVSPost2010Prop33
280
     0
102
RTVSPost2010PropOp33
 70
     1
102
RTVSPost2010Prop34
280
     0
102
RTVSPost2010PropOp34
 70
     1
102
RTVSPost2010Prop35
280
     0
102
RTVSPost2010PropOp35
 70
     1
102
RTVSPost2010Prop36
280
     0
102
RTVSPost2010PropOp36
 70
     1
102
RTVSPost2010Prop37
 90
       50
102
RTVSPost2010PropOp37
 70
     1
102
RTVSPost2010Prop38
140
0.0
102
RTVSPost2010PropOp38
 70
     1
102
RTVSPost2010Prop39
140
1.0
102
RTVSPost2010PropOp39
 70
     1
102
RTVSPost2010Prop40
 90
        0
102
RTVSPost2010PropOp40
 70
     1
102
RTVSPost2010Prop41ColorIndex
 90
       18
102
RTVSPost2010Prop41ColorRGB
 90
        0
102
RTVSPost2010PropOp41
 70
     1
102
RTVSPost2010Prop42
 90
       50
102
RTVSPost2010PropOp42
 70
     1
102
RTVSPost2010Prop43
 90
        3
102
RTVSPost2010PropOp43
 70
     1
102
RTVSPost2010Prop44ColorIndex
 90
        5
102
RTVSPost2010Prop44ColorRGB
 90
      255
102
RTVSPost2010PropOp44
 70
     1
102
RTVSPost2010Prop45
280
     0
102
RTVSPost2010PropOp45
 70
     1
102
RTVSPost2010Prop46
 90
       50
102
RTVSPost2010PropOp46
 70
     1
102
RTVSPost2010Prop47
 90
       50
102
RTVSPost2010PropOp47
 70
     1
102
RTVSPost2010Prop48
 90
       50
102
RTVSPost2010PropOp48
 70
     1
102
RTVSPost2010Prop49
280
     0
102
RTVSPost2010PropOp49
 70
     1
102
RTVSPost2010Prop50
 90
       50
102
RTVSPost2010PropOp50
 70
     1
102
RTVSPost2010Prop51ColorIndex
 90
      256
102
RTVSPost2010Prop51ColorRGB
 90
-16777216
102
RTVSPost2010PropOp51
 70
     0
102
RTVSPost2010Prop52
140
1.0
102
RTVSPost2010PropOp52
 70
     0
102
RTVSPost2010Prop53
 90
        2
102
RTVSPost2010PropOp53
 70
     1
102
RTVSPost2010Prop54
  1
strokes_ogs.tif
102
RTVSPost2010PropOp54
 70
     1
102
RTVSPost2010Prop55
280
     0
102
RTVSPost2010PropOp55
 70
     1
102
RTVSPost2010Prop56
140
1.0
102
RTVSPost2010PropOp56
 70
     1
102
RTVSPost2010Prop57
140
1.0
102
RTVSPost2010PropOp57
 70
     1
  0
XRECORD
  5
6F7
102
{ACAD_REACTORS
330
6F6
102
}
330
6F6
100
AcDbXrecord
280
     1
102
RTVSPropertyOp0
 70
     1
102
RTVSPropertyOp1
 70
     1
102
RTVSPropertyOp2
 70
     1
102
RTVSPropertyOp3
 70
     1
102
RTVSPropertyOp4
 70
     1
102
RTVSPropertyOp5
 70
     1
102
RTVSPropertyOp6
 70
     1
102
RTVSPropertyOp7
 70
     1
102
RTVSPropertyOp8
 70
     1
102
RTVSPropertyOp9
 70
     1
102
RTVSPropertyOp10
 70
     1
102
RTVSPropertyOp11
 70
     1
102
RTVSPropertyOp12
 70
     1
102
RTVSPropertyOp13
 70
     1
102
RTVSPropertyOp14
 70
     1
102
RTVSPropertyOp15
 70
     1
102
RTVSPropertyOp16
 70
     1
102
RTVSPropertyOp17
 70
     1
102
RTVSPropertyOp18
 70
     1
102
RTVSPropertyOp19
 70
     1
102
RTVSPropertyOp20
 70
     1
102
RTVSPropertyOp21
 70
     1
102
RTVSPropertyOp22
 70
     1
102
RTVSPropertyOp23
 70
     1
102
RTVSPropertyOp24
 70
     1
102
RTVSPropertyOp25
 70
     1
102
RTVSPropertyOp26
 70
     1
102
RTVSPropertyOp27
 70
     1
102
RTVSPropertyOp28
 70
     1
102
RTVSPropertyOp29
 70
     1
102
RTVSPropertyOp30
 70
     1
102
RTVSPropertyOp31
 70
     1
102
RTVSPropertyOp32
 70
     1
102
RTVSPropertyOp33
 70
     1
102
RTVSPropertyOp34
 70
     1
102
RTVSPropertyOp35
 70
     1
102
RTVSPropertyOp36
 70
     1
102
RTVSPropertyOp37
 70
     1
102
RTVSPropertyOp38
 70
     1
102
RTVSPropertyOp39
 70
     1
102
RTVSPropertyOp40
 70
     1
102
RTVSPropertyOp41
 70
     1
102
RTVSPropertyOp42
 70
     1
102
RTVSPropertyOp43
 70
     1
102
RTVSPropertyOp44
 70
     1
102
RTVSPropertyOp45
 70
     1
102
RTVSPropertyOp46
 70
     1
102
RTVSPropertyOp47
 70
     1
102
RTVSPropertyOp48
 70
     1
102
RTVSPropertyOp49
 70
     1
102
RTVSPropertyOp50
 70
     1
102
RTVSPropertyOp51
 70
     0
102
RTVSPropertyOp52
 70
     0
102
RTVSPropertyOp53
 70
     1
102
RTVSPropertyOp54
 70
     1
102
RTVSPropertyOp55
 70
     1
102
RTVSPropertyOp56
 70
     1
102
RTVSPropertyOp57
 70
     1
102
RTVSPost2010Prop28
280
     0
102
RTVSPost2010PropOp28
 70
     1
102
RTVSPost2010Prop29
280
     1
102
RTVSPost2010PropOp29
 70
     1
102
RTVSPost2010Prop30
280
     1
102
RTVSPost2010PropOp30
 70
     1
102
RTVSPost2010Prop31
280
     0
102
RTVSPost2010PropOp31
 70
     1
102
RTVSPost2010Prop32
280
     0
102
RTVSPost2010PropOp32
 70
     1
102
RTVSPost2010Prop33
280
     0
102
RTVSPost2010PropOp33
 70
     1
102
RTVSPost2010Prop34
280
     0
102
RTVSPost2010PropOp34
 70
     1
102
RTVSPost2010Prop35
280
     0
102
RTVSPost2010PropOp35
 70
     1
102
RTVSPost2010Prop36
280
     0
102
RTVSPost2010PropOp36
 70
     1
102
RTVSPost2010Prop37
 90
       50
102
RTVSPost2010PropOp37
 70
     1
102
RTVSPost2010Prop38
140
0.0
102
RTVSPost2010PropOp38
 70
     1
102
RTVSPost2010Prop39
140
1.0
102
RTVSPost2010PropOp39
 70
     1
102
RTVSPost2010Prop40
 90
        0
102
RTVSPost2010PropOp40
 70
     1
102
RTVSPost2010Prop41ColorIndex
 90
       18
102
RTVSPost2010Prop41ColorRGB
 90
        0
102
RTVSPost2010PropOp41
 70
     1
102
RTVSPost2010Prop42
 90
       50
102
RTVSPost2010PropOp42
 70
     1
102
RTVSPost2010Prop43
 90
        3
102
RTVSPost2010PropOp43
 70
     1
102
RTVSPost2010Prop44ColorIndex
 90
        5
102
RTVSPost2010Prop44ColorRGB
 90
      255
102
RTVSPost2010PropOp44
 70
     1
102
RTVSPost2010Prop45
280
     0
102
RTVSPost2010PropOp45
 70
     1
102
RTVSPost2010Prop46
 90
       50
102
RTVSPost2010PropOp46
 70
     1
102
RTVSPost2010Prop47
 90
       50
102
RTVSPost2010PropOp47
 70
     1
102
RTVSPost2010Prop48
 90
       50
102
RTVSPost2010PropOp48
 70
     1
102
RTVSPost2010Prop49
280
     0
102
RTVSPost2010PropOp49
 70
     1
102
RTVSPost2010Prop50
 90
       50
102
RTVSPost2010PropOp50
 70
     1
102
RTVSPost2010Prop51ColorIndex
 90
      256
102
RTVSPost2010Prop51ColorRGB
 90
-16777216
102
RTVSPost2010PropOp51
 70
     0
102
RTVSPost2010Prop52
140
1.0
102
RTVSPost2010PropOp52
 70
     0
102
RTVSPost2010Prop53
 90
        2
102
RTVSPost2010PropOp53
 70
     1
102
RTVSPost2010Prop54
  1
strokes_ogs.tif
102
RTVSPost2010PropOp54
 70
     1
102
RTVSPost2010Prop55
280
     0
102
RTVSPost2010PropOp55
 70
     1
102
RTVSPost2010Prop56
140
1.0
102
RTVSPost2010PropOp56
 70
     1
102
RTVSPost2010Prop57
140
1.0
102
RTVSPost2010PropOp57
 70
     1
  0
XRECORD
  5
6FF
102
{ACAD_REACTORS
330
6FE
102
}
330
6FE
100
AcDbXrecord
280
     1
102
RTVSPropertyOp0
 70
     1
102
RTVSPropertyOp1
 70
     1
102
RTVSPropertyOp2
 70
     1
102
RTVSPropertyOp3
 70
     1
102
RTVSPropertyOp4
 70
     1
102
RTVSPropertyOp5
 70
     1
102
RTVSPropertyOp6
 70
     1
102
RTVSPropertyOp7
 70
     1
102
RTVSPropertyOp8
 70
     1
102
RTVSPropertyOp9
 70
     1
102
RTVSPropertyOp10
 70
     1
102
RTVSPropertyOp11
 70
     1
102
RTVSPropertyOp12
 70
     1
102
RTVSPropertyOp13
 70
     1
102
RTVSPropertyOp14
 70
     1
102
RTVSPropertyOp15
 70
     1
102
RTVSPropertyOp16
 70
     1
102
RTVSPropertyOp17
 70
     1
102
RTVSPropertyOp18
 70
     1
102
RTVSPropertyOp19
 70
     1
102
RTVSPropertyOp20
 70
     1
102
RTVSPropertyOp21
 70
     1
102
RTVSPropertyOp22
 70
     1
102
RTVSPropertyOp23
 70
     1
102
RTVSPropertyOp24
 70
     1
102
RTVSPropertyOp25
 70
     1
102
RTVSPropertyOp26
 70
     1
102
RTVSPropertyOp27
 70
     1
102
RTVSPropertyOp28
 70
     1
102
RTVSPropertyOp29
 70
     1
102
RTVSPropertyOp30
 70
     1
102
RTVSPropertyOp31
 70
     1
102
RTVSPropertyOp32
 70
     1
102
RTVSPropertyOp33
 70
     1
102
RTVSPropertyOp34
 70
     1
102
RTVSPropertyOp35
 70
     1
102
RTVSPropertyOp36
 70
     1
102
RTVSPropertyOp37
 70
     1
102
RTVSPropertyOp38
 70
     1
102
RTVSPropertyOp39
 70
     1
102
RTVSPropertyOp40
 70
     1
102
RTVSPropertyOp41
 70
     1
102
RTVSPropertyOp42
 70
     1
102
RTVSPropertyOp43
 70
     1
102
RTVSPropertyOp44
 70
     1
102
RTVSPropertyOp45
 70
     1
102
RTVSPropertyOp46
 70
     1
102
RTVSPropertyOp47
 70
     1
102
RTVSPropertyOp48
 70
     1
102
RTVSPropertyOp49
 70
     1
102
RTVSPropertyOp50
 70
     1
102
RTVSPropertyOp51
 70
     0
102
RTVSPropertyOp52
 70
     0
102
RTVSPropertyOp53
 70
     1
102
RTVSPropertyOp54
 70
     1
102
RTVSPropertyOp55
 70
     1
102
RTVSPropertyOp56
 70
     1
102
RTVSPropertyOp57
 70
     1
102
RTVSPost2010Prop28
280
     0
102
RTVSPost2010PropOp28
 70
     1
102
RTVSPost2010Prop29
280
     1
102
RTVSPost2010PropOp29
 70
     1
102
RTVSPost2010Prop30
280
     1
102
RTVSPost2010PropOp30
 70
     1
102
RTVSPost2010Prop31
280
     0
102
RTVSPost2010PropOp31
 70
     1
102
RTVSPost2010Prop32
280
     0
102
RTVSPost2010PropOp32
 70
     1
102
RTVSPost2010Prop33
280
     0
102
RTVSPost2010PropOp33
 70
     1
102
RTVSPost2010Prop34
280
     0
102
RTVSPost2010PropOp34
 70
     1
102
RTVSPost2010Prop35
280
     0
102
RTVSPost2010PropOp35
 70
     1
102
RTVSPost2010Prop36
280
     0
102
RTVSPost2010PropOp36
 70
     1
102
RTVSPost2010Prop37
 90
       50
102
RTVSPost2010PropOp37
 70
     1
102
RTVSPost2010Prop38
140
0.0
102
RTVSPost2010PropOp38
 70
     1
102
RTVSPost2010Prop39
140
1.0
102
RTVSPost2010PropOp39
 70
     1
102
RTVSPost2010Prop40
 90
        0
102
RTVSPost2010PropOp40
 70
     1
102
RTVSPost2010Prop41ColorIndex
 90
       18
102
RTVSPost2010Prop41ColorRGB
 90
        0
102
RTVSPost2010PropOp41
 70
     1
102
RTVSPost2010Prop42
 90
       50
102
RTVSPost2010PropOp42
 70
     1
102
RTVSPost2010Prop43
 90
        3
102
RTVSPost2010PropOp43
 70
     1
102
RTVSPost2010Prop44ColorIndex
 90
        5
102
RTVSPost2010Prop44ColorRGB
 90
      255
102
RTVSPost2010PropOp44
 70
     1
102
RTVSPost2010Prop45
280
     0
102
RTVSPost2010PropOp45
 70
     1
102
RTVSPost2010Prop46
 90
       50
102
RTVSPost2010PropOp46
 70
     1
102
RTVSPost2010Prop47
 90
       50
102
RTVSPost2010PropOp47
 70
     1
102
RTVSPost2010Prop48
 90
       50
102
RTVSPost2010PropOp48
 70
     1
102
RTVSPost2010Prop49
280
     0
102
RTVSPost2010PropOp49
 70
     1
102
RTVSPost2010Prop50
 90
       50
102
RTVSPost2010PropOp50
 70
     1
102
RTVSPost2010Prop51ColorIndex
 90
      256
102
RTVSPost2010Prop51ColorRGB
 90
-16777216
102
RTVSPost2010PropOp51
 70
     0
102
RTVSPost2010Prop52
140
1.0
102
RTVSPost2010PropOp52
 70
     0
102
RTVSPost2010Prop53
 90
        2
102
RTVSPost2010PropOp53
 70
     1
102
RTVSPost2010Prop54
  1
strokes_ogs.tif
102
RTVSPost2010PropOp54
 70
     1
102
RTVSPost2010Prop55
280
     0
102
RTVSPost2010PropOp55
 70
     1
102
RTVSPost2010Prop56
140
1.0
102
RTVSPost2010PropOp56
 70
     1
102
RTVSPost2010Prop57
140
1.0
102
RTVSPost2010PropOp57
 70
     1
  0
XRECORD
  5
6F3
102
{ACAD_REACTORS
330
6F2
102
}
330
6F2
100
AcDbXrecord
280
     1
102
RTVSPropertyOp0
 70
     1
102
RTVSPropertyOp1
 70
     1
102
RTVSPropertyOp2
 70
     1
102
RTVSPropertyOp3
 70
     1
102
RTVSPropertyOp4
 70
     1
102
RTVSPropertyOp5
 70
     1
102
RTVSPropertyOp6
 70
     1
102
RTVSPropertyOp7
 70
     1
102
RTVSPropertyOp8
 70
     1
102
RTVSPropertyOp9
 70
     1
102
RTVSPropertyOp10
 70
     1
102
RTVSPropertyOp11
 70
     1
102
RTVSPropertyOp12
 70
     1
102
RTVSPropertyOp13
 70
     1
102
RTVSPropertyOp14
 70
     1
102
RTVSPropertyOp15
 70
     1
102
RTVSPropertyOp16
 70
     1
102
RTVSPropertyOp17
 70
     1
102
RTVSPropertyOp18
 70
     1
102
RTVSPropertyOp19
 70
     1
102
RTVSPropertyOp20
 70
     1
102
RTVSPropertyOp21
 70
     1
102
RTVSPropertyOp22
 70
     1
102
RTVSPropertyOp23
 70
     1
102
RTVSPropertyOp24
 70
     1
102
RTVSPropertyOp25
 70
     1
102
RTVSPropertyOp26
 70
     1
102
RTVSPropertyOp27
 70
     1
102
RTVSPropertyOp28
 70
     1
102
RTVSPropertyOp29
 70
     1
102
RTVSPropertyOp30
 70
     1
102
RTVSPropertyOp31
 70
     1
102
RTVSPropertyOp32
 70
     1
102
RTVSPropertyOp33
 70
     1
102
RTVSPropertyOp34
 70
     1
102
RTVSPropertyOp35
 70
     1
102
RTVSPropertyOp36
 70
     1
102
RTVSPropertyOp37
 70
     1
102
RTVSPropertyOp38
 70
     1
102
RTVSPropertyOp39
 70
     1
102
RTVSPropertyOp40
 70
     1
102
RTVSPropertyOp41
 70
     1
102
RTVSPropertyOp42
 70
     1
102
RTVSPropertyOp43
 70
     1
102
RTVSPropertyOp44
 70
     1
102
RTVSPropertyOp45
 70
     1
102
RTVSPropertyOp46
 70
     1
102
RTVSPropertyOp47
 70
     1
102
RTVSPropertyOp48
 70
     1
102
RTVSPropertyOp49
 70
     1
102
RTVSPropertyOp50
 70
     1
102
RTVSPropertyOp51
 70
     0
102
RTVSPropertyOp52
 70
     0
102
RTVSPropertyOp53
 70
     1
102
RTVSPropertyOp54
 70
     1
102
RTVSPropertyOp55
 70
     1
102
RTVSPropertyOp56
 70
     1
102
RTVSPropertyOp57
 70
     1
102
RTVSPost2010Prop28
280
     0
102
RTVSPost2010PropOp28
 70
     1
102
RTVSPost2010Prop29
280
     1
102
RTVSPost2010PropOp29
 70
     1
102
RTVSPost2010Prop30
280
     1
102
RTVSPost2010PropOp30
 70
     1
102
RTVSPost2010Prop31
280
     0
102
RTVSPost2010PropOp31
 70
     1
102
RTVSPost2010Prop32
280
     0
102
RTVSPost2010PropOp32
 70
     1
102
RTVSPost2010Prop33
280
     0
102
RTVSPost2010PropOp33
 70
     1
102
RTVSPost2010Prop34
280
     0
102
RTVSPost2010PropOp34
 70
     1
102
RTVSPost2010Prop35
280
     0
102
RTVSPost2010PropOp35
 70
     1
102
RTVSPost2010Prop36
280
     0
102
RTVSPost2010PropOp36
 70
     1
102
RTVSPost2010Prop37
 90
       50
102
RTVSPost2010PropOp37
 70
     1
102
RTVSPost2010Prop38
140
0.0
102
RTVSPost2010PropOp38
 70
     1
102
RTVSPost2010Prop39
140
1.0
102
RTVSPost2010PropOp39
 70
     1
102
RTVSPost2010Prop40
 90
        0
102
RTVSPost2010PropOp40
 70
     1
102
RTVSPost2010Prop41ColorIndex
 90
       18
102
RTVSPost2010Prop41ColorRGB
 90
        0
102
RTVSPost2010PropOp41
 70
     1
102
RTVSPost2010Prop42
 90
       50
102
RTVSPost2010PropOp42
 70
     1
102
RTVSPost2010Prop43
 90
        3
102
RTVSPost2010PropOp43
 70
     1
102
RTVSPost2010Prop44ColorIndex
 90
        5
102
RTVSPost2010Prop44ColorRGB
 90
      255
102
RTVSPost2010PropOp44
 70
     1
102
RTVSPost2010Prop45
280
     0
102
RTVSPost2010PropOp45
 70
     1
102
RTVSPost2010Prop46
 90
       50
102
RTVSPost2010PropOp46
 70
     1
102
RTVSPost2010Prop47
 90
       50
102
RTVSPost2010PropOp47
 70
     1
102
RTVSPost2010Prop48
 90
       50
102
RTVSPost2010PropOp48
 70
     1
102
RTVSPost2010Prop49
280
     0
102
RTVSPost2010PropOp49
 70
     1
102
RTVSPost2010Prop50
 90
       50
102
RTVSPost2010PropOp50
 70
     1
102
RTVSPost2010Prop51ColorIndex
 90
      256
102
RTVSPost2010Prop51ColorRGB
 90
-16777216
102
RTVSPost2010PropOp51
 70
     0
102
RTVSPost2010Prop52
140
1.0
102
RTVSPost2010PropOp52
 70
     0
102
RTVSPost2010Prop53
 90
        2
102
RTVSPost2010PropOp53
 70
     1
102
RTVSPost2010Prop54
  1
strokes_ogs.tif
102
RTVSPost2010PropOp54
 70
     1
102
RTVSPost2010Prop55
280
     0
102
RTVSPost2010PropOp55
 70
     1
102
RTVSPost2010Prop56
140
1.0
102
RTVSPost2010PropOp56
 70
     1
102
RTVSPost2010Prop57
140
1.0
102
RTVSPost2010PropOp57
 70
     1
  0
XRECORD
  5
6F5
102
{ACAD_REACTORS
330
6F4
102
}
330
6F4
100
AcDbXrecord
280
     1
102
RTVSPropertyOp0
 70
     1
102
RTVSPropertyOp1
 70
     1
102
RTVSPropertyOp2
 70
     1
102
RTVSPropertyOp3
 70
     1
102
RTVSPropertyOp4
 70
     1
102
RTVSPropertyOp5
 70
     1
102
RTVSPropertyOp6
 70
     1
102
RTVSPropertyOp7
 70
     1
102
RTVSPropertyOp8
 70
     1
102
RTVSPropertyOp9
 70
     1
102
RTVSPropertyOp10
 70
     1
102
RTVSPropertyOp11
 70
     1
102
RTVSPropertyOp12
 70
     1
102
RTVSPropertyOp13
 70
     1
102
RTVSPropertyOp14
 70
     1
102
RTVSPropertyOp15
 70
     1
102
RTVSPropertyOp16
 70
     1
102
RTVSPropertyOp17
 70
     1
102
RTVSPropertyOp18
 70
     1
102
RTVSPropertyOp19
 70
     1
102
RTVSPropertyOp20
 70
     1
102
RTVSPropertyOp21
 70
     1
102
RTVSPropertyOp22
 70
     1
102
RTVSPropertyOp23
 70
     1
102
RTVSPropertyOp24
 70
     1
102
RTVSPropertyOp25
 70
     1
102
RTVSPropertyOp26
 70
     1
102
RTVSPropertyOp27
 70
     1
102
RTVSPropertyOp28
 70
     1
102
RTVSPropertyOp29
 70
     1
102
RTVSPropertyOp30
 70
     1
102
RTVSPropertyOp31
 70
     1
102
RTVSPropertyOp32
 70
     1
102
RTVSPropertyOp33
 70
     1
102
RTVSPropertyOp34
 70
     1
102
RTVSPropertyOp35
 70
     1
102
RTVSPropertyOp36
 70
     1
102
RTVSPropertyOp37
 70
     1
102
RTVSPropertyOp38
 70
     1
102
RTVSPropertyOp39
 70
     1
102
RTVSPropertyOp40
 70
     1
102
RTVSPropertyOp41
 70
     1
102
RTVSPropertyOp42
 70
     1
102
RTVSPropertyOp43
 70
     1
102
RTVSPropertyOp44
 70
     1
102
RTVSPropertyOp45
 70
     1
102
RTVSPropertyOp46
 70
     1
102
RTVSPropertyOp47
 70
     1
102
RTVSPropertyOp48
 70
     1
102
RTVSPropertyOp49
 70
     1
102
RTVSPropertyOp50
 70
     1
102
RTVSPropertyOp51
 70
     0
102
RTVSPropertyOp52
 70
     0
102
RTVSPropertyOp53
 70
     1
102
RTVSPropertyOp54
 70
     1
102
RTVSPropertyOp55
 70
     1
102
RTVSPropertyOp56
 70
     1
102
RTVSPropertyOp57
 70
     1
102
RTVSPost2010Prop28
280
     0
102
RTVSPost2010PropOp28
 70
     1
102
RTVSPost2010Prop29
280
     1
102
RTVSPost2010PropOp29
 70
     1
102
RTVSPost2010Prop30
280
     1
102
RTVSPost2010PropOp30
 70
     1
102
RTVSPost2010Prop31
280
     0
102
RTVSPost2010PropOp31
 70
     1
102
RTVSPost2010Prop32
280
     0
102
RTVSPost2010PropOp32
 70
     1
102
RTVSPost2010Prop33
280
     0
102
RTVSPost2010PropOp33
 70
     1
102
RTVSPost2010Prop34
280
     0
102
RTVSPost2010PropOp34
 70
     1
102
RTVSPost2010Prop35
280
     0
102
RTVSPost2010PropOp35
 70
     1
102
RTVSPost2010Prop36
280
     0
102
RTVSPost2010PropOp36
 70
     1
102
RTVSPost2010Prop37
 90
       50
102
RTVSPost2010PropOp37
 70
     1
102
RTVSPost2010Prop38
140
0.0
102
RTVSPost2010PropOp38
 70
     1
102
RTVSPost2010Prop39
140
1.0
102
RTVSPost2010PropOp39
 70
     1
102
RTVSPost2010Prop40
 90
        0
102
RTVSPost2010PropOp40
 70
     1
102
RTVSPost2010Prop41ColorIndex
 90
       18
102
RTVSPost2010Prop41ColorRGB
 90
        0
102
RTVSPost2010PropOp41
 70
     1
102
RTVSPost2010Prop42
 90
       50
102
RTVSPost2010PropOp42
 70
     1
102
RTVSPost2010Prop43
 90
        3
102
RTVSPost2010PropOp43
 70
     1
102
RTVSPost2010Prop44ColorIndex
 90
        5
102
RTVSPost2010Prop44ColorRGB
 90
      255
102
RTVSPost2010PropOp44
 70
     1
102
RTVSPost2010Prop45
280
     0
102
RTVSPost2010PropOp45
 70
     1
102
RTVSPost2010Prop46
 90
       50
102
RTVSPost2010PropOp46
 70
     1
102
RTVSPost2010Prop47
 90
       50
102
RTVSPost2010PropOp47
 70
     1
102
RTVSPost2010Prop48
 90
       50
102
RTVSPost2010PropOp48
 70
     1
102
RTVSPost2010Prop49
280
     0
102
RTVSPost2010PropOp49
 70
     1
102
RTVSPost2010Prop50
 90
       50
102
RTVSPost2010PropOp50
 70
     1
102
RTVSPost2010Prop51ColorIndex
 90
      256
102
RTVSPost2010Prop51ColorRGB
 90
-16777216
102
RTVSPost2010PropOp51
 70
     0
102
RTVSPost2010Prop52
140
1.0
102
RTVSPost2010PropOp52
 70
     0
102
RTVSPost2010Prop53
 90
        2
102
RTVSPost2010PropOp53
 70
     1
102
RTVSPost2010Prop54
  1
strokes_ogs.tif
102
RTVSPost2010PropOp54
 70
     1
102
RTVSPost2010Prop55
280
     0
102
RTVSPost2010PropOp55
 70
     1
102
RTVSPost2010Prop56
140
1.0
102
RTVSPost2010PropOp56
 70
     1
102
RTVSPost2010Prop57
140
1.0
102
RTVSPost2010PropOp57
 70
     1
  0
XRECORD
  5
705
102
{ACAD_REACTORS
330
704
102
}
330
704
100
AcDbXrecord
280
     1
102
RTVSPropertyOp0
 70
     0
102
RTVSPropertyOp1
 70
     0
102
RTVSPropertyOp2
 70
     0
102
RTVSPropertyOp3
 70
     0
102
RTVSPropertyOp4
 70
     0
102
RTVSPropertyOp5
 70
     0
102
RTVSPropertyOp6
 70
     0
102
RTVSPropertyOp7
 70
     0
102
RTVSPropertyOp8
 70
     0
102
RTVSPropertyOp9
 70
     0
102
RTVSPropertyOp10
 70
     0
102
RTVSPropertyOp11
 70
     0
102
RTVSPropertyOp12
 70
     0
102
RTVSPropertyOp13
 70
     0
102
RTVSPropertyOp14
 70
     0
102
RTVSPropertyOp15
 70
     0
102
RTVSPropertyOp16
 70
     0
102
RTVSPropertyOp17
 70
     0
102
RTVSPropertyOp18
 70
     0
102
RTVSPropertyOp19
 70
     0
102
RTVSPropertyOp20
 70
     0
102
RTVSPropertyOp21
 70
     0
102
RTVSPropertyOp22
 70
     0
102
RTVSPropertyOp23
 70
     0
102
RTVSPropertyOp24
 70
     0
102
RTVSPropertyOp25
 70
     0
102
RTVSPropertyOp26
 70
     0
102
RTVSPropertyOp27
 70
     0
102
RTVSPropertyOp28
 70
     1
102
RTVSPropertyOp29
 70
     1
102
RTVSPropertyOp30
 70
     1
102
RTVSPropertyOp31
 70
     1
102
RTVSPropertyOp32
 70
     1
102
RTVSPropertyOp33
 70
     1
102
RTVSPropertyOp34
 70
     1
102
RTVSPropertyOp35
 70
     1
102
RTVSPropertyOp36
 70
     1
102
RTVSPropertyOp37
 70
     1
102
RTVSPropertyOp38
 70
     1
102
RTVSPropertyOp39
 70
     1
102
RTVSPropertyOp40
 70
     1
102
RTVSPropertyOp41
 70
     1
102
RTVSPropertyOp42
 70
     1
102
RTVSPropertyOp43
 70
     1
102
RTVSPropertyOp44
 70
     1
102
RTVSPropertyOp45
 70
     1
102
RTVSPropertyOp46
 70
     1
102
RTVSPropertyOp47
 70
     1
102
RTVSPropertyOp48
 70
     1
102
RTVSPropertyOp49
 70
     1
102
RTVSPropertyOp50
 70
     1
102
RTVSPropertyOp51
 70
     0
102
RTVSPropertyOp52
 70
     0
102
RTVSPropertyOp53
 70
     1
102
RTVSPropertyOp54
 70
     1
102
RTVSPropertyOp55
 70
     1
102
RTVSPropertyOp56
 70
     1
102
RTVSPropertyOp57
 70
     1
102
RTVSPost2010Prop28
280
     0
102
RTVSPost2010PropOp28
 70
     1
102
RTVSPost2010Prop29
280
     1
102
RTVSPost2010PropOp29
 70
     1
102
RTVSPost2010Prop30
280
     1
102
RTVSPost2010PropOp30
 70
     1
102
RTVSPost2010Prop31
280
     0
102
RTVSPost2010PropOp31
 70
     1
102
RTVSPost2010Prop32
280
     0
102
RTVSPost2010PropOp32
 70
     1
102
RTVSPost2010Prop33
280
     0
102
RTVSPost2010PropOp33
 70
     1
102
RTVSPost2010Prop34
280
     0
102
RTVSPost2010PropOp34
 70
     1
102
RTVSPost2010Prop35
280
     0
102
RTVSPost2010PropOp35
 70
     1
102
RTVSPost2010Prop36
280
     0
102
RTVSPost2010PropOp36
 70
     1
102
RTVSPost2010Prop37
 90
       50
102
RTVSPost2010PropOp37
 70
     1
102
RTVSPost2010Prop38
140
0.0
102
RTVSPost2010PropOp38
 70
     1
102
RTVSPost2010Prop39
140
1.0
102
RTVSPost2010PropOp39
 70
     1
102
RTVSPost2010Prop40
 90
        0
102
RTVSPost2010PropOp40
 70
     1
102
RTVSPost2010Prop41ColorIndex
 90
       18
102
RTVSPost2010Prop41ColorRGB
 90
        0
102
RTVSPost2010PropOp41
 70
     1
102
RTVSPost2010Prop42
 90
       50
102
RTVSPost2010PropOp42
 70
     1
102
RTVSPost2010Prop43
 90
        3
102
RTVSPost2010PropOp43
 70
     1
102
RTVSPost2010Prop44ColorIndex
 90
        5
102
RTVSPost2010Prop44ColorRGB
 90
      255
102
RTVSPost2010PropOp44
 70
     1
102
RTVSPost2010Prop45
280
     0
102
RTVSPost2010PropOp45
 70
     1
102
RTVSPost2010Prop46
 90
       50
102
RTVSPost2010PropOp46
 70
     1
102
RTVSPost2010Prop47
 90
       50
102
RTVSPost2010PropOp47
 70
     1
102
RTVSPost2010Prop48
 90
       50
102
RTVSPost2010PropOp48
 70
     1
102
RTVSPost2010Prop49
280
     0
102
RTVSPost2010PropOp49
 70
     1
102
RTVSPost2010Prop50
 90
       50
102
RTVSPost2010PropOp50
 70
     1
102
RTVSPost2010Prop51ColorIndex
 90
      256
102
RTVSPost2010Prop51ColorRGB
 90
-16777216
102
RTVSPost2010PropOp51
 70
     0
102
RTVSPost2010Prop52
140
1.0
102
RTVSPost2010PropOp52
 70
     0
102
RTVSPost2010Prop53
 90
        2
102
RTVSPost2010PropOp53
 70
     1
102
RTVSPost2010Prop54
  1
strokes_ogs.tif
102
RTVSPost2010PropOp54
 70
     1
102
RTVSPost2010Prop55
280
     0
102
RTVSPost2010PropOp55
 70
     1
102
RTVSPost2010Prop56
140
1.0
102
RTVSPost2010PropOp56
 70
     1
102
RTVSPost2010Prop57
140
1.0
102
RTVSPost2010PropOp57
 70
     1
  0
XRECORD
  5
6FD
102
{ACAD_REACTORS
330
6FC
102
}
330
6FC
100
AcDbXrecord
280
     1
102
RTVSPropertyOp0
 70
     1
102
RTVSPropertyOp1
 70
     1
102
RTVSPropertyOp2
 70
     1
102
RTVSPropertyOp3
 70
     1
102
RTVSPropertyOp4
 70
     1
102
RTVSPropertyOp5
 70
     1
102
RTVSPropertyOp6
 70
     1
102
RTVSPropertyOp7
 70
     1
102
RTVSPropertyOp8
 70
     1
102
RTVSPropertyOp9
 70
     1
102
RTVSPropertyOp10
 70
     1
102
RTVSPropertyOp11
 70
     1
102
RTVSPropertyOp12
 70
     1
102
RTVSPropertyOp13
 70
     1
102
RTVSPropertyOp14
 70
     1
102
RTVSPropertyOp15
 70
     1
102
RTVSPropertyOp16
 70
     1
102
RTVSPropertyOp17
 70
     1
102
RTVSPropertyOp18
 70
     1
102
RTVSPropertyOp19
 70
     1
102
RTVSPropertyOp20
 70
     1
102
RTVSPropertyOp21
 70
     1
102
RTVSPropertyOp22
 70
     1
102
RTVSPropertyOp23
 70
     1
102
RTVSPropertyOp24
 70
     1
102
RTVSPropertyOp25
 70
     1
102
RTVSPropertyOp26
 70
     1
102
RTVSPropertyOp27
 70
     1
102
RTVSPropertyOp28
 70
     1
102
RTVSPropertyOp29
 70
     1
102
RTVSPropertyOp30
 70
     1
102
RTVSPropertyOp31
 70
     1
102
RTVSPropertyOp32
 70
     1
102
RTVSPropertyOp33
 70
     1
102
RTVSPropertyOp34
 70
     1
102
RTVSPropertyOp35
 70
     1
102
RTVSPropertyOp36
 70
     1
102
RTVSPropertyOp37
 70
     1
102
RTVSPropertyOp38
 70
     1
102
RTVSPropertyOp39
 70
     1
102
RTVSPropertyOp40
 70
     1
102
RTVSPropertyOp41
 70
     1
102
RTVSPropertyOp42
 70
     1
102
RTVSPropertyOp43
 70
     1
102
RTVSPropertyOp44
 70
     1
102
RTVSPropertyOp45
 70
     1
102
RTVSPropertyOp46
 70
     1
102
RTVSPropertyOp47
 70
     1
102
RTVSPropertyOp48
 70
     1
102
RTVSPropertyOp49
 70
     1
102
RTVSPropertyOp50
 70
     1
102
RTVSPropertyOp51
 70
     0
102
RTVSPropertyOp52
 70
     0
102
RTVSPropertyOp53
 70
     1
102
RTVSPropertyOp54
 70
     1
102
RTVSPropertyOp55
 70
     1
102
RTVSPropertyOp56
 70
     1
102
RTVSPropertyOp57
 70
     1
102
RTVSPost2010Prop28
280
     0
102
RTVSPost2010PropOp28
 70
     1
102
RTVSPost2010Prop29
280
     1
102
RTVSPost2010PropOp29
 70
     1
102
RTVSPost2010Prop30
280
     1
102
RTVSPost2010PropOp30
 70
     1
102
RTVSPost2010Prop31
280
     0
102
RTVSPost2010PropOp31
 70
     1
102
RTVSPost2010Prop32
280
     0
102
RTVSPost2010PropOp32
 70
     1
102
RTVSPost2010Prop33
280
     0
102
RTVSPost2010PropOp33
 70
     1
102
RTVSPost2010Prop34
280
     0
102
RTVSPost2010PropOp34
 70
     1
102
RTVSPost2010Prop35
280
     0
102
RTVSPost2010PropOp35
 70
     1
102
RTVSPost2010Prop36
280
     0
102
RTVSPost2010PropOp36
 70
     1
102
RTVSPost2010Prop37
 90
       50
102
RTVSPost2010PropOp37
 70
     1
102
RTVSPost2010Prop38
140
0.0
102
RTVSPost2010PropOp38
 70
     1
102
RTVSPost2010Prop39
140
1.0
102
RTVSPost2010PropOp39
 70
     1
102
RTVSPost2010Prop40
 90
        0
102
RTVSPost2010PropOp40
 70
     1
102
RTVSPost2010Prop41ColorIndex
 90
       18
102
RTVSPost2010Prop41ColorRGB
 90
        0
102
RTVSPost2010PropOp41
 70
     1
102
RTVSPost2010Prop42
 90
       50
102
RTVSPost2010PropOp42
 70
     1
102
RTVSPost2010Prop43
 90
        3
102
RTVSPost2010PropOp43
 70
     1
102
RTVSPost2010Prop44ColorIndex
 90
        5
102
RTVSPost2010Prop44ColorRGB
 90
      255
102
RTVSPost2010PropOp44
 70
     1
102
RTVSPost2010Prop45
280
     0
102
RTVSPost2010PropOp45
 70
     1
102
RTVSPost2010Prop46
 90
       50
102
RTVSPost2010PropOp46
 70
     1
102
RTVSPost2010Prop47
 90
       50
102
RTVSPost2010PropOp47
 70
     1
102
RTVSPost2010Prop48
 90
       50
102
RTVSPost2010PropOp48
 70
     1
102
RTVSPost2010Prop49
280
     0
102
RTVSPost2010PropOp49
 70
     1
102
RTVSPost2010Prop50
 90
       50
102
RTVSPost2010PropOp50
 70
     1
102
RTVSPost2010Prop51ColorIndex
 90
      256
102
RTVSPost2010Prop51ColorRGB
 90
-16777216
102
RTVSPost2010PropOp51
 70
     0
102
RTVSPost2010Prop52
140
1.0
102
RTVSPost2010PropOp52
 70
     0
102
RTVSPost2010Prop53
 90
        2
102
RTVSPost2010PropOp53
 70
     1
102
RTVSPost2010Prop54
  1
strokes_ogs.tif
102
RTVSPost2010PropOp54
 70
     1
102
RTVSPost2010Prop55
280
     0
102
RTVSPost2010PropOp55
 70
     1
102
RTVSPost2010Prop56
140
1.0
102
RTVSPost2010PropOp56
 70
     1
102
RTVSPost2010Prop57
140
1.0
102
RTVSPost2010PropOp57
 70
     1
  0
XRECORD
  5
6E1
102
{ACAD_REACTORS
330
6E0
102
}
330
6E0
100
AcDbXrecord
280
     1
102
RTVSPropertyOp0
 70
     1
102
RTVSPropertyOp1
 70
     1
102
RTVSPropertyOp2
 70
     1
102
RTVSPropertyOp3
 70
     1
102
RTVSPropertyOp4
 70
     1
102
RTVSPropertyOp5
 70
     1
102
RTVSPropertyOp6
 70
     1
102
RTVSPropertyOp7
 70
     1
102
RTVSPropertyOp8
 70
     1
102
RTVSPropertyOp9
 70
     1
102
RTVSPropertyOp10
 70
     1
102
RTVSPropertyOp11
 70
     1
102
RTVSPropertyOp12
 70
     1
102
RTVSPropertyOp13
 70
     1
102
RTVSPropertyOp14
 70
     1
102
RTVSPropertyOp15
 70
     1
102
RTVSPropertyOp16
 70
     1
102
RTVSPropertyOp17
 70
     1
102
RTVSPropertyOp18
 70
     1
102
RTVSPropertyOp19
 70
     1
102
RTVSPropertyOp20
 70
     1
102
RTVSPropertyOp21
 70
     1
102
RTVSPropertyOp22
 70
     1
102
RTVSPropertyOp23
 70
     1
102
RTVSPropertyOp24
 70
     1
102
RTVSPropertyOp25
 70
     1
102
RTVSPropertyOp26
 70
     1
102
RTVSPropertyOp27
 70
     1
102
RTVSPropertyOp28
 70
     1
102
RTVSPropertyOp29
 70
     1
102
RTVSPropertyOp30
 70
     1
102
RTVSPropertyOp31
 70
     1
102
RTVSPropertyOp32
 70
     1
102
RTVSPropertyOp33
 70
     1
102
RTVSPropertyOp34
 70
     1
102
RTVSPropertyOp35
 70
     1
102
RTVSPropertyOp36
 70
     1
102
RTVSPropertyOp37
 70
     1
102
RTVSPropertyOp38
 70
     1
102
RTVSPropertyOp39
 70
     1
102
RTVSPropertyOp40
 70
     1
102
RTVSPropertyOp41
 70
     1
102
RTVSPropertyOp42
 70
     1
102
RTVSPropertyOp43
 70
     1
102
RTVSPropertyOp44
 70
     1
102
RTVSPropertyOp45
 70
     1
102
RTVSPropertyOp46
 70
     1
102
RTVSPropertyOp47
 70
     1
102
RTVSPropertyOp48
 70
     1
102
RTVSPropertyOp49
 70
     1
102
RTVSPropertyOp50
 70
     1
102
RTVSPropertyOp51
 70
     0
102
RTVSPropertyOp52
 70
     0
102
RTVSPropertyOp53
 70
     1
102
RTVSPropertyOp54
 70
     1
102
RTVSPropertyOp55
 70
     1
102
RTVSPropertyOp56
 70
     1
102
RTVSPropertyOp57
 70
     1
102
RTVSPost2010Prop28
280
     0
102
RTVSPost2010PropOp28
 70
     1
102
RTVSPost2010Prop29
280
     1
102
RTVSPost2010PropOp29
 70
     1
102
RTVSPost2010Prop30
280
     1
102
RTVSPost2010PropOp30
 70
     1
102
RTVSPost2010Prop31
280
     0
102
RTVSPost2010PropOp31
 70
     1
102
RTVSPost2010Prop32
280
     0
102
RTVSPost2010PropOp32
 70
     1
102
RTVSPost2010Prop33
280
     0
102
RTVSPost2010PropOp33
 70
     1
102
RTVSPost2010Prop34
280
     0
102
RTVSPost2010PropOp34
 70
     1
102
RTVSPost2010Prop35
280
     0
102
RTVSPost2010PropOp35
 70
     1
102
RTVSPost2010Prop36
280
     0
102
RTVSPost2010PropOp36
 70
     1
102
RTVSPost2010Prop37
 90
       50
102
RTVSPost2010PropOp37
 70
     1
102
RTVSPost2010Prop38
140
0.0
102
RTVSPost2010PropOp38
 70
     1
102
RTVSPost2010Prop39
140
1.0
102
RTVSPost2010PropOp39
 70
     1
102
RTVSPost2010Prop40
 90
        0
102
RTVSPost2010PropOp40
 70
     1
102
RTVSPost2010Prop41ColorIndex
 90
       18
102
RTVSPost2010Prop41ColorRGB
 90
        0
102
RTVSPost2010PropOp41
 70
     1
102
RTVSPost2010Prop42
 90
       50
102
RTVSPost2010PropOp42
 70
     1
102
RTVSPost2010Prop43
 90
        3
102
RTVSPost2010PropOp43
 70
     1
102
RTVSPost2010Prop44ColorIndex
 90
        5
102
RTVSPost2010Prop44ColorRGB
 90
      255
102
RTVSPost2010PropOp44
 70
     1
102
RTVSPost2010Prop45
280
     0
102
RTVSPost2010PropOp45
 70
     1
102
RTVSPost2010Prop46
 90
       50
102
RTVSPost2010PropOp46
 70
     1
102
RTVSPost2010Prop47
 90
       50
102
RTVSPost2010PropOp47
 70
     1
102
RTVSPost2010Prop48
 90
       50
102
RTVSPost2010PropOp48
 70
     1
102
RTVSPost2010Prop49
280
     0
102
RTVSPost2010PropOp49
 70
     1
102
RTVSPost2010Prop50
 90
       50
102
RTVSPost2010PropOp50
 70
     1
102
RTVSPost2010Prop51ColorIndex
 90
      256
102
RTVSPost2010Prop51ColorRGB
 90
-16777216
102
RTVSPost2010PropOp51
 70
     0
102
RTVSPost2010Prop52
140
1.0
102
RTVSPost2010PropOp52
 70
     0
102
RTVSPost2010Prop53
 90
        2
102
RTVSPost2010PropOp53
 70
     1
102
RTVSPost2010Prop54
  1
strokes_ogs.tif
102
RTVSPost2010PropOp54
 70
     1
102
RTVSPost2010Prop55
280
     0
102
RTVSPost2010PropOp55
 70
     1
102
RTVSPost2010Prop56
140
1.0
102
RTVSPost2010PropOp56
 70
     1
102
RTVSPost2010Prop57
140
1.0
102
RTVSPost2010PropOp57
 70
     1
  0
XRECORD
  5
6E3
102
{ACAD_REACTORS
330
6E2
102
}
330
6E2
100
AcDbXrecord
280
     1
102
RTVSPropertyOp0
 70
     1
102
RTVSPropertyOp1
 70
     1
102
RTVSPropertyOp2
 70
     1
102
RTVSPropertyOp3
 70
     1
102
RTVSPropertyOp4
 70
     1
102
RTVSPropertyOp5
 70
     1
102
RTVSPropertyOp6
 70
     1
102
RTVSPropertyOp7
 70
     1
102
RTVSPropertyOp8
 70
     1
102
RTVSPropertyOp9
 70
     1
102
RTVSPropertyOp10
 70
     1
102
RTVSPropertyOp11
 70
     1
102
RTVSPropertyOp12
 70
     1
102
RTVSPropertyOp13
 70
     1
102
RTVSPropertyOp14
 70
     1
102
RTVSPropertyOp15
 70
     1
102
RTVSPropertyOp16
 70
     1
102
RTVSPropertyOp17
 70
     1
102
RTVSPropertyOp18
 70
     1
102
RTVSPropertyOp19
 70
     1
102
RTVSPropertyOp20
 70
     1
102
RTVSPropertyOp21
 70
     1
102
RTVSPropertyOp22
 70
     1
102
RTVSPropertyOp23
 70
     1
102
RTVSPropertyOp24
 70
     1
102
RTVSPropertyOp25
 70
     1
102
RTVSPropertyOp26
 70
     1
102
RTVSPropertyOp27
 70
     1
102
RTVSPropertyOp28
 70
     1
102
RTVSPropertyOp29
 70
     1
102
RTVSPropertyOp30
 70
     1
102
RTVSPropertyOp31
 70
     1
102
RTVSPropertyOp32
 70
     1
102
RTVSPropertyOp33
 70
     1
102
RTVSPropertyOp34
 70
     1
102
RTVSPropertyOp35
 70
     1
102
RTVSPropertyOp36
 70
     1
102
RTVSPropertyOp37
 70
     1
102
RTVSPropertyOp38
 70
     1
102
RTVSPropertyOp39
 70
     1
102
RTVSPropertyOp40
 70
     1
102
RTVSPropertyOp41
 70
     1
102
RTVSPropertyOp42
 70
     1
102
RTVSPropertyOp43
 70
     1
102
RTVSPropertyOp44
 70
     1
102
RTVSPropertyOp45
 70
     1
102
RTVSPropertyOp46
 70
     1
102
RTVSPropertyOp47
 70
     1
102
RTVSPropertyOp48
 70
     1
102
RTVSPropertyOp49
 70
     1
102
RTVSPropertyOp50
 70
     1
102
RTVSPropertyOp51
 70
     0
102
RTVSPropertyOp52
 70
     0
102
RTVSPropertyOp53
 70
     1
102
RTVSPropertyOp54
 70
     1
102
RTVSPropertyOp55
 70
     1
102
RTVSPropertyOp56
 70
     1
102
RTVSPropertyOp57
 70
     1
102
RTVSPost2010Prop28
280
     0
102
RTVSPost2010PropOp28
 70
     1
102
RTVSPost2010Prop29
280
     1
102
RTVSPost2010PropOp29
 70
     1
102
RTVSPost2010Prop30
280
     1
102
RTVSPost2010PropOp30
 70
     1
102
RTVSPost2010Prop31
280
     0
102
RTVSPost2010PropOp31
 70
     1
102
RTVSPost2010Prop32
280
     0
102
RTVSPost2010PropOp32
 70
     1
102
RTVSPost2010Prop33
280
     0
102
RTVSPost2010PropOp33
 70
     1
102
RTVSPost2010Prop34
280
     0
102
RTVSPost2010PropOp34
 70
     1
102
RTVSPost2010Prop35
280
     0
102
RTVSPost2010PropOp35
 70
     1
102
RTVSPost2010Prop36
280
     0
102
RTVSPost2010PropOp36
 70
     1
102
RTVSPost2010Prop37
 90
       50
102
RTVSPost2010PropOp37
 70
     1
102
RTVSPost2010Prop38
140
0.0
102
RTVSPost2010PropOp38
 70
     1
102
RTVSPost2010Prop39
140
1.0
102
RTVSPost2010PropOp39
 70
     1
102
RTVSPost2010Prop40
 90
        0
102
RTVSPost2010PropOp40
 70
     1
102
RTVSPost2010Prop41ColorIndex
 90
       18
102
RTVSPost2010Prop41ColorRGB
 90
        0
102
RTVSPost2010PropOp41
 70
     1
102
RTVSPost2010Prop42
 90
       50
102
RTVSPost2010PropOp42
 70
     1
102
RTVSPost2010Prop43
 90
        3
102
RTVSPost2010PropOp43
 70
     1
102
RTVSPost2010Prop44ColorIndex
 90
        5
102
RTVSPost2010Prop44ColorRGB
 90
      255
102
RTVSPost2010PropOp44
 70
     1
102
RTVSPost2010Prop45
280
     0
102
RTVSPost2010PropOp45
 70
     1
102
RTVSPost2010Prop46
 90
       50
102
RTVSPost2010PropOp46
 70
     1
102
RTVSPost2010Prop47
 90
       50
102
RTVSPost2010PropOp47
 70
     1
102
RTVSPost2010Prop48
 90
       50
102
RTVSPost2010PropOp48
 70
     1
102
RTVSPost2010Prop49
280
     0
102
RTVSPost2010PropOp49
 70
     1
102
RTVSPost2010Prop50
 90
       50
102
RTVSPost2010PropOp50
 70
     1
102
RTVSPost2010Prop51ColorIndex
 90
      256
102
RTVSPost2010Prop51ColorRGB
 90
-16777216
102
RTVSPost2010PropOp51
 70
     0
102
RTVSPost2010Prop52
140
1.0
102
RTVSPost2010PropOp52
 70
     0
102
RTVSPost2010Prop53
 90
        2
102
RTVSPost2010PropOp53
 70
     1
102
RTVSPost2010Prop54
  1
strokes_ogs.tif
102
RTVSPost2010PropOp54
 70
     1
102
RTVSPost2010Prop55
280
     0
102
RTVSPost2010PropOp55
 70
     1
102
RTVSPost2010Prop56
140
1.0
102
RTVSPost2010PropOp56
 70
     1
102
RTVSPost2010Prop57
140
1.0
102
RTVSPost2010PropOp57
 70
     1
  0
XRECORD
  5
6E5
102
{ACAD_REACTORS
330
6E4
102
}
330
6E4
100
AcDbXrecord
280
     1
102
RTVSPropertyOp0
 70
     1
102
RTVSPropertyOp1
 70
     1
102
RTVSPropertyOp2
 70
     1
102
RTVSPropertyOp3
 70
     1
102
RTVSPropertyOp4
 70
     1
102
RTVSPropertyOp5
 70
     1
102
RTVSPropertyOp6
 70
     1
102
RTVSPropertyOp7
 70
     1
102
RTVSPropertyOp8
 70
     1
102
RTVSPropertyOp9
 70
     1
102
RTVSPropertyOp10
 70
     1
102
RTVSPropertyOp11
 70
     1
102
RTVSPropertyOp12
 70
     1
102
RTVSPropertyOp13
 70
     1
102
RTVSPropertyOp14
 70
     1
102
RTVSPropertyOp15
 70
     1
102
RTVSPropertyOp16
 70
     1
102
RTVSPropertyOp17
 70
     1
102
RTVSPropertyOp18
 70
     1
102
RTVSPropertyOp19
 70
     1
102
RTVSPropertyOp20
 70
     1
102
RTVSPropertyOp21
 70
     1
102
RTVSPropertyOp22
 70
     1
102
RTVSPropertyOp23
 70
     1
102
RTVSPropertyOp24
 70
     1
102
RTVSPropertyOp25
 70
     1
102
RTVSPropertyOp26
 70
     1
102
RTVSPropertyOp27
 70
     1
102
RTVSPropertyOp28
 70
     1
102
RTVSPropertyOp29
 70
     1
102
RTVSPropertyOp30
 70
     1
102
RTVSPropertyOp31
 70
     1
102
RTVSPropertyOp32
 70
     1
102
RTVSPropertyOp33
 70
     1
102
RTVSPropertyOp34
 70
     1
102
RTVSPropertyOp35
 70
     1
102
RTVSPropertyOp36
 70
     1
102
RTVSPropertyOp37
 70
     1
102
RTVSPropertyOp38
 70
     1
102
RTVSPropertyOp39
 70
     1
102
RTVSPropertyOp40
 70
     1
102
RTVSPropertyOp41
 70
     1
102
RTVSPropertyOp42
 70
     1
102
RTVSPropertyOp43
 70
     1
102
RTVSPropertyOp44
 70
     1
102
RTVSPropertyOp45
 70
     1
102
RTVSPropertyOp46
 70
     1
102
RTVSPropertyOp47
 70
     1
102
RTVSPropertyOp48
 70
     1
102
RTVSPropertyOp49
 70
     1
102
RTVSPropertyOp50
 70
     1
102
RTVSPropertyOp51
 70
     0
102
RTVSPropertyOp52
 70
     0
102
RTVSPropertyOp53
 70
     1
102
RTVSPropertyOp54
 70
     1
102
RTVSPropertyOp55
 70
     1
102
RTVSPropertyOp56
 70
     1
102
RTVSPropertyOp57
 70
     1
102
RTVSPost2010Prop28
280
     0
102
RTVSPost2010PropOp28
 70
     1
102
RTVSPost2010Prop29
280
     1
102
RTVSPost2010PropOp29
 70
     1
102
RTVSPost2010Prop30
280
     1
102
RTVSPost2010PropOp30
 70
     1
102
RTVSPost2010Prop31
280
     0
102
RTVSPost2010PropOp31
 70
     1
102
RTVSPost2010Prop32
280
     0
102
RTVSPost2010PropOp32
 70
     1
102
RTVSPost2010Prop33
280
     0
102
RTVSPost2010PropOp33
 70
     1
102
RTVSPost2010Prop34
280
     0
102
RTVSPost2010PropOp34
 70
     1
102
RTVSPost2010Prop35
280
     0
102
RTVSPost2010PropOp35
 70
     1
102
RTVSPost2010Prop36
280
     0
102
RTVSPost2010PropOp36
 70
     1
102
RTVSPost2010Prop37
 90
       50
102
RTVSPost2010PropOp37
 70
     1
102
RTVSPost2010Prop38
140
0.0
102
RTVSPost2010PropOp38
 70
     1
102
RTVSPost2010Prop39
140
1.0
102
RTVSPost2010PropOp39
 70
     1
102
RTVSPost2010Prop40
 90
        0
102
RTVSPost2010PropOp40
 70
     1
102
RTVSPost2010Prop41ColorIndex
 90
       18
102
RTVSPost2010Prop41ColorRGB
 90
        0
102
RTVSPost2010PropOp41
 70
     1
102
RTVSPost2010Prop42
 90
       50
102
RTVSPost2010PropOp42
 70
     1
102
RTVSPost2010Prop43
 90
        3
102
RTVSPost2010PropOp43
 70
     1
102
RTVSPost2010Prop44ColorIndex
 90
        5
102
RTVSPost2010Prop44ColorRGB
 90
      255
102
RTVSPost2010PropOp44
 70
     1
102
RTVSPost2010Prop45
280
     0
102
RTVSPost2010PropOp45
 70
     1
102
RTVSPost2010Prop46
 90
       50
102
RTVSPost2010PropOp46
 70
     1
102
RTVSPost2010Prop47
 90
       50
102
RTVSPost2010PropOp47
 70
     1
102
RTVSPost2010Prop48
 90
       50
102
RTVSPost2010PropOp48
 70
     1
102
RTVSPost2010Prop49
280
     0
102
RTVSPost2010PropOp49
 70
     1
102
RTVSPost2010Prop50
 90
       50
102
RTVSPost2010PropOp50
 70
     1
102
RTVSPost2010Prop51ColorIndex
 90
      256
102
RTVSPost2010Prop51ColorRGB
 90
-16777216
102
RTVSPost2010PropOp51
 70
     0
102
RTVSPost2010Prop52
140
1.0
102
RTVSPost2010PropOp52
 70
     0
102
RTVSPost2010Prop53
 90
        2
102
RTVSPost2010PropOp53
 70
     1
102
RTVSPost2010Prop54
  1
strokes_ogs.tif
102
RTVSPost2010PropOp54
 70
     1
102
RTVSPost2010Prop55
280
     0
102
RTVSPost2010PropOp55
 70
     1
102
RTVSPost2010Prop56
140
1.0
102
RTVSPost2010PropOp56
 70
     1
102
RTVSPost2010Prop57
140
1.0
102
RTVSPost2010PropOp57
 70
     1
  0
XRECORD
  5
6E7
102
{ACAD_REACTORS
330
6E6
102
}
330
6E6
100
AcDbXrecord
280
     1
102
RTVSPropertyOp0
 70
     1
102
RTVSPropertyOp1
 70
     1
102
RTVSPropertyOp2
 70
     1
102
RTVSPropertyOp3
 70
     1
102
RTVSPropertyOp4
 70
     1
102
RTVSPropertyOp5
 70
     1
102
RTVSPropertyOp6
 70
     1
102
RTVSPropertyOp7
 70
     1
102
RTVSPropertyOp8
 70
     1
102
RTVSPropertyOp9
 70
     1
102
RTVSPropertyOp10
 70
     1
102
RTVSPropertyOp11
 70
     1
102
RTVSPropertyOp12
 70
     1
102
RTVSPropertyOp13
 70
     1
102
RTVSPropertyOp14
 70
     1
102
RTVSPropertyOp15
 70
     1
102
RTVSPropertyOp16
 70
     1
102
RTVSPropertyOp17
 70
     1
102
RTVSPropertyOp18
 70
     1
102
RTVSPropertyOp19
 70
     1
102
RTVSPropertyOp20
 70
     1
102
RTVSPropertyOp21
 70
     1
102
RTVSPropertyOp22
 70
     1
102
RTVSPropertyOp23
 70
     1
102
RTVSPropertyOp24
 70
     1
102
RTVSPropertyOp25
 70
     1
102
RTVSPropertyOp26
 70
     1
102
RTVSPropertyOp27
 70
     1
102
RTVSPropertyOp28
 70
     1
102
RTVSPropertyOp29
 70
     1
102
RTVSPropertyOp30
 70
     1
102
RTVSPropertyOp31
 70
     1
102
RTVSPropertyOp32
 70
     1
102
RTVSPropertyOp33
 70
     1
102
RTVSPropertyOp34
 70
     1
102
RTVSPropertyOp35
 70
     1
102
RTVSPropertyOp36
 70
     1
102
RTVSPropertyOp37
 70
     1
102
RTVSPropertyOp38
 70
     1
102
RTVSPropertyOp39
 70
     1
102
RTVSPropertyOp40
 70
     1
102
RTVSPropertyOp41
 70
     1
102
RTVSPropertyOp42
 70
     1
102
RTVSPropertyOp43
 70
     1
102
RTVSPropertyOp44
 70
     1
102
RTVSPropertyOp45
 70
     1
102
RTVSPropertyOp46
 70
     1
102
RTVSPropertyOp47
 70
     1
102
RTVSPropertyOp48
 70
     1
102
RTVSPropertyOp49
 70
     1
102
RTVSPropertyOp50
 70
     1
102
RTVSPropertyOp51
 70
     0
102
RTVSPropertyOp52
 70
     0
102
RTVSPropertyOp53
 70
     1
102
RTVSPropertyOp54
 70
     1
102
RTVSPropertyOp55
 70
     1
102
RTVSPropertyOp56
 70
     1
102
RTVSPropertyOp57
 70
     1
102
RTVSPost2010Prop28
280
     0
102
RTVSPost2010PropOp28
 70
     1
102
RTVSPost2010Prop29
280
     1
102
RTVSPost2010PropOp29
 70
     1
102
RTVSPost2010Prop30
280
     1
102
RTVSPost2010PropOp30
 70
     1
102
RTVSPost2010Prop31
280
     0
102
RTVSPost2010PropOp31
 70
     1
102
RTVSPost2010Prop32
280
     0
102
RTVSPost2010PropOp32
 70
     1
102
RTVSPost2010Prop33
280
     0
102
RTVSPost2010PropOp33
 70
     1
102
RTVSPost2010Prop34
280
     0
102
RTVSPost2010PropOp34
 70
     1
102
RTVSPost2010Prop35
280
     0
102
RTVSPost2010PropOp35
 70
     1
102
RTVSPost2010Prop36
280
     0
102
RTVSPost2010PropOp36
 70
     1
102
RTVSPost2010Prop37
 90
       50
102
RTVSPost2010PropOp37
 70
     1
102
RTVSPost2010Prop38
140
0.0
102
RTVSPost2010PropOp38
 70
     1
102
RTVSPost2010Prop39
140
1.0
102
RTVSPost2010PropOp39
 70
     1
102
RTVSPost2010Prop40
 90
        0
102
RTVSPost2010PropOp40
 70
     1
102
RTVSPost2010Prop41ColorIndex
 90
       18
102
RTVSPost2010Prop41ColorRGB
 90
        0
102
RTVSPost2010PropOp41
 70
     1
102
RTVSPost2010Prop42
 90
       50
102
RTVSPost2010PropOp42
 70
     1
102
RTVSPost2010Prop43
 90
        3
102
RTVSPost2010PropOp43
 70
     1
102
RTVSPost2010Prop44ColorIndex
 90
        5
102
RTVSPost2010Prop44ColorRGB
 90
      255
102
RTVSPost2010PropOp44
 70
     1
102
RTVSPost2010Prop45
280
     0
102
RTVSPost2010PropOp45
 70
     1
102
RTVSPost2010Prop46
 90
       50
102
RTVSPost2010PropOp46
 70
     1
102
RTVSPost2010Prop47
 90
       50
102
RTVSPost2010PropOp47
 70
     1
102
RTVSPost2010Prop48
 90
       50
102
RTVSPost2010PropOp48
 70
     1
102
RTVSPost2010Prop49
280
     0
102
RTVSPost2010PropOp49
 70
     1
102
RTVSPost2010Prop50
 90
       50
102
RTVSPost2010PropOp50
 70
     1
102
RTVSPost2010Prop51ColorIndex
 90
      256
102
RTVSPost2010Prop51ColorRGB
 90
-16777216
102
RTVSPost2010PropOp51
 70
     0
102
RTVSPost2010Prop52
140
1.0
102
RTVSPost2010PropOp52
 70
     0
102
RTVSPost2010Prop53
 90
        2
102
RTVSPost2010PropOp53
 70
     1
102
RTVSPost2010Prop54
  1
strokes_ogs.tif
102
RTVSPost2010PropOp54
 70
     1
102
RTVSPost2010Prop55
280
     0
102
RTVSPost2010PropOp55
 70
     1
102
RTVSPost2010Prop56
140
1.0
102
RTVSPost2010PropOp56
 70
     1
102
RTVSPost2010Prop57
140
1.0
102
RTVSPost2010PropOp57
 70
     1
  0
XRECORD
  5
6ED
102
{ACAD_REACTORS
330
6EC
102
}
330
6EC
100
AcDbXrecord
280
     1
102
RTVSPropertyOp0
 70
     1
102
RTVSPropertyOp1
 70
     1
102
RTVSPropertyOp2
 70
     1
102
RTVSPropertyOp3
 70
     1
102
RTVSPropertyOp4
 70
     1
102
RTVSPropertyOp5
 70
     1
102
RTVSPropertyOp6
 70
     1
102
RTVSPropertyOp7
 70
     1
102
RTVSPropertyOp8
 70
     1
102
RTVSPropertyOp9
 70
     1
102
RTVSPropertyOp10
 70
     1
102
RTVSPropertyOp11
 70
     1
102
RTVSPropertyOp12
 70
     1
102
RTVSPropertyOp13
 70
     1
102
RTVSPropertyOp14
 70
     1
102
RTVSPropertyOp15
 70
     1
102
RTVSPropertyOp16
 70
     1
102
RTVSPropertyOp17
 70
     1
102
RTVSPropertyOp18
 70
     1
102
RTVSPropertyOp19
 70
     1
102
RTVSPropertyOp20
 70
     1
102
RTVSPropertyOp21
 70
     1
102
RTVSPropertyOp22
 70
     1
102
RTVSPropertyOp23
 70
     1
102
RTVSPropertyOp24
 70
     1
102
RTVSPropertyOp25
 70
     1
102
RTVSPropertyOp26
 70
     1
102
RTVSPropertyOp27
 70
     1
102
RTVSPropertyOp28
 70
     1
102
RTVSPropertyOp29
 70
     1
102
RTVSPropertyOp30
 70
     1
102
RTVSPropertyOp31
 70
     1
102
RTVSPropertyOp32
 70
     1
102
RTVSPropertyOp33
 70
     1
102
RTVSPropertyOp34
 70
     1
102
RTVSPropertyOp35
 70
     1
102
RTVSPropertyOp36
 70
     1
102
RTVSPropertyOp37
 70
     1
102
RTVSPropertyOp38
 70
     1
102
RTVSPropertyOp39
 70
     1
102
RTVSPropertyOp40
 70
     1
102
RTVSPropertyOp41
 70
     1
102
RTVSPropertyOp42
 70
     1
102
RTVSPropertyOp43
 70
     1
102
RTVSPropertyOp44
 70
     1
102
RTVSPropertyOp45
 70
     1
102
RTVSPropertyOp46
 70
     1
102
RTVSPropertyOp47
 70
     1
102
RTVSPropertyOp48
 70
     1
102
RTVSPropertyOp49
 70
     1
102
RTVSPropertyOp50
 70
     1
102
RTVSPropertyOp51
 70
     0
102
RTVSPropertyOp52
 70
     0
102
RTVSPropertyOp53
 70
     1
102
RTVSPropertyOp54
 70
     1
102
RTVSPropertyOp55
 70
     1
102
RTVSPropertyOp56
 70
     1
102
RTVSPropertyOp57
 70
     1
102
RTVSPost2010Prop28
280
     0
102
RTVSPost2010PropOp28
 70
     1
102
RTVSPost2010Prop29
280
     1
102
RTVSPost2010PropOp29
 70
     1
102
RTVSPost2010Prop30
280
     1
102
RTVSPost2010PropOp30
 70
     1
102
RTVSPost2010Prop31
280
     0
102
RTVSPost2010PropOp31
 70
     1
102
RTVSPost2010Prop32
280
     0
102
RTVSPost2010PropOp32
 70
     1
102
RTVSPost2010Prop33
280
     0
102
RTVSPost2010PropOp33
 70
     1
102
RTVSPost2010Prop34
280
     0
102
RTVSPost2010PropOp34
 70
     1
102
RTVSPost2010Prop35
280
     0
102
RTVSPost2010PropOp35
 70
     1
102
RTVSPost2010Prop36
280
     0
102
RTVSPost2010PropOp36
 70
     1
102
RTVSPost2010Prop37
 90
       50
102
RTVSPost2010PropOp37
 70
     1
102
RTVSPost2010Prop38
140
0.0
102
RTVSPost2010PropOp38
 70
     1
102
RTVSPost2010Prop39
140
1.0
102
RTVSPost2010PropOp39
 70
     1
102
RTVSPost2010Prop40
 90
        0
102
RTVSPost2010PropOp40
 70
     1
102
RTVSPost2010Prop41ColorIndex
 90
       18
102
RTVSPost2010Prop41ColorRGB
 90
        0
102
RTVSPost2010PropOp41
 70
     1
102
RTVSPost2010Prop42
 90
       50
102
RTVSPost2010PropOp42
 70
     1
102
RTVSPost2010Prop43
 90
        3
102
RTVSPost2010PropOp43
 70
     1
102
RTVSPost2010Prop44ColorIndex
 90
        5
102
RTVSPost2010Prop44ColorRGB
 90
      255
102
RTVSPost2010PropOp44
 70
     1
102
RTVSPost2010Prop45
280
     0
102
RTVSPost2010PropOp45
 70
     1
102
RTVSPost2010Prop46
 90
       50
102
RTVSPost2010PropOp46
 70
     1
102
RTVSPost2010Prop47
 90
       50
102
RTVSPost2010PropOp47
 70
     1
102
RTVSPost2010Prop48
 90
       50
102
RTVSPost2010PropOp48
 70
     1
102
RTVSPost2010Prop49
280
     0
102
RTVSPost2010PropOp49
 70
     1
102
RTVSPost2010Prop50
 90
       50
102
RTVSPost2010PropOp50
 70
     1
102
RTVSPost2010Prop51ColorIndex
 90
      256
102
RTVSPost2010Prop51ColorRGB
 90
-16777216
102
RTVSPost2010PropOp51
 70
     0
102
RTVSPost2010Prop52
140
1.0
102
RTVSPost2010PropOp52
 70
     0
102
RTVSPost2010Prop53
 90
        2
102
RTVSPost2010PropOp53
 70
     1
102
RTVSPost2010Prop54
  1
strokes_ogs.tif
102
RTVSPost2010PropOp54
 70
     1
102
RTVSPost2010Prop55
280
     0
102
RTVSPost2010PropOp55
 70
     1
102
RTVSPost2010Prop56
140
1.0
102
RTVSPost2010PropOp56
 70
     1
102
RTVSPost2010Prop57
140
1.0
102
RTVSPost2010PropOp57
 70
     1
  0
XRECORD
  5
701
102
{ACAD_REACTORS
330
700
102
}
330
700
100
AcDbXrecord
280
     1
102
RTVSPropertyOp0
 70
     0
102
RTVSPropertyOp1
 70
     0
102
RTVSPropertyOp2
 70
     0
102
RTVSPropertyOp3
 70
     0
102
RTVSPropertyOp4
 70
     0
102
RTVSPropertyOp5
 70
     0
102
RTVSPropertyOp6
 70
     0
102
RTVSPropertyOp7
 70
     0
102
RTVSPropertyOp8
 70
     0
102
RTVSPropertyOp9
 70
     0
102
RTVSPropertyOp10
 70
     0
102
RTVSPropertyOp11
 70
     0
102
RTVSPropertyOp12
 70
     0
102
RTVSPropertyOp13
 70
     0
102
RTVSPropertyOp14
 70
     0
102
RTVSPropertyOp15
 70
     0
102
RTVSPropertyOp16
 70
     0
102
RTVSPropertyOp17
 70
     0
102
RTVSPropertyOp18
 70
     0
102
RTVSPropertyOp19
 70
     0
102
RTVSPropertyOp20
 70
     0
102
RTVSPropertyOp21
 70
     0
102
RTVSPropertyOp22
 70
     0
102
RTVSPropertyOp23
 70
     0
102
RTVSPropertyOp24
 70
     0
102
RTVSPropertyOp25
 70
     0
102
RTVSPropertyOp26
 70
     0
102
RTVSPropertyOp27
 70
     0
102
RTVSPropertyOp28
 70
     1
102
RTVSPropertyOp29
 70
     1
102
RTVSPropertyOp30
 70
     1
102
RTVSPropertyOp31
 70
     1
102
RTVSPropertyOp32
 70
     1
102
RTVSPropertyOp33
 70
     1
102
RTVSPropertyOp34
 70
     1
102
RTVSPropertyOp35
 70
     1
102
RTVSPropertyOp36
 70
     1
102
RTVSPropertyOp37
 70
     1
102
RTVSPropertyOp38
 70
     1
102
RTVSPropertyOp39
 70
     1
102
RTVSPropertyOp40
 70
     1
102
RTVSPropertyOp41
 70
     1
102
RTVSPropertyOp42
 70
     1
102
RTVSPropertyOp43
 70
     1
102
RTVSPropertyOp44
 70
     1
102
RTVSPropertyOp45
 70
     1
102
RTVSPropertyOp46
 70
     1
102
RTVSPropertyOp47
 70
     1
102
RTVSPropertyOp48
 70
     1
102
RTVSPropertyOp49
 70
     1
102
RTVSPropertyOp50
 70
     1
102
RTVSPropertyOp51
 70
     0
102
RTVSPropertyOp52
 70
     0
102
RTVSPropertyOp53
 70
     1
102
RTVSPropertyOp54
 70
     1
102
RTVSPropertyOp55
 70
     1
102
RTVSPropertyOp56
 70
     1
102
RTVSPropertyOp57
 70
     1
102
RTVSPost2010Prop28
280
     0
102
RTVSPost2010PropOp28
 70
     1
102
RTVSPost2010Prop29
280
     1
102
RTVSPost2010PropOp29
 70
     1
102
RTVSPost2010Prop30
280
     1
102
RTVSPost2010PropOp30
 70
     1
102
RTVSPost2010Prop31
280
     0
102
RTVSPost2010PropOp31
 70
     1
102
RTVSPost2010Prop32
280
     0
102
RTVSPost2010PropOp32
 70
     1
102
RTVSPost2010Prop33
280
     0
102
RTVSPost2010PropOp33
 70
     1
102
RTVSPost2010Prop34
280
     0
102
RTVSPost2010PropOp34
 70
     1
102
RTVSPost2010Prop35
280
     0
102
RTVSPost2010PropOp35
 70
     1
102
RTVSPost2010Prop36
280
     0
102
RTVSPost2010PropOp36
 70
     1
102
RTVSPost2010Prop37
 90
       50
102
RTVSPost2010PropOp37
 70
     1
102
RTVSPost2010Prop38
140
0.0
102
RTVSPost2010PropOp38
 70
     1
102
RTVSPost2010Prop39
140
1.0
102
RTVSPost2010PropOp39
 70
     1
102
RTVSPost2010Prop40
 90
        0
102
RTVSPost2010PropOp40
 70
     1
102
RTVSPost2010Prop41ColorIndex
 90
       18
102
RTVSPost2010Prop41ColorRGB
 90
        0
102
RTVSPost2010PropOp41
 70
     1
102
RTVSPost2010Prop42
 90
       50
102
RTVSPost2010PropOp42
 70
     1
102
RTVSPost2010Prop43
 90
        3
102
RTVSPost2010PropOp43
 70
     1
102
RTVSPost2010Prop44ColorIndex
 90
        5
102
RTVSPost2010Prop44ColorRGB
 90
      255
102
RTVSPost2010PropOp44
 70
     1
102
RTVSPost2010Prop45
280
     0
102
RTVSPost2010PropOp45
 70
     1
102
RTVSPost2010Prop46
 90
       50
102
RTVSPost2010PropOp46
 70
     1
102
RTVSPost2010Prop47
 90
       50
102
RTVSPost2010PropOp47
 70
     1
102
RTVSPost2010Prop48
 90
       50
102
RTVSPost2010PropOp48
 70
     1
102
RTVSPost2010Prop49
280
     0
102
RTVSPost2010PropOp49
 70
     1
102
RTVSPost2010Prop50
 90
       50
102
RTVSPost2010PropOp50
 70
     1
102
RTVSPost2010Prop51ColorIndex
 90
      256
102
RTVSPost2010Prop51ColorRGB
 90
-16777216
102
RTVSPost2010PropOp51
 70
     0
102
RTVSPost2010Prop52
140
1.0
102
RTVSPost2010PropOp52
 70
     0
102
RTVSPost2010Prop53
 90
        2
102
RTVSPost2010PropOp53
 70
     1
102
RTVSPost2010Prop54
  1
strokes_ogs.tif
102
RTVSPost2010PropOp54
 70
     1
102
RTVSPost2010Prop55
280
     0
102
RTVSPost2010PropOp55
 70
     1
102
RTVSPost2010Prop56
140
1.0
102
RTVSPost2010PropOp56
 70
     1
102
RTVSPost2010Prop57
140
1.0
102
RTVSPost2010PropOp57
 70
     1
  0
XRECORD
  5
6FB
102
{ACAD_REACTORS
330
6FA
102
}
330
6FA
100
AcDbXrecord
280
     1
102
RTVSPropertyOp0
 70
     1
102
RTVSPropertyOp1
 70
     1
102
RTVSPropertyOp2
 70
     1
102
RTVSPropertyOp3
 70
     1
102
RTVSPropertyOp4
 70
     1
102
RTVSPropertyOp5
 70
     1
102
RTVSPropertyOp6
 70
     1
102
RTVSPropertyOp7
 70
     1
102
RTVSPropertyOp8
 70
     1
102
RTVSPropertyOp9
 70
     1
102
RTVSPropertyOp10
 70
     1
102
RTVSPropertyOp11
 70
     1
102
RTVSPropertyOp12
 70
     1
102
RTVSPropertyOp13
 70
     1
102
RTVSPropertyOp14
 70
     1
102
RTVSPropertyOp15
 70
     1
102
RTVSPropertyOp16
 70
     1
102
RTVSPropertyOp17
 70
     1
102
RTVSPropertyOp18
 70
     1
102
RTVSPropertyOp19
 70
     1
102
RTVSPropertyOp20
 70
     1
102
RTVSPropertyOp21
 70
     1
102
RTVSPropertyOp22
 70
     1
102
RTVSPropertyOp23
 70
     1
102
RTVSPropertyOp24
 70
     1
102
RTVSPropertyOp25
 70
     1
102
RTVSPropertyOp26
 70
     1
102
RTVSPropertyOp27
 70
     1
102
RTVSPropertyOp28
 70
     1
102
RTVSPropertyOp29
 70
     1
102
RTVSPropertyOp30
 70
     1
102
RTVSPropertyOp31
 70
     1
102
RTVSPropertyOp32
 70
     1
102
RTVSPropertyOp33
 70
     1
102
RTVSPropertyOp34
 70
     1
102
RTVSPropertyOp35
 70
     1
102
RTVSPropertyOp36
 70
     1
102
RTVSPropertyOp37
 70
     1
102
RTVSPropertyOp38
 70
     1
102
RTVSPropertyOp39
 70
     1
102
RTVSPropertyOp40
 70
     1
102
RTVSPropertyOp41
 70
     1
102
RTVSPropertyOp42
 70
     1
102
RTVSPropertyOp43
 70
     1
102
RTVSPropertyOp44
 70
     1
102
RTVSPropertyOp45
 70
     1
102
RTVSPropertyOp46
 70
     1
102
RTVSPropertyOp47
 70
     1
102
RTVSPropertyOp48
 70
     1
102
RTVSPropertyOp49
 70
     1
102
RTVSPropertyOp50
 70
     1
102
RTVSPropertyOp51
 70
     0
102
RTVSPropertyOp52
 70
     0
102
RTVSPropertyOp53
 70
     1
102
RTVSPropertyOp54
 70
     1
102
RTVSPropertyOp55
 70
     1
102
RTVSPropertyOp56
 70
     1
102
RTVSPropertyOp57
 70
     1
102
RTVSPost2010Prop28
280
     0
102
RTVSPost2010PropOp28
 70
     1
102
RTVSPost2010Prop29
280
     1
102
RTVSPost2010PropOp29
 70
     1
102
RTVSPost2010Prop30
280
     1
102
RTVSPost2010PropOp30
 70
     1
102
RTVSPost2010Prop31
280
     0
102
RTVSPost2010PropOp31
 70
     1
102
RTVSPost2010Prop32
280
     0
102
RTVSPost2010PropOp32
 70
     1
102
RTVSPost2010Prop33
280
     0
102
RTVSPost2010PropOp33
 70
     1
102
RTVSPost2010Prop34
280
     0
102
RTVSPost2010PropOp34
 70
     1
102
RTVSPost2010Prop35
280
     0
102
RTVSPost2010PropOp35
 70
     1
102
RTVSPost2010Prop36
280
     0
102
RTVSPost2010PropOp36
 70
     1
102
RTVSPost2010Prop37
 90
       50
102
RTVSPost2010PropOp37
 70
     1
102
RTVSPost2010Prop38
140
0.0
102
RTVSPost2010PropOp38
 70
     1
102
RTVSPost2010Prop39
140
1.0
102
RTVSPost2010PropOp39
 70
     1
102
RTVSPost2010Prop40
 90
        0
102
RTVSPost2010PropOp40
 70
     1
102
RTVSPost2010Prop41ColorIndex
 90
       18
102
RTVSPost2010Prop41ColorRGB
 90
        0
102
RTVSPost2010PropOp41
 70
     1
102
RTVSPost2010Prop42
 90
       50
102
RTVSPost2010PropOp42
 70
     1
102
RTVSPost2010Prop43
 90
        3
102
RTVSPost2010PropOp43
 70
     1
102
RTVSPost2010Prop44ColorIndex
 90
        5
102
RTVSPost2010Prop44ColorRGB
 90
      255
102
RTVSPost2010PropOp44
 70
     1
102
RTVSPost2010Prop45
280
     0
102
RTVSPost2010PropOp45
 70
     1
102
RTVSPost2010Prop46
 90
       50
102
RTVSPost2010PropOp46
 70
     1
102
RTVSPost2010Prop47
 90
       50
102
RTVSPost2010PropOp47
 70
     1
102
RTVSPost2010Prop48
 90
       50
102
RTVSPost2010PropOp48
 70
     1
102
RTVSPost2010Prop49
280
     0
102
RTVSPost2010PropOp49
 70
     1
102
RTVSPost2010Prop50
 90
       50
102
RTVSPost2010PropOp50
 70
     1
102
RTVSPost2010Prop51ColorIndex
 90
      256
102
RTVSPost2010Prop51ColorRGB
 90
-16777216
102
RTVSPost2010PropOp51
 70
     0
102
RTVSPost2010Prop52
140
1.0
102
RTVSPost2010PropOp52
 70
     0
102
RTVSPost2010Prop53
 90
        2
102
RTVSPost2010PropOp53
 70
     1
102
RTVSPost2010Prop54
  1
strokes_ogs.tif
102
RTVSPost2010PropOp54
 70
     1
102
RTVSPost2010Prop55
280
     0
102
RTVSPost2010PropOp55
 70
     1
102
RTVSPost2010Prop56
140
1.0
102
RTVSPost2010PropOp56
 70
     1
102
RTVSPost2010Prop57
140
1.0
102
RTVSPost2010PropOp57
 70
     1
  0
XRECORD
  5
703
102
{ACAD_REACTORS
330
702
102
}
330
702
100
AcDbXrecord
280
     1
102
RTVSPropertyOp0
 70
     0
102
RTVSPropertyOp1
 70
     0
102
RTVSPropertyOp2
 70
     0
102
RTVSPropertyOp3
 70
     0
102
RTVSPropertyOp4
 70
     0
102
RTVSPropertyOp5
 70
     0
102
RTVSPropertyOp6
 70
     0
102
RTVSPropertyOp7
 70
     0
102
RTVSPropertyOp8
 70
     0
102
RTVSPropertyOp9
 70
     0
102
RTVSPropertyOp10
 70
     0
102
RTVSPropertyOp11
 70
     0
102
RTVSPropertyOp12
 70
     0
102
RTVSPropertyOp13
 70
     0
102
RTVSPropertyOp14
 70
     0
102
RTVSPropertyOp15
 70
     0
102
RTVSPropertyOp16
 70
     0
102
RTVSPropertyOp17
 70
     0
102
RTVSPropertyOp18
 70
     0
102
RTVSPropertyOp19
 70
     0
102
RTVSPropertyOp20
 70
     0
102
RTVSPropertyOp21
 70
     0
102
RTVSPropertyOp22
 70
     0
102
RTVSPropertyOp23
 70
     0
102
RTVSPropertyOp24
 70
     0
102
RTVSPropertyOp25
 70
     0
102
RTVSPropertyOp26
 70
     0
102
RTVSPropertyOp27
 70
     0
102
RTVSPropertyOp28
 70
     1
102
RTVSPropertyOp29
 70
     1
102
RTVSPropertyOp30
 70
     1
102
RTVSPropertyOp31
 70
     1
102
RTVSPropertyOp32
 70
     1
102
RTVSPropertyOp33
 70
     1
102
RTVSPropertyOp34
 70
     1
102
RTVSPropertyOp35
 70
     1
102
RTVSPropertyOp36
 70
     1
102
RTVSPropertyOp37
 70
     1
102
RTVSPropertyOp38
 70
     1
102
RTVSPropertyOp39
 70
     1
102
RTVSPropertyOp40
 70
     1
102
RTVSPropertyOp41
 70
     1
102
RTVSPropertyOp42
 70
     1
102
RTVSPropertyOp43
 70
     1
102
RTVSPropertyOp44
 70
     1
102
RTVSPropertyOp45
 70
     1
102
RTVSPropertyOp46
 70
     1
102
RTVSPropertyOp47
 70
     1
102
RTVSPropertyOp48
 70
     1
102
RTVSPropertyOp49
 70
     1
102
RTVSPropertyOp50
 70
     1
102
RTVSPropertyOp51
 70
     0
102
RTVSPropertyOp52
 70
     0
102
RTVSPropertyOp53
 70
     1
102
RTVSPropertyOp54
 70
     1
102
RTVSPropertyOp55
 70
     1
102
RTVSPropertyOp56
 70
     1
102
RTVSPropertyOp57
 70
     1
102
RTVSPost2010Prop28
280
     0
102
RTVSPost2010PropOp28
 70
     1
102
RTVSPost2010Prop29
280
     1
102
RTVSPost2010PropOp29
 70
     1
102
RTVSPost2010Prop30
280
     1
102
RTVSPost2010PropOp30
 70
     1
102
RTVSPost2010Prop31
280
     0
102
RTVSPost2010PropOp31
 70
     1
102
RTVSPost2010Prop32
280
     0
102
RTVSPost2010PropOp32
 70
     1
102
RTVSPost2010Prop33
280
     0
102
RTVSPost2010PropOp33
 70
     1
102
RTVSPost2010Prop34
280
     0
102
RTVSPost2010PropOp34
 70
     1
102
RTVSPost2010Prop35
280
     0
102
RTVSPost2010PropOp35
 70
     1
102
RTVSPost2010Prop36
280
     0
102
RTVSPost2010PropOp36
 70
     1
102
RTVSPost2010Prop37
 90
       50
102
RTVSPost2010PropOp37
 70
     1
102
RTVSPost2010Prop38
140
0.0
102
RTVSPost2010PropOp38
 70
     1
102
RTVSPost2010Prop39
140
1.0
102
RTVSPost2010PropOp39
 70
     1
102
RTVSPost2010Prop40
 90
        0
102
RTVSPost2010PropOp40
 70
     1
102
RTVSPost2010Prop41ColorIndex
 90
       18
102
RTVSPost2010Prop41ColorRGB
 90
        0
102
RTVSPost2010PropOp41
 70
     1
102
RTVSPost2010Prop42
 90
       50
102
RTVSPost2010PropOp42
 70
     1
102
RTVSPost2010Prop43
 90
        3
102
RTVSPost2010PropOp43
 70
     1
102
RTVSPost2010Prop44ColorIndex
 90
        5
102
RTVSPost2010Prop44ColorRGB
 90
      255
102
RTVSPost2010PropOp44
 70
     1
102
RTVSPost2010Prop45
280
     0
102
RTVSPost2010PropOp45
 70
     1
102
RTVSPost2010Prop46
 90
       50
102
RTVSPost2010PropOp46
 70
     1
102
RTVSPost2010Prop47
 90
       50
102
RTVSPost2010PropOp47
 70
     1
102
RTVSPost2010Prop48
 90
       50
102
RTVSPost2010PropOp48
 70
     1
102
RTVSPost2010Prop49
280
     0
102
RTVSPost2010PropOp49
 70
     1
102
RTVSPost2010Prop50
 90
       50
102
RTVSPost2010PropOp50
 70
     1
102
RTVSPost2010Prop51ColorIndex
 90
      256
102
RTVSPost2010Prop51ColorRGB
 90
-16777216
102
RTVSPost2010PropOp51
 70
     0
102
RTVSPost2010Prop52
140
1.0
102
RTVSPost2010PropOp52
 70
     0
102
RTVSPost2010Prop53
 90
        2
102
RTVSPost2010PropOp53
 70
     1
102
RTVSPost2010Prop54
  1
strokes_ogs.tif
102
RTVSPost2010PropOp54
 70
     1
102
RTVSPost2010Prop55
280
     0
102
RTVSPost2010PropOp55
 70
     1
102
RTVSPost2010Prop56
140
1.0
102
RTVSPost2010PropOp56
 70
     1
102
RTVSPost2010Prop57
140
1.0
102
RTVSPost2010PropOp57
 70
     1
  0
XRECORD
  5
6F1
102
{ACAD_REACTORS
330
6F0
102
}
330
6F0
100
AcDbXrecord
280
     1
102
RTVSPropertyOp0
 70
     1
102
RTVSPropertyOp1
 70
     1
102
RTVSPropertyOp2
 70
     1
102
RTVSPropertyOp3
 70
     1
102
RTVSPropertyOp4
 70
     1
102
RTVSPropertyOp5
 70
     1
102
RTVSPropertyOp6
 70
     1
102
RTVSPropertyOp7
 70
     1
102
RTVSPropertyOp8
 70
     1
102
RTVSPropertyOp9
 70
     1
102
RTVSPropertyOp10
 70
     1
102
RTVSPropertyOp11
 70
     1
102
RTVSPropertyOp12
 70
     1
102
RTVSPropertyOp13
 70
     1
102
RTVSPropertyOp14
 70
     1
102
RTVSPropertyOp15
 70
     1
102
RTVSPropertyOp16
 70
     1
102
RTVSPropertyOp17
 70
     1
102
RTVSPropertyOp18
 70
     1
102
RTVSPropertyOp19
 70
     1
102
RTVSPropertyOp20
 70
     1
102
RTVSPropertyOp21
 70
     1
102
RTVSPropertyOp22
 70
     1
102
RTVSPropertyOp23
 70
     1
102
RTVSPropertyOp24
 70
     1
102
RTVSPropertyOp25
 70
     1
102
RTVSPropertyOp26
 70
     1
102
RTVSPropertyOp27
 70
     1
102
RTVSPropertyOp28
 70
     1
102
RTVSPropertyOp29
 70
     1
102
RTVSPropertyOp30
 70
     1
102
RTVSPropertyOp31
 70
     1
102
RTVSPropertyOp32
 70
     1
102
RTVSPropertyOp33
 70
     1
102
RTVSPropertyOp34
 70
     1
102
RTVSPropertyOp35
 70
     1
102
RTVSPropertyOp36
 70
     1
102
RTVSPropertyOp37
 70
     1
102
RTVSPropertyOp38
 70
     1
102
RTVSPropertyOp39
 70
     1
102
RTVSPropertyOp40
 70
     1
102
RTVSPropertyOp41
 70
     1
102
RTVSPropertyOp42
 70
     1
102
RTVSPropertyOp43
 70
     1
102
RTVSPropertyOp44
 70
     1
102
RTVSPropertyOp45
 70
     1
102
RTVSPropertyOp46
 70
     1
102
RTVSPropertyOp47
 70
     1
102
RTVSPropertyOp48
 70
     1
102
RTVSPropertyOp49
 70
     1
102
RTVSPropertyOp50
 70
     1
102
RTVSPropertyOp51
 70
     0
102
RTVSPropertyOp52
 70
     0
102
RTVSPropertyOp53
 70
     1
102
RTVSPropertyOp54
 70
     1
102
RTVSPropertyOp55
 70
     1
102
RTVSPropertyOp56
 70
     1
102
RTVSPropertyOp57
 70
     1
102
RTVSPost2010Prop28
280
     0
102
RTVSPost2010PropOp28
 70
     1
102
RTVSPost2010Prop29
280
     1
102
RTVSPost2010PropOp29
 70
     1
102
RTVSPost2010Prop30
280
     1
102
RTVSPost2010PropOp30
 70
     1
102
RTVSPost2010Prop31
280
     0
102
RTVSPost2010PropOp31
 70
     1
102
RTVSPost2010Prop32
280
     0
102
RTVSPost2010PropOp32
 70
     1
102
RTVSPost2010Prop33
280
     0
102
RTVSPost2010PropOp33
 70
     1
102
RTVSPost2010Prop34
280
     0
102
RTVSPost2010PropOp34
 70
     1
102
RTVSPost2010Prop35
280
     0
102
RTVSPost2010PropOp35
 70
     1
102
RTVSPost2010Prop36
280
     0
102
RTVSPost2010PropOp36
 70
     1
102
RTVSPost2010Prop37
 90
       50
102
RTVSPost2010PropOp37
 70
     1
102
RTVSPost2010Prop38
140
0.0
102
RTVSPost2010PropOp38
 70
     1
102
RTVSPost2010Prop39
140
1.0
102
RTVSPost2010PropOp39
 70
     1
102
RTVSPost2010Prop40
 90
        0
102
RTVSPost2010PropOp40
 70
     1
102
RTVSPost2010Prop41ColorIndex
 90
       18
102
RTVSPost2010Prop41ColorRGB
 90
        0
102
RTVSPost2010PropOp41
 70
     1
102
RTVSPost2010Prop42
 90
       50
102
RTVSPost2010PropOp42
 70
     1
102
RTVSPost2010Prop43
 90
        3
102
RTVSPost2010PropOp43
 70
     1
102
RTVSPost2010Prop44ColorIndex
 90
        5
102
RTVSPost2010Prop44ColorRGB
 90
      255
102
RTVSPost2010PropOp44
 70
     1
102
RTVSPost2010Prop45
280
     0
102
RTVSPost2010PropOp45
 70
     1
102
RTVSPost2010Prop46
 90
       50
102
RTVSPost2010PropOp46
 70
     1
102
RTVSPost2010Prop47
 90
       50
102
RTVSPost2010PropOp47
 70
     1
102
RTVSPost2010Prop48
 90
       50
102
RTVSPost2010PropOp48
 70
     1
102
RTVSPost2010Prop49
280
     0
102
RTVSPost2010PropOp49
 70
     1
102
RTVSPost2010Prop50
 90
       50
102
RTVSPost2010PropOp50
 70
     1
102
RTVSPost2010Prop51ColorIndex
 90
      256
102
RTVSPost2010Prop51ColorRGB
 90
-16777216
102
RTVSPost2010PropOp51
 70
     0
102
RTVSPost2010Prop52
140
1.0
102
RTVSPost2010PropOp52
 70
     0
102
RTVSPost2010Prop53
 90
        2
102
RTVSPost2010PropOp53
 70
     1
102
RTVSPost2010Prop54
  1
strokes_ogs.tif
102
RTVSPost2010PropOp54
 70
     1
102
RTVSPost2010Prop55
280
     0
102
RTVSPost2010PropOp55
 70
     1
102
RTVSPost2010Prop56
140
1.0
102
RTVSPost2010PropOp56
 70
     1
102
RTVSPost2010Prop57
140
1.0
102
RTVSPost2010PropOp57
 70
     1
  0
XRECORD
  5
70F
102
{ACAD_REACTORS
330
70E
102
}
330
70E
100
AcDbXrecord
280
     1
102
RTVSPropertyOp0
 70
     1
102
RTVSPropertyOp1
 70
     1
102
RTVSPropertyOp2
 70
     1
102
RTVSPropertyOp3
 70
     1
102
RTVSPropertyOp4
 70
     1
102
RTVSPropertyOp5
 70
     1
102
RTVSPropertyOp6
 70
     1
102
RTVSPropertyOp7
 70
     1
102
RTVSPropertyOp8
 70
     1
102
RTVSPropertyOp9
 70
     1
102
RTVSPropertyOp10
 70
     1
102
RTVSPropertyOp11
 70
     1
102
RTVSPropertyOp12
 70
     1
102
RTVSPropertyOp13
 70
     1
102
RTVSPropertyOp14
 70
     1
102
RTVSPropertyOp15
 70
     1
102
RTVSPropertyOp16
 70
     1
102
RTVSPropertyOp17
 70
     1
102
RTVSPropertyOp18
 70
     1
102
RTVSPropertyOp19
 70
     1
102
RTVSPropertyOp20
 70
     1
102
RTVSPropertyOp21
 70
     1
102
RTVSPropertyOp22
 70
     1
102
RTVSPropertyOp23
 70
     1
102
RTVSPropertyOp24
 70
     1
102
RTVSPropertyOp25
 70
     1
102
RTVSPropertyOp26
 70
     1
102
RTVSPropertyOp27
 70
     1
102
RTVSPropertyOp28
 70
     1
102
RTVSPropertyOp29
 70
     1
102
RTVSPropertyOp30
 70
     1
102
RTVSPropertyOp31
 70
     1
102
RTVSPropertyOp32
 70
     1
102
RTVSPropertyOp33
 70
     1
102
RTVSPropertyOp34
 70
     1
102
RTVSPropertyOp35
 70
     1
102
RTVSPropertyOp36
 70
     1
102
RTVSPropertyOp37
 70
     1
102
RTVSPropertyOp38
 70
     1
102
RTVSPropertyOp39
 70
     1
102
RTVSPropertyOp40
 70
     1
102
RTVSPropertyOp41
 70
     1
102
RTVSPropertyOp42
 70
     1
102
RTVSPropertyOp43
 70
     1
102
RTVSPropertyOp44
 70
     1
102
RTVSPropertyOp45
 70
     1
102
RTVSPropertyOp46
 70
     1
102
RTVSPropertyOp47
 70
     1
102
RTVSPropertyOp48
 70
     1
102
RTVSPropertyOp49
 70
     1
102
RTVSPropertyOp50
 70
     1
102
RTVSPropertyOp51
 70
     0
102
RTVSPropertyOp52
 70
     0
102
RTVSPropertyOp53
 70
     1
102
RTVSPropertyOp54
 70
     1
102
RTVSPropertyOp55
 70
     1
102
RTVSPropertyOp56
 70
     1
102
RTVSPropertyOp57
 70
     1
102
RTVSPost2010Prop28
280
     0
102
RTVSPost2010PropOp28
 70
     1
102
RTVSPost2010Prop29
280
     1
102
RTVSPost2010PropOp29
 70
     1
102
RTVSPost2010Prop30
280
     1
102
RTVSPost2010PropOp30
 70
     1
102
RTVSPost2010Prop31
280
     0
102
RTVSPost2010PropOp31
 70
     1
102
RTVSPost2010Prop32
280
     0
102
RTVSPost2010PropOp32
 70
     1
102
RTVSPost2010Prop33
280
     0
102
RTVSPost2010PropOp33
 70
     1
102
RTVSPost2010Prop34
280
     0
102
RTVSPost2010PropOp34
 70
     1
102
RTVSPost2010Prop35
280
     0
102
RTVSPost2010PropOp35
 70
     1
102
RTVSPost2010Prop36
280
     0
102
RTVSPost2010PropOp36
 70
     1
102
RTVSPost2010Prop37
 90
       50
102
RTVSPost2010PropOp37
 70
     1
102
RTVSPost2010Prop38
140
0.0
102
RTVSPost2010PropOp38
 70
     1
102
RTVSPost2010Prop39
140
1.0
102
RTVSPost2010PropOp39
 70
     1
102
RTVSPost2010Prop40
 90
        0
102
RTVSPost2010PropOp40
 70
     1
102
RTVSPost2010Prop41ColorIndex
 90
       18
102
RTVSPost2010Prop41ColorRGB
 90
        0
102
RTVSPost2010PropOp41
 70
     1
102
RTVSPost2010Prop42
 90
       50
102
RTVSPost2010PropOp42
 70
     1
102
RTVSPost2010Prop43
 90
        3
102
RTVSPost2010PropOp43
 70
     1
102
RTVSPost2010Prop44ColorIndex
 90
        5
102
RTVSPost2010Prop44ColorRGB
 90
      255
102
RTVSPost2010PropOp44
 70
     1
102
RTVSPost2010Prop45
280
     0
102
RTVSPost2010PropOp45
 70
     1
102
RTVSPost2010Prop46
 90
       50
102
RTVSPost2010PropOp46
 70
     1
102
RTVSPost2010Prop47
 90
       50
102
RTVSPost2010PropOp47
 70
     1
102
RTVSPost2010Prop48
 90
       50
102
RTVSPost2010PropOp48
 70
     1
102
RTVSPost2010Prop49
280
     0
102
RTVSPost2010PropOp49
 70
     1
102
RTVSPost2010Prop50
 90
       50
102
RTVSPost2010PropOp50
 70
     1
102
RTVSPost2010Prop51ColorIndex
 90
      256
102
RTVSPost2010Prop51ColorRGB
 90
-16777216
102
RTVSPost2010PropOp51
 70
     0
102
RTVSPost2010Prop52
140
1.0
102
RTVSPost2010PropOp52
 70
     0
102
RTVSPost2010Prop53
 90
        2
102
RTVSPost2010PropOp53
 70
     1
102
RTVSPost2010Prop54
  1
strokes_ogs.tif
102
RTVSPost2010PropOp54
 70
     1
102
RTVSPost2010Prop55
280
     0
102
RTVSPost2010PropOp55
 70
     1
102
RTVSPost2010Prop56
140
1.0
102
RTVSPost2010PropOp56
 70
     1
102
RTVSPost2010Prop57
140
1.0
102
RTVSPost2010PropOp57
 70
     1
  0
XRECORD
  5
70D
102
{ACAD_REACTORS
330
70C
102
}
330
70C
100
AcDbXrecord
280
     1
102
RTVSPropertyOp0
 70
     1
102
RTVSPropertyOp1
 70
     1
102
RTVSPropertyOp2
 70
     1
102
RTVSPropertyOp3
 70
     1
102
RTVSPropertyOp4
 70
     1
102
RTVSPropertyOp5
 70
     1
102
RTVSPropertyOp6
 70
     1
102
RTVSPropertyOp7
 70
     1
102
RTVSPropertyOp8
 70
     1
102
RTVSPropertyOp9
 70
     1
102
RTVSPropertyOp10
 70
     1
102
RTVSPropertyOp11
 70
     1
102
RTVSPropertyOp12
 70
     1
102
RTVSPropertyOp13
 70
     1
102
RTVSPropertyOp14
 70
     1
102
RTVSPropertyOp15
 70
     1
102
RTVSPropertyOp16
 70
     1
102
RTVSPropertyOp17
 70
     1
102
RTVSPropertyOp18
 70
     1
102
RTVSPropertyOp19
 70
     1
102
RTVSPropertyOp20
 70
     1
102
RTVSPropertyOp21
 70
     1
102
RTVSPropertyOp22
 70
     1
102
RTVSPropertyOp23
 70
     1
102
RTVSPropertyOp24
 70
     1
102
RTVSPropertyOp25
 70
     1
102
RTVSPropertyOp26
 70
     1
102
RTVSPropertyOp27
 70
     1
102
RTVSPropertyOp28
 70
     1
102
RTVSPropertyOp29
 70
     1
102
RTVSPropertyOp30
 70
     1
102
RTVSPropertyOp31
 70
     1
102
RTVSPropertyOp32
 70
     1
102
RTVSPropertyOp33
 70
     1
102
RTVSPropertyOp34
 70
     1
102
RTVSPropertyOp35
 70
     1
102
RTVSPropertyOp36
 70
     1
102
RTVSPropertyOp37
 70
     1
102
RTVSPropertyOp38
 70
     1
102
RTVSPropertyOp39
 70
     1
102
RTVSPropertyOp40
 70
     1
102
RTVSPropertyOp41
 70
     1
102
RTVSPropertyOp42
 70
     1
102
RTVSPropertyOp43
 70
     1
102
RTVSPropertyOp44
 70
     1
102
RTVSPropertyOp45
 70
     1
102
RTVSPropertyOp46
 70
     1
102
RTVSPropertyOp47
 70
     1
102
RTVSPropertyOp48
 70
     1
102
RTVSPropertyOp49
 70
     1
102
RTVSPropertyOp50
 70
     1
102
RTVSPropertyOp51
 70
     0
102
RTVSPropertyOp52
 70
     0
102
RTVSPropertyOp53
 70
     1
102
RTVSPropertyOp54
 70
     1
102
RTVSPropertyOp55
 70
     1
102
RTVSPropertyOp56
 70
     1
102
RTVSPropertyOp57
 70
     1
102
RTVSPost2010Prop28
280
     0
102
RTVSPost2010PropOp28
 70
     1
102
RTVSPost2010Prop29
280
     1
102
RTVSPost2010PropOp29
 70
     1
102
RTVSPost2010Prop30
280
     1
102
RTVSPost2010PropOp30
 70
     1
102
RTVSPost2010Prop31
280
     0
102
RTVSPost2010PropOp31
 70
     1
102
RTVSPost2010Prop32
280
     0
102
RTVSPost2010PropOp32
 70
     1
102
RTVSPost2010Prop33
280
     0
102
RTVSPost2010PropOp33
 70
     1
102
RTVSPost2010Prop34
280
     0
102
RTVSPost2010PropOp34
 70
     1
102
RTVSPost2010Prop35
280
     0
102
RTVSPost2010PropOp35
 70
     1
102
RTVSPost2010Prop36
280
     0
102
RTVSPost2010PropOp36
 70
     1
102
RTVSPost2010Prop37
 90
       50
102
RTVSPost2010PropOp37
 70
     1
102
RTVSPost2010Prop38
140
0.0
102
RTVSPost2010PropOp38
 70
     1
102
RTVSPost2010Prop39
140
1.0
102
RTVSPost2010PropOp39
 70
     1
102
RTVSPost2010Prop40
 90
        0
102
RTVSPost2010PropOp40
 70
     1
102
RTVSPost2010Prop41ColorIndex
 90
       18
102
RTVSPost2010Prop41ColorRGB
 90
        0
102
RTVSPost2010PropOp41
 70
     1
102
RTVSPost2010Prop42
 90
       50
102
RTVSPost2010PropOp42
 70
     1
102
RTVSPost2010Prop43
 90
        3
102
RTVSPost2010PropOp43
 70
     1
102
RTVSPost2010Prop44ColorIndex
 90
        5
102
RTVSPost2010Prop44ColorRGB
 90
      255
102
RTVSPost2010PropOp44
 70
     1
102
RTVSPost2010Prop45
280
     0
102
RTVSPost2010PropOp45
 70
     1
102
RTVSPost2010Prop46
 90
       50
102
RTVSPost2010PropOp46
 70
     1
102
RTVSPost2010Prop47
 90
       50
102
RTVSPost2010PropOp47
 70
     1
102
RTVSPost2010Prop48
 90
       50
102
RTVSPost2010PropOp48
 70
     1
102
RTVSPost2010Prop49
280
     0
102
RTVSPost2010PropOp49
 70
     1
102
RTVSPost2010Prop50
 90
       50
102
RTVSPost2010PropOp50
 70
     1
102
RTVSPost2010Prop51ColorIndex
 90
      256
102
RTVSPost2010Prop51ColorRGB
 90
-16777216
102
RTVSPost2010PropOp51
 70
     0
102
RTVSPost2010Prop52
140
1.0
102
RTVSPost2010PropOp52
 70
     0
102
RTVSPost2010Prop53
 90
        2
102
RTVSPost2010PropOp53
 70
     1
102
RTVSPost2010Prop54
  1
strokes_ogs.tif
102
RTVSPost2010PropOp54
 70
     1
102
RTVSPost2010Prop55
280
     0
102
RTVSPost2010PropOp55
 70
     1
102
RTVSPost2010Prop56
140
1.0
102
RTVSPost2010PropOp56
 70
     1
102
RTVSPost2010Prop57
140
1.0
102
RTVSPost2010PropOp57
 70
     1
  0
XRECORD
  5
707
102
{ACAD_REACTORS
330
706
102
}
330
706
100
AcDbXrecord
280
     1
102
RTVSPropertyOp0
 70
     1
102
RTVSPropertyOp1
 70
     1
102
RTVSPropertyOp2
 70
     1
102
RTVSPropertyOp3
 70
     1
102
RTVSPropertyOp4
 70
     1
102
RTVSPropertyOp5
 70
     1
102
RTVSPropertyOp6
 70
     1
102
RTVSPropertyOp7
 70
     1
102
RTVSPropertyOp8
 70
     1
102
RTVSPropertyOp9
 70
     1
102
RTVSPropertyOp10
 70
     1
102
RTVSPropertyOp11
 70
     1
102
RTVSPropertyOp12
 70
     1
102
RTVSPropertyOp13
 70
     1
102
RTVSPropertyOp14
 70
     1
102
RTVSPropertyOp15
 70
     1
102
RTVSPropertyOp16
 70
     1
102
RTVSPropertyOp17
 70
     1
102
RTVSPropertyOp18
 70
     1
102
RTVSPropertyOp19
 70
     1
102
RTVSPropertyOp20
 70
     1
102
RTVSPropertyOp21
 70
     1
102
RTVSPropertyOp22
 70
     1
102
RTVSPropertyOp23
 70
     1
102
RTVSPropertyOp24
 70
     1
102
RTVSPropertyOp25
 70
     1
102
RTVSPropertyOp26
 70
     1
102
RTVSPropertyOp27
 70
     1
102
RTVSPropertyOp28
 70
     1
102
RTVSPropertyOp29
 70
     1
102
RTVSPropertyOp30
 70
     1
102
RTVSPropertyOp31
 70
     1
102
RTVSPropertyOp32
 70
     1
102
RTVSPropertyOp33
 70
     1
102
RTVSPropertyOp34
 70
     1
102
RTVSPropertyOp35
 70
     1
102
RTVSPropertyOp36
 70
     1
102
RTVSPropertyOp37
 70
     1
102
RTVSPropertyOp38
 70
     1
102
RTVSPropertyOp39
 70
     1
102
RTVSPropertyOp40
 70
     1
102
RTVSPropertyOp41
 70
     1
102
RTVSPropertyOp42
 70
     1
102
RTVSPropertyOp43
 70
     1
102
RTVSPropertyOp44
 70
     1
102
RTVSPropertyOp45
 70
     1
102
RTVSPropertyOp46
 70
     1
102
RTVSPropertyOp47
 70
     1
102
RTVSPropertyOp48
 70
     1
102
RTVSPropertyOp49
 70
     1
102
RTVSPropertyOp50
 70
     1
102
RTVSPropertyOp51
 70
     0
102
RTVSPropertyOp52
 70
     0
102
RTVSPropertyOp53
 70
     1
102
RTVSPropertyOp54
 70
     1
102
RTVSPropertyOp55
 70
     1
102
RTVSPropertyOp56
 70
     1
102
RTVSPropertyOp57
 70
     1
102
RTVSPost2010Prop28
280
     0
102
RTVSPost2010PropOp28
 70
     1
102
RTVSPost2010Prop29
280
     1
102
RTVSPost2010PropOp29
 70
     1
102
RTVSPost2010Prop30
280
     1
102
RTVSPost2010PropOp30
 70
     1
102
RTVSPost2010Prop31
280
     0
102
RTVSPost2010PropOp31
 70
     1
102
RTVSPost2010Prop32
280
     0
102
RTVSPost2010PropOp32
 70
     1
102
RTVSPost2010Prop33
280
     0
102
RTVSPost2010PropOp33
 70
     1
102
RTVSPost2010Prop34
280
     0
102
RTVSPost2010PropOp34
 70
     1
102
RTVSPost2010Prop35
280
     0
102
RTVSPost2010PropOp35
 70
     1
102
RTVSPost2010Prop36
280
     0
102
RTVSPost2010PropOp36
 70
     1
102
RTVSPost2010Prop37
 90
       50
102
RTVSPost2010PropOp37
 70
     1
102
RTVSPost2010Prop38
140
0.0
102
RTVSPost2010PropOp38
 70
     1
102
RTVSPost2010Prop39
140
1.0
102
RTVSPost2010PropOp39
 70
     1
102
RTVSPost2010Prop40
 90
        0
102
RTVSPost2010PropOp40
 70
     1
102
RTVSPost2010Prop41ColorIndex
 90
       18
102
RTVSPost2010Prop41ColorRGB
 90
        0
102
RTVSPost2010PropOp41
 70
     1
102
RTVSPost2010Prop42
 90
       50
102
RTVSPost2010PropOp42
 70
     1
102
RTVSPost2010Prop43
 90
        3
102
RTVSPost2010PropOp43
 70
     1
102
RTVSPost2010Prop44ColorIndex
 90
        5
102
RTVSPost2010Prop44ColorRGB
 90
      255
102
RTVSPost2010PropOp44
 70
     1
102
RTVSPost2010Prop45
280
     0
102
RTVSPost2010PropOp45
 70
     1
102
RTVSPost2010Prop46
 90
       50
102
RTVSPost2010PropOp46
 70
     1
102
RTVSPost2010Prop47
 90
       50
102
RTVSPost2010PropOp47
 70
     1
102
RTVSPost2010Prop48
 90
       50
102
RTVSPost2010PropOp48
 70
     1
102
RTVSPost2010Prop49
280
     0
102
RTVSPost2010PropOp49
 70
     1
102
RTVSPost2010Prop50
 90
       50
102
RTVSPost2010PropOp50
 70
     1
102
RTVSPost2010Prop51ColorIndex
 90
      256
102
RTVSPost2010Prop51ColorRGB
 90
-16777216
102
RTVSPost2010PropOp51
 70
     0
102
RTVSPost2010Prop52
140
1.0
102
RTVSPost2010PropOp52
 70
     0
102
RTVSPost2010Prop53
 90
        2
102
RTVSPost2010PropOp53
 70
     1
102
RTVSPost2010Prop54
  1
strokes_ogs.tif
102
RTVSPost2010PropOp54
 70
     1
102
RTVSPost2010Prop55
280
     0
102
RTVSPost2010PropOp55
 70
     1
102
RTVSPost2010Prop56
140
1.0
102
RTVSPost2010PropOp56
 70
     1
102
RTVSPost2010Prop57
140
1.0
102
RTVSPost2010PropOp57
 70
     1
  0
XRECORD
  5
709
102
{ACAD_REACTORS
330
708
102
}
330
708
100
AcDbXrecord
280
     1
102
RTVSPropertyOp0
 70
     1
102
RTVSPropertyOp1
 70
     1
102
RTVSPropertyOp2
 70
     1
102
RTVSPropertyOp3
 70
     1
102
RTVSPropertyOp4
 70
     1
102
RTVSPropertyOp5
 70
     1
102
RTVSPropertyOp6
 70
     1
102
RTVSPropertyOp7
 70
     1
102
RTVSPropertyOp8
 70
     1
102
RTVSPropertyOp9
 70
     1
102
RTVSPropertyOp10
 70
     1
102
RTVSPropertyOp11
 70
     1
102
RTVSPropertyOp12
 70
     1
102
RTVSPropertyOp13
 70
     1
102
RTVSPropertyOp14
 70
     1
102
RTVSPropertyOp15
 70
     1
102
RTVSPropertyOp16
 70
     1
102
RTVSPropertyOp17
 70
     1
102
RTVSPropertyOp18
 70
     1
102
RTVSPropertyOp19
 70
     1
102
RTVSPropertyOp20
 70
     1
102
RTVSPropertyOp21
 70
     1
102
RTVSPropertyOp22
 70
     1
102
RTVSPropertyOp23
 70
     1
102
RTVSPropertyOp24
 70
     1
102
RTVSPropertyOp25
 70
     1
102
RTVSPropertyOp26
 70
     1
102
RTVSPropertyOp27
 70
     1
102
RTVSPropertyOp28
 70
     1
102
RTVSPropertyOp29
 70
     1
102
RTVSPropertyOp30
 70
     1
102
RTVSPropertyOp31
 70
     1
102
RTVSPropertyOp32
 70
     1
102
RTVSPropertyOp33
 70
     1
102
RTVSPropertyOp34
 70
     1
102
RTVSPropertyOp35
 70
     1
102
RTVSPropertyOp36
 70
     1
102
RTVSPropertyOp37
 70
     1
102
RTVSPropertyOp38
 70
     1
102
RTVSPropertyOp39
 70
     1
102
RTVSPropertyOp40
 70
     1
102
RTVSPropertyOp41
 70
     1
102
RTVSPropertyOp42
 70
     1
102
RTVSPropertyOp43
 70
     1
102
RTVSPropertyOp44
 70
     1
102
RTVSPropertyOp45
 70
     1
102
RTVSPropertyOp46
 70
     1
102
RTVSPropertyOp47
 70
     1
102
RTVSPropertyOp48
 70
     1
102
RTVSPropertyOp49
 70
     1
102
RTVSPropertyOp50
 70
     1
102
RTVSPropertyOp51
 70
     0
102
RTVSPropertyOp52
 70
     0
102
RTVSPropertyOp53
 70
     1
102
RTVSPropertyOp54
 70
     1
102
RTVSPropertyOp55
 70
     1
102
RTVSPropertyOp56
 70
     1
102
RTVSPropertyOp57
 70
     1
102
RTVSPost2010Prop28
280
     0
102
RTVSPost2010PropOp28
 70
     1
102
RTVSPost2010Prop29
280
     1
102
RTVSPost2010PropOp29
 70
     1
102
RTVSPost2010Prop30
280
     1
102
RTVSPost2010PropOp30
 70
     1
102
RTVSPost2010Prop31
280
     0
102
RTVSPost2010PropOp31
 70
     1
102
RTVSPost2010Prop32
280
     0
102
RTVSPost2010PropOp32
 70
     1
102
RTVSPost2010Prop33
280
     0
102
RTVSPost2010PropOp33
 70
     1
102
RTVSPost2010Prop34
280
     0
102
RTVSPost2010PropOp34
 70
     1
102
RTVSPost2010Prop35
280
     0
102
RTVSPost2010PropOp35
 70
     1
102
RTVSPost2010Prop36
280
     0
102
RTVSPost2010PropOp36
 70
     1
102
RTVSPost2010Prop37
 90
       50
102
RTVSPost2010PropOp37
 70
     1
102
RTVSPost2010Prop38
140
0.0
102
RTVSPost2010PropOp38
 70
     1
102
RTVSPost2010Prop39
140
1.0
102
RTVSPost2010PropOp39
 70
     1
102
RTVSPost2010Prop40
 90
        0
102
RTVSPost2010PropOp40
 70
     1
102
RTVSPost2010Prop41ColorIndex
 90
       18
102
RTVSPost2010Prop41ColorRGB
 90
        0
102
RTVSPost2010PropOp41
 70
     1
102
RTVSPost2010Prop42
 90
       50
102
RTVSPost2010PropOp42
 70
     1
102
RTVSPost2010Prop43
 90
        3
102
RTVSPost2010PropOp43
 70
     1
102
RTVSPost2010Prop44ColorIndex
 90
        5
102
RTVSPost2010Prop44ColorRGB
 90
      255
102
RTVSPost2010PropOp44
 70
     1
102
RTVSPost2010Prop45
280
     0
102
RTVSPost2010PropOp45
 70
     1
102
RTVSPost2010Prop46
 90
       50
102
RTVSPost2010PropOp46
 70
     1
102
RTVSPost2010Prop47
 90
       50
102
RTVSPost2010PropOp47
 70
     1
102
RTVSPost2010Prop48
 90
       50
102
RTVSPost2010PropOp48
 70
     1
102
RTVSPost2010Prop49
280
     0
102
RTVSPost2010PropOp49
 70
     1
102
RTVSPost2010Prop50
 90
       50
102
RTVSPost2010PropOp50
 70
     1
102
RTVSPost2010Prop51ColorIndex
 90
      256
102
RTVSPost2010Prop51ColorRGB
 90
-16777216
102
RTVSPost2010PropOp51
 70
     0
102
RTVSPost2010Prop52
140
1.0
102
RTVSPost2010PropOp52
 70
     0
102
RTVSPost2010Prop53
 90
        2
102
RTVSPost2010PropOp53
 70
     1
102
RTVSPost2010Prop54
  1
strokes_ogs.tif
102
RTVSPost2010PropOp54
 70
     1
102
RTVSPost2010Prop55
280
     0
102
RTVSPost2010PropOp55
 70
     1
102
RTVSPost2010Prop56
140
1.0
102
RTVSPost2010PropOp56
 70
     1
102
RTVSPost2010Prop57
140
1.0
102
RTVSPost2010PropOp57
 70
     1
  0
XRECORD
  5
6F9
102
{ACAD_REACTORS
330
6F8
102
}
330
6F8
100
AcDbXrecord
280
     1
102
RTVSPropertyOp0
 70
     1
102
RTVSPropertyOp1
 70
     1
102
RTVSPropertyOp2
 70
     1
102
RTVSPropertyOp3
 70
     1
102
RTVSPropertyOp4
 70
     1
102
RTVSPropertyOp5
 70
     1
102
RTVSPropertyOp6
 70
     1
102
RTVSPropertyOp7
 70
     1
102
RTVSPropertyOp8
 70
     1
102
RTVSPropertyOp9
 70
     1
102
RTVSPropertyOp10
 70
     1
102
RTVSPropertyOp11
 70
     1
102
RTVSPropertyOp12
 70
     1
102
RTVSPropertyOp13
 70
     1
102
RTVSPropertyOp14
 70
     1
102
RTVSPropertyOp15
 70
     1
102
RTVSPropertyOp16
 70
     1
102
RTVSPropertyOp17
 70
     1
102
RTVSPropertyOp18
 70
     1
102
RTVSPropertyOp19
 70
     1
102
RTVSPropertyOp20
 70
     1
102
RTVSPropertyOp21
 70
     1
102
RTVSPropertyOp22
 70
     1
102
RTVSPropertyOp23
 70
     1
102
RTVSPropertyOp24
 70
     1
102
RTVSPropertyOp25
 70
     1
102
RTVSPropertyOp26
 70
     1
102
RTVSPropertyOp27
 70
     1
102
RTVSPropertyOp28
 70
     1
102
RTVSPropertyOp29
 70
     1
102
RTVSPropertyOp30
 70
     1
102
RTVSPropertyOp31
 70
     1
102
RTVSPropertyOp32
 70
     1
102
RTVSPropertyOp33
 70
     1
102
RTVSPropertyOp34
 70
     1
102
RTVSPropertyOp35
 70
     1
102
RTVSPropertyOp36
 70
     1
102
RTVSPropertyOp37
 70
     1
102
RTVSPropertyOp38
 70
     1
102
RTVSPropertyOp39
 70
     1
102
RTVSPropertyOp40
 70
     1
102
RTVSPropertyOp41
 70
     1
102
RTVSPropertyOp42
 70
     1
102
RTVSPropertyOp43
 70
     1
102
RTVSPropertyOp44
 70
     1
102
RTVSPropertyOp45
 70
     1
102
RTVSPropertyOp46
 70
     1
102
RTVSPropertyOp47
 70
     1
102
RTVSPropertyOp48
 70
     1
102
RTVSPropertyOp49
 70
     1
102
RTVSPropertyOp50
 70
     1
102
RTVSPropertyOp51
 70
     0
102
RTVSPropertyOp52
 70
     0
102
RTVSPropertyOp53
 70
     1
102
RTVSPropertyOp54
 70
     1
102
RTVSPropertyOp55
 70
     1
102
RTVSPropertyOp56
 70
     1
102
RTVSPropertyOp57
 70
     1
102
RTVSPost2010Prop28
280
     0
102
RTVSPost2010PropOp28
 70
     1
102
RTVSPost2010Prop29
280
     1
102
RTVSPost2010PropOp29
 70
     1
102
RTVSPost2010Prop30
280
     1
102
RTVSPost2010PropOp30
 70
     1
102
RTVSPost2010Prop31
280
     0
102
RTVSPost2010PropOp31
 70
     1
102
RTVSPost2010Prop32
280
     0
102
RTVSPost2010PropOp32
 70
     1
102
RTVSPost2010Prop33
280
     0
102
RTVSPost2010PropOp33
 70
     1
102
RTVSPost2010Prop34
280
     0
102
RTVSPost2010PropOp34
 70
     1
102
RTVSPost2010Prop35
280
     0
102
RTVSPost2010PropOp35
 70
     1
102
RTVSPost2010Prop36
280
     0
102
RTVSPost2010PropOp36
 70
     1
102
RTVSPost2010Prop37
 90
       50
102
RTVSPost2010PropOp37
 70
     1
102
RTVSPost2010Prop38
140
0.0
102
RTVSPost2010PropOp38
 70
     1
102
RTVSPost2010Prop39
140
1.0
102
RTVSPost2010PropOp39
 70
     1
102
RTVSPost2010Prop40
 90
        0
102
RTVSPost2010PropOp40
 70
     1
102
RTVSPost2010Prop41ColorIndex
 90
       18
102
RTVSPost2010Prop41ColorRGB
 90
        0
102
RTVSPost2010PropOp41
 70
     1
102
RTVSPost2010Prop42
 90
       50
102
RTVSPost2010PropOp42
 70
     1
102
RTVSPost2010Prop43
 90
        3
102
RTVSPost2010PropOp43
 70
     1
102
RTVSPost2010Prop44ColorIndex
 90
        5
102
RTVSPost2010Prop44ColorRGB
 90
      255
102
RTVSPost2010PropOp44
 70
     1
102
RTVSPost2010Prop45
280
     0
102
RTVSPost2010PropOp45
 70
     1
102
RTVSPost2010Prop46
 90
       50
102
RTVSPost2010PropOp46
 70
     1
102
RTVSPost2010Prop47
 90
       50
102
RTVSPost2010PropOp47
 70
     1
102
RTVSPost2010Prop48
 90
       50
102
RTVSPost2010PropOp48
 70
     1
102
RTVSPost2010Prop49
280
     0
102
RTVSPost2010PropOp49
 70
     1
102
RTVSPost2010Prop50
 90
       50
102
RTVSPost2010PropOp50
 70
     1
102
RTVSPost2010Prop51ColorIndex
 90
      256
102
RTVSPost2010Prop51ColorRGB
 90
-16777216
102
RTVSPost2010PropOp51
 70
     0
102
RTVSPost2010Prop52
140
1.0
102
RTVSPost2010PropOp52
 70
     0
102
RTVSPost2010Prop53
 90
        2
102
RTVSPost2010PropOp53
 70
     1
102
RTVSPost2010Prop54
  1
strokes_ogs.tif
102
RTVSPost2010PropOp54
 70
     1
102
RTVSPost2010Prop55
280
     0
102
RTVSPost2010PropOp55
 70
     1
102
RTVSPost2010Prop56
140
1.0
102
RTVSPost2010PropOp56
 70
     1
102
RTVSPost2010Prop57
140
1.0
102
RTVSPost2010PropOp57
 70
     1
  0
XRECORD
  5
6EB
102
{ACAD_REACTORS
330
6EA
102
}
330
6EA
100
AcDbXrecord
280
     1
102
RTVSPropertyOp0
 70
     1
102
RTVSPropertyOp1
 70
     1
102
RTVSPropertyOp2
 70
     1
102
RTVSPropertyOp3
 70
     1
102
RTVSPropertyOp4
 70
     1
102
RTVSPropertyOp5
 70
     1
102
RTVSPropertyOp6
 70
     1
102
RTVSPropertyOp7
 70
     1
102
RTVSPropertyOp8
 70
     1
102
RTVSPropertyOp9
 70
     1
102
RTVSPropertyOp10
 70
     1
102
RTVSPropertyOp11
 70
     1
102
RTVSPropertyOp12
 70
     1
102
RTVSPropertyOp13
 70
     1
102
RTVSPropertyOp14
 70
     1
102
RTVSPropertyOp15
 70
     1
102
RTVSPropertyOp16
 70
     1
102
RTVSPropertyOp17
 70
     1
102
RTVSPropertyOp18
 70
     1
102
RTVSPropertyOp19
 70
     1
102
RTVSPropertyOp20
 70
     1
102
RTVSPropertyOp21
 70
     1
102
RTVSPropertyOp22
 70
     1
102
RTVSPropertyOp23
 70
     1
102
RTVSPropertyOp24
 70
     1
102
RTVSPropertyOp25
 70
     1
102
RTVSPropertyOp26
 70
     1
102
RTVSPropertyOp27
 70
     1
102
RTVSPropertyOp28
 70
     1
102
RTVSPropertyOp29
 70
     1
102
RTVSPropertyOp30
 70
     1
102
RTVSPropertyOp31
 70
     1
102
RTVSPropertyOp32
 70
     1
102
RTVSPropertyOp33
 70
     1
102
RTVSPropertyOp34
 70
     1
102
RTVSPropertyOp35
 70
     1
102
RTVSPropertyOp36
 70
     1
102
RTVSPropertyOp37
 70
     1
102
RTVSPropertyOp38
 70
     1
102
RTVSPropertyOp39
 70
     1
102
RTVSPropertyOp40
 70
     1
102
RTVSPropertyOp41
 70
     1
102
RTVSPropertyOp42
 70
     1
102
RTVSPropertyOp43
 70
     1
102
RTVSPropertyOp44
 70
     1
102
RTVSPropertyOp45
 70
     1
102
RTVSPropertyOp46
 70
     1
102
RTVSPropertyOp47
 70
     1
102
RTVSPropertyOp48
 70
     1
102
RTVSPropertyOp49
 70
     1
102
RTVSPropertyOp50
 70
     1
102
RTVSPropertyOp51
 70
     0
102
RTVSPropertyOp52
 70
     0
102
RTVSPropertyOp53
 70
     1
102
RTVSPropertyOp54
 70
     1
102
RTVSPropertyOp55
 70
     1
102
RTVSPropertyOp56
 70
     1
102
RTVSPropertyOp57
 70
     1
102
RTVSPost2010Prop28
280
     0
102
RTVSPost2010PropOp28
 70
     1
102
RTVSPost2010Prop29
280
     1
102
RTVSPost2010PropOp29
 70
     1
102
RTVSPost2010Prop30
280
     1
102
RTVSPost2010PropOp30
 70
     1
102
RTVSPost2010Prop31
280
     0
102
RTVSPost2010PropOp31
 70
     1
102
RTVSPost2010Prop32
280
     0
102
RTVSPost2010PropOp32
 70
     1
102
RTVSPost2010Prop33
280
     0
102
RTVSPost2010PropOp33
 70
     1
102
RTVSPost2010Prop34
280
     0
102
RTVSPost2010PropOp34
 70
     1
102
RTVSPost2010Prop35
280
     0
102
RTVSPost2010PropOp35
 70
     1
102
RTVSPost2010Prop36
280
     0
102
RTVSPost2010PropOp36
 70
     1
102
RTVSPost2010Prop37
 90
       50
102
RTVSPost2010PropOp37
 70
     1
102
RTVSPost2010Prop38
140
0.0
102
RTVSPost2010PropOp38
 70
     1
102
RTVSPost2010Prop39
140
1.0
102
RTVSPost2010PropOp39
 70
     1
102
RTVSPost2010Prop40
 90
        0
102
RTVSPost2010PropOp40
 70
     1
102
RTVSPost2010Prop41ColorIndex
 90
       18
102
RTVSPost2010Prop41ColorRGB
 90
        0
102
RTVSPost2010PropOp41
 70
     1
102
RTVSPost2010Prop42
 90
       50
102
RTVSPost2010PropOp42
 70
     1
102
RTVSPost2010Prop43
 90
        3
102
RTVSPost2010PropOp43
 70
     1
102
RTVSPost2010Prop44ColorIndex
 90
        5
102
RTVSPost2010Prop44ColorRGB
 90
      255
102
RTVSPost2010PropOp44
 70
     1
102
RTVSPost2010Prop45
280
     0
102
RTVSPost2010PropOp45
 70
     1
102
RTVSPost2010Prop46
 90
       50
102
RTVSPost2010PropOp46
 70
     1
102
RTVSPost2010Prop47
 90
       50
102
RTVSPost2010PropOp47
 70
     1
102
RTVSPost2010Prop48
 90
       50
102
RTVSPost2010PropOp48
 70
     1
102
RTVSPost2010Prop49
280
     0
102
RTVSPost2010PropOp49
 70
     1
102
RTVSPost2010Prop50
 90
       50
102
RTVSPost2010PropOp50
 70
     1
102
RTVSPost2010Prop51ColorIndex
 90
      256
102
RTVSPost2010Prop51ColorRGB
 90
-16777216
102
RTVSPost2010PropOp51
 70
     0
102
RTVSPost2010Prop52
140
1.0
102
RTVSPost2010PropOp52
 70
     0
102
RTVSPost2010Prop53
 90
        2
102
RTVSPost2010PropOp53
 70
     1
102
RTVSPost2010Prop54
  1
strokes_ogs.tif
102
RTVSPost2010PropOp54
 70
     1
102
RTVSPost2010Prop55
280
     0
102
RTVSPost2010PropOp55
 70
     1
102
RTVSPost2010Prop56
140
1.0
102
RTVSPost2010PropOp56
 70
     1
102
RTVSPost2010Prop57
140
1.0
102
RTVSPost2010PropOp57
 70
     1
  0
XRECORD
  5
70B
102
{ACAD_REACTORS
330
70A
102
}
330
70A
100
AcDbXrecord
280
     1
102
RTVSPropertyOp0
 70
     1
102
RTVSPropertyOp1
 70
     1
102
RTVSPropertyOp2
 70
     1
102
RTVSPropertyOp3
 70
     1
102
RTVSPropertyOp4
 70
     1
102
RTVSPropertyOp5
 70
     1
102
RTVSPropertyOp6
 70
     1
102
RTVSPropertyOp7
 70
     1
102
RTVSPropertyOp8
 70
     1
102
RTVSPropertyOp9
 70
     1
102
RTVSPropertyOp10
 70
     1
102
RTVSPropertyOp11
 70
     1
102
RTVSPropertyOp12
 70
     1
102
RTVSPropertyOp13
 70
     1
102
RTVSPropertyOp14
 70
     1
102
RTVSPropertyOp15
 70
     1
102
RTVSPropertyOp16
 70
     1
102
RTVSPropertyOp17
 70
     1
102
RTVSPropertyOp18
 70
     1
102
RTVSPropertyOp19
 70
     1
102
RTVSPropertyOp20
 70
     1
102
RTVSPropertyOp21
 70
     1
102
RTVSPropertyOp22
 70
     1
102
RTVSPropertyOp23
 70
     1
102
RTVSPropertyOp24
 70
     1
102
RTVSPropertyOp25
 70
     1
102
RTVSPropertyOp26
 70
     1
102
RTVSPropertyOp27
 70
     1
102
RTVSPropertyOp28
 70
     1
102
RTVSPropertyOp29
 70
     1
102
RTVSPropertyOp30
 70
     1
102
RTVSPropertyOp31
 70
     1
102
RTVSPropertyOp32
 70
     1
102
RTVSPropertyOp33
 70
     1
102
RTVSPropertyOp34
 70
     1
102
RTVSPropertyOp35
 70
     1
102
RTVSPropertyOp36
 70
     1
102
RTVSPropertyOp37
 70
     1
102
RTVSPropertyOp38
 70
     1
102
RTVSPropertyOp39
 70
     1
102
RTVSPropertyOp40
 70
     1
102
RTVSPropertyOp41
 70
     1
102
RTVSPropertyOp42
 70
     1
102
RTVSPropertyOp43
 70
     1
102
RTVSPropertyOp44
 70
     1
102
RTVSPropertyOp45
 70
     1
102
RTVSPropertyOp46
 70
     1
102
RTVSPropertyOp47
 70
     1
102
RTVSPropertyOp48
 70
     1
102
RTVSPropertyOp49
 70
     1
102
RTVSPropertyOp50
 70
     1
102
RTVSPropertyOp51
 70
     0
102
RTVSPropertyOp52
 70
     0
102
RTVSPropertyOp53
 70
     1
102
RTVSPropertyOp54
 70
     1
102
RTVSPropertyOp55
 70
     1
102
RTVSPropertyOp56
 70
     1
102
RTVSPropertyOp57
 70
     1
102
RTVSPost2010Prop28
280
     0
102
RTVSPost2010PropOp28
 70
     1
102
RTVSPost2010Prop29
280
     1
102
RTVSPost2010PropOp29
 70
     1
102
RTVSPost2010Prop30
280
     1
102
RTVSPost2010PropOp30
 70
     1
102
RTVSPost2010Prop31
280
     0
102
RTVSPost2010PropOp31
 70
     1
102
RTVSPost2010Prop32
280
     0
102
RTVSPost2010PropOp32
 70
     1
102
RTVSPost2010Prop33
280
     0
102
RTVSPost2010PropOp33
 70
     1
102
RTVSPost2010Prop34
280
     0
102
RTVSPost2010PropOp34
 70
     1
102
RTVSPost2010Prop35
280
     0
102
RTVSPost2010PropOp35
 70
     1
102
RTVSPost2010Prop36
280
     0
102
RTVSPost2010PropOp36
 70
     1
102
RTVSPost2010Prop37
 90
       50
102
RTVSPost2010PropOp37
 70
     1
102
RTVSPost2010Prop38
140
0.0
102
RTVSPost2010PropOp38
 70
     1
102
RTVSPost2010Prop39
140
1.0
102
RTVSPost2010PropOp39
 70
     1
102
RTVSPost2010Prop40
 90
        0
102
RTVSPost2010PropOp40
 70
     1
102
RTVSPost2010Prop41ColorIndex
 90
       18
102
RTVSPost2010Prop41ColorRGB
 90
        0
102
RTVSPost2010PropOp41
 70
     1
102
RTVSPost2010Prop42
 90
       50
102
RTVSPost2010PropOp42
 70
     1
102
RTVSPost2010Prop43
 90
        3
102
RTVSPost2010PropOp43
 70
     1
102
RTVSPost2010Prop44ColorIndex
 90
        5
102
RTVSPost2010Prop44ColorRGB
 90
      255
102
RTVSPost2010PropOp44
 70
     1
102
RTVSPost2010Prop45
280
     0
102
RTVSPost2010PropOp45
 70
     1
102
RTVSPost2010Prop46
 90
       50
102
RTVSPost2010PropOp46
 70
     1
102
RTVSPost2010Prop47
 90
       50
102
RTVSPost2010PropOp47
 70
     1
102
RTVSPost2010Prop48
 90
       50
102
RTVSPost2010PropOp48
 70
     1
102
RTVSPost2010Prop49
280
     0
102
RTVSPost2010PropOp49
 70
     1
102
RTVSPost2010Prop50
 90
       50
102
RTVSPost2010PropOp50
 70
     1
102
RTVSPost2010Prop51ColorIndex
 90
      256
102
RTVSPost2010Prop51ColorRGB
 90
-16777216
102
RTVSPost2010PropOp51
 70
     0
102
RTVSPost2010Prop52
140
1.0
102
RTVSPost2010PropOp52
 70
     0
102
RTVSPost2010Prop53
 90
        2
102
RTVSPost2010PropOp53
 70
     1
102
RTVSPost2010Prop54
  1
strokes_ogs.tif
102
RTVSPost2010PropOp54
 70
     1
102
RTVSPost2010Prop55
280
     0
102
RTVSPost2010PropOp55
 70
     1
102
RTVSPost2010Prop56
140
1.0
102
RTVSPost2010PropOp56
 70
     1
102
RTVSPost2010Prop57
140
1.0
102
RTVSPost2010PropOp57
 70
     1
  0
ENDSEC
  0
SECTION
  2
THUMBNAILIMAGE
 90
    16364
310
28000000B4000000550000000100080000000000C43B000000000000000000000001000000010000FFFFFF000000FF0000FFFF0000FF0000FFFF0000FF000000FF00FF000000000080808000C0C0C0000000FF007F7FFF000000A5005252A50000007F003F3F7F0000004C0026264C000000260013132600003FFF007F9FFF
310
000029A5005267A500001F7F003F4F7F0000134C00262F4C000009260013172600007FFF007FBFFF000052A500527CA500003F7F003F5F7F0000264C0026394C0000132600131C260000BFFF007FDFFF00007CA5005291A500005F7F003F6F7F0000394C0026424C00001C26001321260000FFFF007FFFFF0000A5A50052A5
310
A500007F7F003F7F7F00004C4C00264C4C00002626001326260000FFBF007FFFDF0000A57C0052A59100007F5F003F7F6F00004C3900264C420000261C001326210000FF7F007FFFBF0000A5520052A57C00007F3F003F7F5F00004C2600264C39000026130013261C0000FF3F007FFF9F0000A5290052A56700007F1F003F
310
7F4F00004C1300264C2F00002609001326170000FF00007FFF7F0000A5000052A55200007F00003F7F3F00004C0000264C260000260000132613003FFF00009FFF7F0029A5000067A552001F7F00004F7F3F00134C00002F4C260009260000172613007FFF0000BFFF7F0052A500007CA552003F7F00005F7F3F00264C0000
310
394C2600132600001C261300BFFF0000DFFF7F007CA5000091A552005F7F00006F7F3F00394C0000424C26001C26000021261300FFFF0000FFFF7F00A5A50000A5A552007F7F00007F7F3F004C4C00004C4C26002626000026261300FFBF0000FFDF7F00A57C0000A59152007F5F00007F6F3F004C3900004C422600261C00
310
0026211300FF7F0000FFBF7F00A5520000A57C52007F3F00007F5F3F004C2600004C39260026130000261C1300FF3F0000FF9F7F00A5290000A56752007F1F00007F4F3F004C1300004C2F26002609000026171300FF000000FF7F7F00A5000000A55252007F0000007F3F3F004C0000004C2626002600000026131300FF00
310
3F00FF7F9F00A5002900A55267007F001F007F3F4F004C0013004C262F002600090026131700FF007F00FF7FBF00A5005200A5527C007F003F007F3F5F004C0026004C2639002600130026131C00FF00BF00FF7FDF00A5007C00A55291007F005F007F3F6F004C0039004C26420026001C0026132100FF00FF00FF7FFF00A5
310
00A500A552A5007F007F007F3F7F004C004C004C264C002600260026132600BF00FF00DF7FFF007C00A5009152A5005F007F006F3F7F0039004C0042264C001C002600211326007F00FF00BF7FFF005200A5007C52A5003F007F005F3F7F0026004C0039264C00130026001C1326003F00FF009F7FFF002900A5006752A500
310
1F007F004F3F7F0013004C002F264C000900260017132600000000002D2D2D005B5B5B0089898900B7B7B700B3B3B30000000000000000000000000000000000000000000000000000000000000000000000000000000000000000000000000000000000000000000000000000000000000000000000000000000000000000
310
00000000000000000000000000000000000000000000000000000000000000000000000000000000000000000000000000000000000000000000000000000000000000000000000000000000000000000000000000000000000000000000000000000000000000000000000000000000000000000000000000000000000000
310
00000000000000000000000000000000000000000000000000000000000000000000000000000000000000000000000000000000000000000000000000000000000000000000000000000000000000000000000000000000000000000000000000000000000000000000000000000000000000000000000000000000000000
310
00000000000000000000000000000000000000000000000000000000000000000000000000000000000000000000000000000000000000000000000000000000000000000000000000000000000000000000000000000000000000000000000000000000000000000000000000000000000000000000000000000000000000
310
00000000000000000000000000000000000000000000000000000000000000000000000000000000000000000000000000000000000000000000000000000000000000000000000000000000000000000000000000000000000000000000000000000000000000000000000000000000000000000000000000000000000000
310
00000000000000000000000000000000000000000000000000000000000000000000000000000000000000000000000000000000000000000000000000000000000000000000000000000000000000000000000000000000000000000000000000000000000000000000000000000000000000000000000000000000000000
310
00000000000000000000000000000000000000000000000000000000000000000000000000000000000000000000000000000000000000000000000000000000000000000000000000000000000000000000000000000000000000000000000000000000000000000000000000000000000000000000000000000000000000
310
00000000000000000000000000000000000000000000000000000000000000000000000000000000000000000000000000000000000000000000000000000000000000000000000000000000000000000000000000000000000000000000000000000000000000000000000000000000000000000000000000000000000000
310
00000000000000000000000000000000000000000000000000000000000000000000000000000000000000000000000000000000000000000000000000000000000000000000000000000000000000000000000000000000000000000000000000000000000000000000000000000000000000000000000000000000000000
310
00000000000000000000000000000000000000000000000000000000000000000000000000000000000000000000000000000000000000000000000000000000000000000000000000000000000000000000000000000000000000000000000000000000000000000000000000000000000000000000000000000000000000
310
00000000000000000000000000000000000000000000000000000000000000000000000000000000000000000000000000000000000000000000000000000000000000000000000000000000000000000000000000000000000000000000000000000000000000000000000000000000000000000000000000000000000000
310
00000000000000000000000000000000000000000000000000000000000000000000000000000000000000000000000000000000000000000000000000000000000000000000000000000000000000000000000000000000000000000000000000000000000000000000000000000000000000000000000000000000000000
310
00000000000000000000000000000000000000000000000000000000000000000000000000000000000000000000000000000000000000000000000000000000000000000000000000000000000000000000000000000000000000000000000000000000000000000000000000000000000000000000000000000000000000
310
00000000000000000000000000000000000000000000000000000000000000000000000000000000000000000000000000000000000000000000000000000000000000000000000000000000000000000000000000000000000000000000000000000000000000000000000000000000000000000000000000000000000000
310
00000000000000000000000000000000000000000000000000000000000000000000000000000000000000000000000000000000000000000000000000000000000000000000000000000000000000000000000000000000000000000000000000000000000000000000000000000000000000000000000000000000000000
310
00000000000000000000000000000000000000000000000000000000000000000000000000000000000000000000000000000000000000000000000000000000000000000000000000000000000000000000000000000000000000000000000000000000000000000000000000000000000000000000000000000000000000
310
00000000000000000000000000000000000000000000000000000000000000000000000000000000000000000000000000000000000000000000000000000000000000000000000000000000000000000000000000000000000000000000000000000000000000000000000000000000000000000000000000000000000000
310
00000000000000000000000000000000000000000000000000000000000000000000000000000000000000000000000000000000000000000000000000000000000000000000000000000000000000000000000000000000000000000000000000000000000000000000000000000000000000000000000000000000000000
310
00000000000000000000000000000000000000000000000000000000000000000000000000000000000000000000000000000000000000000000000000000000000000000000000000000000000000000000000000000000000000000000000000000000000000000000000000000000000000000000000000000000000000
310
00000000000000000000010000000000000000000000000000000000000100000000000000020202000202000000000100000000000000000000000000000000000000000000000001000000000000000000000000000000000000000000000000000000000000000000000000000000000000000000000000000000000000
310
00000000000000000000000000000000000000000000000000000000000000000000000000000000000000000000000000000000000000000000000000030301030303030300000000000000000003030303010303000000000002020202020000000003010303030303000000000000000000000000000303030303030303
310
00000000000000000000000000000000000000000000000000000000000000000000000000000000000000000000000000000000000000000000000000000000000000000000000000000000000000000000000000000000000000000000000000000000000000000000000000000000000003000100000000030000000100
310
00000100030000000100030000000000000000000000000000030100000000030000000100000000010100000003000003030303030000000000000000000000000000000000000000000000000000000000000000000000000000000000000000000000000000000000000000000000000000000000000000000000000000
310
00000000000000000000000000000000000000000000000000000000000000000000000000000000030301030303030301030301030303030303030303010303000000000000000000000000000003010303030303000003030301010303030300000303030303030303000000000000000000000000000000000000000000
310
00000000000000000000000000000000000000000000000000000000000000000000000000000000000000000000000000000000000000000000000000000000000000000000000000000000000000000000000000000000000000030303030100000003030103030103030401040303000001000303040300000000000000
310
00000000030100000000030303030104010304010303030303030303000001030000000000000000000000000000000000000000000000000000000000000000000000000000000000000000000000000000000000000000000000000000000000000000000000000000000000000000000000000000000000000000000000
310
00000000000000000000000000000000010101000000000000030301000001010000010003030000000000010101000000000000000000000003000000000000000000010001010001010003030303030300000103000000000000000000000000000000000000000000000000000000000000000000000000000000000000
310
00000000000000000000000000000000000000000000000000000000000000000000000000000000000000000000000000000000000000000000000000000303000303030303030300000000000003030100000001000000000303000000000000040300000000000000000000000303000000000000000000000101000000
310
00030301000303030003030000000000000000000000000000000000000000000000000000000000000000000000000000000000000000000000000000000000000000000000000000000000000000000000000000000000000000000000000000000000000000000000000000000000000003030301030301010303030101
310
01010103030301010101010101010103030101010101010403000000000000000000000003030000000000000000000001010000000103010101010303000303000000000000000000000000000000000000000000000000000000000000000000000000000000000000000000000000000000000000000000000000000000
310
00000000000000000000000000000000000000000000000000000000000000000000000000000000000303000303030303030300000000000000000100000001000000000100000000000000040300000000000000000000000300000000000000000000000101000000000303010003030300030300000000000000000000
310
00000000000000000000000000000000000000000000000000000000000000000000000000000000000000000000000000000000000000000000000000000000000000000000000000000000000000000000000000000000000000000000000000000000000101010000000000000000010000000100000000010000000000
310
00010101000000000000000000000003000000000000000000000001010000000003030303030300000303000000000000000000000000000000000000000000000000000000000000000000000000000000000000000000000000000000000000000000000000000000000000000000000000000000000000000000000000
310
00000000000000000000000000000000000000000000000000000000030300000000000000000100000001000000000100000000000000040300000000000000000000000300000000000000000000000103030303030303030303030000030300000000000000000000000000000000000000000000000000000000000000
310
00000000000000000000000000000000000000000000000000000000000000000000000000000000000000000000000000000000000000000000000000000000000000000000000000000000000000000000030000000000000000010000000100000000010000000000000003000000000000000000000000030000000000
310
00000000000001010000000000000100000000000103000000000000000000000000000000000000000000000000000000000000000000000000000000000000000000000000000000000000000000000000000000000000000000000000000000000000000000000000000000000000000000000000000000000000000000
310
00000000000000000301000000000001000100000001000000000101000000000001030000000000000000000000000300000100000000000000000101000000000000000000010000030300000000000000000000000000000000000000000000000000000000000000000000000000000000000000000000000000000000
310
00000000000000000000000000000000000000000000000000000000000000000000000000000000000000000000000000000000000000000000000000030104040404040104010404040104040404010104040404040103000000000000000000000000030303010303030103030303010103030303030303030301030303
310
00000000000000000000000000000000000000000000000000000000000000000000000000000000000000000000000000000000000000000000000000000000000000000000000000000000000000000000000000000000000000000000000000000000000000000000000000000000000003030303030301030301030303
310
03030401040301010303030303000000000000000000000000000003030303030301030301040103030101040303030303030303030000000000000000000000000000000000000000000000000000000000000000000000000000000000000000000000000000000000000000000000000000000000000000000000000000
310
00000000000000000000000000000000000000000000000000000000000000000000000000000000000000000003030303010303030303030303030301030000000000000000000000000000000000000103030301030103030103030303030103030000010101010100000000000000000000000000000000000000000000
310
00000000000000000000000000000000000000000000000000000000000000000000000000000000000000000000000000000000000000000000000000000000000000000000000000000000000000000000000000000000000000000000000000000000030003030303030000000001000000000000000000000000000000
310
00000000000000030303000000000000030001000300000000000003030300000000000000000000000000000000000000000000000000000000000000000000000000000000000000000000000000000000000000000000000000000000000000000000000000000000000000000000000000000000000000000000000000
310
00000000000000000000000000000000000000000000000000000300030303000300000000000000000000000000000000000000000000000000000000030000000000000003000100030000000000000003000000000000000000000000000000000000000000000000000000000000000000000000000000000000000000
310
00000000000000000000000000000000000000000000000000000000000000000000000000000000000000000000000000000000000000000000000000000000000000000000000000000000000000030003030300000000000000000000000000000000000000000000000000000000000000000000000000000300010003
310
00000000000000000000000000000000000000000000000000000000000000000000000000000000000000000000000000000000000000000000000000000000000000000000000000000000000000000000000000000000000000000000000000000000000000000000000000000000000000000000000000000000000000
310
00000000000300030303000000000000000000000000000000000000000000000000000000000000000000000000000003000100030000000000000000000000000000000000000000000000000000000000000000000000000000000000000000000000000000000000000000000000000000000000000000000000000000
310
00000000000000000000000000000000000000000000000000000000000000000000000000000000000000000000000000000000000000000000030003030300000000000000000000000000000000000000000000000000000000000000000000000000000300010003000000000000000000000000000000000000000000
310
00000000000000000000000000000000000000000000000000000000000000000000000000000000000000000000000000000000000000000000000000000000000000000000000000000000000000000000000000000000000000000000000000000000000000000000000000000003030303030000000000000000000000
310
00000000000000000000000000000000000000000000000000000003030303030000000000000000000000000000000000000000000000000000000000000000000000000000000000000000000000000000000000000000000000000000000000000000000000000000000000000000000000000000000000000000000000
310
00000000000000000000000000000000000000000000000000000000000000000000000000000000000000000000000000000000000000000000000000000000000000000000000000000000000000000000000000000000000000000000000000000000000000000000000000000000000000000000000000000000000000
310
00000000000000000000000000000000000000000000000000000000000000000000000000000000000000000000000000000000000000000000000000000000000000000000000000000000000000000000000000000000000000000000000000000000000000000000000000000000000000000000000000000000000000
310
00000000000000000000000000000000000000000000000000000000000000000000000000000000000000000000000000000000000000000000000000000000000000000000000000000000000000000000000000000000000000000000000000000000000000000000000000000000000000000000000000000000000000
310
00000000000000000000000000000000000000000000000000000000000000000000000000000000000000000000000000000000000000000000000000000000000000000000000000000000000000000000000000000000000000000000000000000000000000000000000000000000000000000000000000000000000000
310
00000000000000000000000000000000000000000000000000000000000000000000000000000000000000000000000000000000000000000000000000000000000000000000000000000000000000000000000000000000000000000000000000000000000000000000000000000000000000000000000000000000000000
310
00000000000000000000000000000000000000000000000000000000000000000000000000000000000000000000000000000000000000000000000000000000000000000000000000000000000000000000000000000000000000000000000000000000000000000000000000000000000000000000000000000000000000
310
00000000000000000000000000000000000000000000000000000000000000000000000000000000000000000000000000000000000000000000000000000000000000000000000000000000000000000000000000000000000000000000000000000000000000000000000000000000000000000000000000000000000000
310
00000000000000000000000000000000000000000000000000000000000000000000000000000000000000000000000000000000000000000000000000000000000000000000000000000000000000000000000000000000000000000000000000000000000000000000000000000000000000000000000000000000000000
310
00000000000000000000000000000000000000000000000000000000000000000000000000000000000000000000000000000000000000000000000000000000000000000000000000000000000000000000000000000000000000000000000000000000000000000000000000000000000000000000000000000000000000
310
00000000000000000000000000000000000000000000000000000000000000000000000000000000000000000000000000000000000000000000000000000000000000000000000000000000000000000000000000000000000000000000000000000000000000000000000000000000000000000000000000000000000000
310
00000000000000000000000000000000000000000000000000000000000000000000000000000000000000000000000000000000000000000000000000000000000000000000000000000000000000000000000000000000000000000000000000000000000000000000000000000000000000000000000000000000000000
310
00000000000000000000000000000000000000000000000000000000000000000000000000000000000000000000000000000000000000000000000000000000000000000000000000000000000000000000000000000000000000000000000000000000000000000000000000000000000000000000000000000000000000
310
00000000000000000000000000000000000000000000000000000000000000000000000000000000000000000000000000000000000000000000000000000000000000000000000000000000000000000000000000000000000000000000000000000000000000000000000000000000000000000000000000000000000000
310
00000000000000000000000000000000000000000000000000000000000000000000000000000000000000000000000000000000000000000000000000000000000000000000000000000000000000000000000000000000000000000000000000000000000000000000000000000000000000000000000000000000000000
310
00000000000000000000000000000000000000000000000000000000000000000000000000000000000000000000000000000000000000000000000000000000000100000000000000000000000000000000000000000000000000000000000000000000000000000000000000000000000000000000000000000000000000
310
00000000000000000000000000000000000000000000000000000000000000000000000000000000000000000000000000000000000000000000000000000000000000000000000000000000000000000000000000000000000000000000000000000000000000000000030303030303030300030303030303030003030303
310
01030300000000000000000000000000000000000000000000000000000000000000000000000000000000000000000000000000000000000000000000000000000000000000000000000000000000000000000000000000000000000000000000000000000000000000000000000000000000000000000000000000000000
310
00000000000000000000000000000000000000000000000000000000000000000301030300000303030303030303030303030300010101010000000000000000000000000000000000000000000000000000000000000000000000000000000000000000000000000000000000000000000000000000000000000000000000
310
00000000000000000000000000000000000000000000000000000000000000000000000000000000000000000000000000000000000000000000000000000000000000000000000000000000000000000000000000030003030301030101010303030301010103030303030303000000000000000000000000000000000000
310
00000000000000000000000000000000000000000000000000000000000000000000000000000000000000000000000000000000000000000000000000000000000000000000000000000000000000000000000000000000000000000000000000000000000000000000000000000000000000000000000000000000000000
310
00000000000000000000000300000303030303030001030303010303030303030300030000000000000000000000000000000000000000000000000000000000000000000000000000000000000000000000000000000000000000000000000000000000000000000000000000000000000000000000000000000000000000
310
00000000000000000000000000000000000000000000000000000000000000000000000000000000000000000000000000000000000000000000000000000000030003030101010000000003030300000001030101030303000000000000000000000000000000000000000000000000000000000000000000000000000000
310
00000000000000000000000000000000000000000000000000000000000000000000000000000000000000000000000000000000000000000000000000000000000000000000000000000000000000000000000000000000000000000000000000000000000000000000000000000000000000000003030301030000000000
310
00000300000000000000010103030000000000000000000000000000000000000000000000000000000000000000000000000000000000000000000000000000000000000000000000000000000000000000000000000000000000000000000000000000000000000000000000000000000000000000000000000000000000
310
00000000000000000000000000000000000000000000000000000000000000000000000000000000000000030301010000000000000003030300000000000000010303000000000000000000000000000000000000000000000000000000000000000000000000000000000000000000000000000000000000000000000000
310
00000000000000000000000000000000000000000000000000000000000000000000000000000000000000000000000000000000000000000000000000000000000000000000000000000000000000000000000000000000000000000000000003030100000000030303010301030103030300000003030300000000000000
310
00000000000000000000000000000000000000000000000000000000000000000000000000000000000000000000000000000000000000000000000000000000000000000000000000000000000000000000000000000000000000000000000000000000000000000000000000000000000000000000000000000000000000
310
00000000000000000000000000000000000000000000030103030303030001000003030300000001030303000103030000000000000000000000000000000000000000000000000000000000000000000000000000000000000000000000000000000000000000000000000000000000000000000000000000000000000000
310
00000000000000000000000000000000000000000000000000000000000000000000000000000000000000000000000000000000000000000000000000000000000000000000000000000303010300000003030103030001000003030303030003030103000000000000000000000000000000000000000000000000000000
310
00000000000000000000000000000000000000000000000000000000000000000000000000000000000000000000000000000000000000000000000000000000000000000000000000000000000000000000000000000000000000000000000000000000000000000000000000000000000000000000000000000000000000
310
03030300000003030101010303010003030101010301000301030300000000000000000000000000000000000000000000000000000000000000000000000000000000000000000000000000000000000000000000000000000000000000000000000000000000000000000000000000000000000000000000000000000000
310
00000000000000000000000000000000000000000000000000000000000000000000000000000000000000000000000000000000000303030000030303030303030303030303030303030100000103030000000000000000000000000000000000000000000000000000000000000000000000000000000000000000000000
310
00000000000000000000000000000000000000000000000000000000000000000000000000000000000000000000000000000000000000000000000000000000000000000000000000000000000000000000000000000000000000000000000000000000000000000000030103000001010303030303010103010300010003
310
01000003030300000000000000000000000000000000000000000000000000000000000000000000000000000000000000000000000000000000000000000000000000000000000000000000000000000000000000000000000000000000000000000000000000000000000000000000000000000000000000000000000000
310
00000000000000000000000000000000000000000000000000000000000000010303030101010103010101030101030103010101030101010303030100000000000000000000000000000000000000000000000000000000000000000000000000000000000000000000000000000000000000000000000000000000000000
310
00000000000000000000000000000000000000000000000000000000000000000000000000000000000000000000000000000000000000000000000000000000000000000000000000000000000000000000000000030303000001000303010303000103030303010103010000030303000000000000000000000000000000
310
00000000000000000000000000000000000000000000000000000000000000000000000000000000000000000000000000000000000000000000000000000000000000000000000000000000000000000000000000000000000000000000000000000000000000000000000000000000000000000000000000000000000000
310
00000000000000000000000301030000030301030303010301000303010103030100000103030000000000000000000000000000000000000000000000000000000000000000000000000000000000000000000000000000000000000000000000000000000000000000000000000000000000000000000000000000000000
310
00000000000000000000000000000000000000000000000000000000000000000000000000000000000000000000000000000000000000000000000000000000030303000000030300010003030100000303030303000000010303000000000000000000000000000000000000000000000000000000000000000000000000
310
00000000000000000000000000000000000000000000000000000000000000000000000000000000000000000000000000000000000000000000000000000000000000000000000000000000000000000000000000000000000000000000000000000000000000000000000000000000000000000003030303000003010101
310
01010301000000000100000000030103030000000000000000000000000000000000000000000000000000000000000000000000000000000000000000000000000000000000000000000000000000000000000000000000000000000000000000000000000000000000000000000000000000000000000000000000000000
310
00000000000000000000000000000000000000000000000000000000000000000000000000000000000303030301030303030000030000030300000000000003030303010304030000000000000000000000000000000000000000000000000000000000000000000000000000000000000000000000000000000000000000
310
00000000000000000000000000000000000000000000000000000000000000000000000000000000000000000000000000000000000000000000000000000000000000000000000000000000000000000000000000000000000000000000010301030101000000030303030303010303030303030000030103010101000000
310
00000000000000000000000000000000000000000000000000000000000000000000000000000000000000000000000000000000000000000000000000000000000000000000000000000000000000000000000000000000000000000000000000000000000000000000000000000000000000000000000000000000000000
310
00000000000000000000000000000000030303030303030303010300000000000000030303000000000000000103030004030000000000000000000000000000000000000000000000000000000000000000000000000000000000000000000000000000000000000000000000000000000000000000000000000000000000
310
00000000000000000000000000000000000000000000000000000000000000000000000000000000000000000000000000000000000000000000000000000000000000000003030303030303010103010301010101010101030101010101010103010301010403000000000000000000000000000000000000000000000000
310
00000000000000000000000000000000000000000000000000000000000000000000000000000000000000000000000000000000000000000000000000000000000000000000000000000000000000000000000000000000000000000000000000000000000000000000000000000000000000000000000000000000000001
310
03010000030301030000000000030303000000000001010303000101010000000000000000000000000000000000000000000000000000000000000000000000000000000000000000000000000000000000000000000000000000000000000000000000000000000000000000000000000000000000000000000000000000
310
00000000000000000000000000000000000000000000000000000000000000000000000000000000000000000000000000000000030303000000030303030300000103030101000303030303030000000403000000000000000000000000000000000000000000000000000000000000000000000000000000000000000000
310
00000000000000000000000000000000000000000000000000000000000000000000000000000000000000000000000000000000000000000000000000000000000000000000000000000000000000000000000000000000000000000000000000000000000000000000000303030300030303030103030303030303010303
310
03030303030303000000000000000000000000000000000000000000000000000000000000000000000000000000000000000000000000000000000000000000000000000000000000000000000000000000000000000000000000000000000000000000000000000000000000000000000000000000000000000000000000
310
00000000000000000000000000000000000000000000000000000000000000000000030003030303030303030101010103030303030303030303000000000000000000000000000000000000000000000000000000000000000000000000000000000000000000000000000000000000000000000000000000000000000000
310
00000000000000000000000000000000000000000000000000000000000000000000000000000000000000000000000000000000000000000000000000000000000000000000000000000000000000000000000000000003010303000003030303030303030303030303000103030100000000000000000000000000000000
310
00000000000000000000000000000000000000000000000000000000000000000000000000000000000000000000000000000000000000000000000000000000000000000000000000000000000000000000000000000000000000000000000000000000000000000000000000000000000000000000000000000000000000
310
00000000000000000000000000030303030303030300000003030300000003030303030303000000000000000000000000000000000000000000000000000000000000000000000000000000000000000000000000000000000000000000000000000000000000000000000000000000000000000000000000000000000000
310
00000000000000000000000000000000000000000000000000000000000000000000000000000000000000000000000000000000000000000000000000000000000000000000000000000000000000000000000000000000000000000000000000000000000000000000000000000000000000000000000000000000000000
310
00000000000000000000000000000000000000000000000000000000000000000000000000000000000000000000000000000000000000000000000000000000000000000000000000000000000000000000000000000000000000000000000000000000000000000000000000000000000000000000000000000000000000
310
00000000000000000000000000000000000000000000000000000000000000000000000000000000000000000000000000000000000000000000000000000000000000000000000000000000000000000000000000000000000000000000000000000000000000000000000000000000000000000000000000000000000000
310
00000000000000000000000000000000000000000000000000000000000000000000000000000000000000000000000000000000000000000000000000000000000000000000000000000000000000000000000000000000000000000000000000000000000000000000000000000000000000000000000000000000000000
310
00000000000000000000000000000000000000000000000000000000000000000000000000000000000000000000000000000000000000000000000000000000000000000000000000000000000000000000000000000000000000000000000000000000000000000000000000000000000000000000000000000000000000
310
00000000000000000000000000000000000000000000000000000000000000000000000000000000000000000000000000000000000000000000000000000000000000000000000000000000000000000000000000000000000000000000000000000000000000000000000000000000000000000000000000000000000000
310
00000000000000000000000000000000000000000000000000000000000000000000000000000000000000000000000000000000000000000000000000000000000000000000000000000000000000000000000000000000000000000000000000000000000000000000000000000000000000000000000000000000000000
310
00000000000000000000000000000000000000000000000000000000000000000000000000000000000000000000000000000000000000000000000000000000000000000000000000000000000000000000000000000000000000000000000000000000000000000000000000000000000000000000000000000000000000
310
00000000000000000000000000000000000000000000000000000000000000000000000000000000000000000000000000000000000000000000000000000000000000000000000000000000000000000000000000000000000000000000000000000000000000000000000000000000000000000000000000000000000000
310
00000000000000000000000000000000000000000000000000000000000000000000000000000000000000000000000000000000000000000000000000000000000000000000000000000000000000000000000000000000000000000000000000000000000000000000000000000000000000000000000000000000000000
310
00000000000000000000000000000000000000000000000000000000000000000000000000000000000000000000000000000000000000000000000000000000000000000000000000000000000000000000000000000000000000000000000000000000000000000000000000000000000000000000000000000000000000
310
00000000000000000000000000000000000000000000000000000000000000000000000000000000000000000000000000000000000000000000000000000000000000000000000000000000000000000000000000000000000000000000000000000000000000000000000000000000000000000000000000000000000000
310
00000000000000000000000000000000000000000000000000000000000000000000000000000000000000000000000000000000000000000000000000000000000000000000000000000000000000000000000000000000000000000000000000000000000000000000000000000000000000000000000000000000000000
310
00000000000000000000000000000000000000000000000000000000000000000000000000000000000000000000000000000000000000000000000000000000000000000000000000000000000000000000000000000000000000000000000000000000000000000000000000000000000000000000000000000000000000
310
00000000000000000000000000000000000000000000000000000000000000000000000000000000000000000000000000000000000000000000000000000000000000000000000000000000000000000000000000000000000000000000000000000000000000000000000000000000000000000000000000000000000000
310
000000000000000000000000000000000000000000000000000000000000000000000000000000000000000000000000000000000000000000000000000000000000000000000000000000000000000000000000000000000000000000000000000000000000000000000000
  0
ENDSEC
  0
EOF
